  0
SECTION
  2
HEADER
  9
$ACADVER
  1
AC1015
  9
$ACADMAINTVER
 70
     6
  9
$DWGCODEPAGE
  3
ANSI_932
  9
$INSBASE
 10
0.0
 20
0.0
 30
0.0
  9
$EXTMIN
 10
23.283333
 20
26.811111
 30
1.000000E+20
  9
$EXTMAX
 10
198.966667
 20
276.930556
 30
-1.000000E+20
  9
$LIMMIN
 10
23.283333
 20
26.811111
  9
$LIMMAX
 10
198.966667
 20
276.930556
  9
$ORTHOMODE
 70
     0
  9
$REGENMODE
 70
     1
  9
$FILLMODE
 70
     1
  9
$QTEXTMODE
 70
     0
  9
$MIRRTEXT
 70
     1
  9
$LTSCALE
 40
1.0
  9
$ATTMODE
 70
     1
  9
$TEXTSIZE
 40
0.2
  9
$TRACEWID
 40
0.05
  9
$TEXTSTYLE
  7
Standard
  9
$CLAYER
  8
0
  9
$CELTYPE
  6
Continuous
  9
$CECOLOR
 62
   256
  9
$CELTSCALE
 40
1.0
  9
$DISPSILH
 70
     0
  9
$DIMSCALE
 40
1.0
  9
$DIMASZ
 40
0.18
  9
$DIMEXO
 40
0.0625
  9
$DIMDLI
 40
0.38
  9
$DIMRND
 40
0.0
  9
$DIMDLE
 40
0.0
  9
$DIMEXE
 40
0.18
  9
$DIMTP
 40
0.0
  9
$DIMTM
 40
0.0
  9
$DIMTXT
 40
0.18
  9
$DIMCEN
 40
0.09
  9
$DIMTSZ
 40
0.0
  9
$DIMTOL
 70
     0
  9
$DIMLIM
 70
     0
  9
$DIMTIH
 70
     1
  9
$DIMTOH
 70
     1
  9
$DIMSE1
 70
     0
  9
$DIMSE2
 70
     0
  9
$DIMTAD
 70
     0
  9
$DIMZIN
 70
     0
  9
$DIMBLK
  1

  9
$DIMASO
 70
     1
  9
$DIMSHO
 70
     1
  9
$DIMPOST
  1

  9
$DIMAPOST
  1

  9
$DIMALT
 70
     0
  9
$DIMALTD
 70
     2
  9
$DIMALTF
 40
25.4
  9
$DIMLFAC
 40
1.0
  9
$DIMTOFL
 70
     0
  9
$DIMTVP
 40
0.0
  9
$DIMTIX
 70
     0
  9
$DIMSOXD
 70
     0
  9
$DIMSAH
 70
     0
  9
$DIMBLK1
  1

  9
$DIMBLK2
  1

  9
$DIMSTYLE
  2
Standard
  9
$DIMCLRD
 70
     0
  9
$DIMCLRE
 70
     0
  9
$DIMCLRT
 70
     0
  9
$DIMTFAC
 40
1.0
  9
$DIMGAP
 40
0.09
  9
$DIMJUST
 70
     0
  9
$DIMSD1
 70
     0
  9
$DIMSD2
 70
     0
  9
$DIMTOLJ
 70
     1
  9
$DIMTZIN
 70
     0
  9
$DIMALTZ
 70
     0
  9
$DIMALTTZ
 70
     0
  9
$DIMUPT
 70
     0
  9
$DIMDEC
 70
     4
  9
$DIMTDEC
 70
     4
  9
$DIMALTU
 70
     2
  9
$DIMALTTD
 70
     2
  9
$DIMTXSTY
  7
Standard
  9
$DIMAUNIT
 70
     0
  9
$DIMADEC
 70
     0
  9
$DIMALTRND
 40
0.0
  9
$DIMAZIN
 70
     0
  9
$DIMDSEP
 70
     0
  9
$DIMATFIT
 70
     3
  9
$DIMFRAC
 70
     0
  9
$DIMLDRBLK
  1

  9
$DIMLUNIT
 70
     2
  9
$DIMLWD
 70
     0
  9
$DIMLWE
 70
     0
  9
$DIMTMOVE
 70
     0
  9
$LUNITS
 70
     2
  9
$LUPREC
 70
     4
  9
$SKETCHINC
 40
0.1
  9
$FILLETRAD
 40
0.0
  9
$AUNITS
 70
     0
  9
$AUPREC
 70
     0
  9
$MENU
  1
acad
  9
$ELEVATION
 40
0.0
  9
$PELEVATION
 40
0.0
  9
$THICKNESS
 40
0.0
  9
$LIMCHECK
 70
     0
  9
$CHAMFERA
 40
0.0
  9
$CHAMFERB
 40
0.0
  9
$CHAMFERC
 40
0.0
  9
$CHAMFERD
 40
0.0
  9
$SKPOLY
 70
     0
  9
$TDCREATE
 40
0.000000000
  9
$TDUCREATE
 40
0.000000000
  9
$TDUPDATE
 40
0.000000000
  9
$TDUUPDATE
 40
0.000000000
  9
$TDINDWG
 40
0.0000000000
  9
$TDUSRTIMER
 40
0.0000000000
  9
$USRTIMER
 70
     1
  9
$ANGBASE
 50
0.0
  9
$ANGDIR
 70
     0
  9
$PDMODE
 70
     0
  9
$PDSIZE
 40
0.0
  9
$PLINEWID
 40
0.0
  9
$SPLFRAME
 70
     0
  9
$SPLINETYPE
 70
     6
  9
$SPLINESEGS
 70
     8
  9
$HANDSEED
  5
5D1
  9
$SURFTAB1
 70
     6
  9
$SURFTAB2
 70
     6
  9
$SURFTYPE
 70
     6
  9
$SURFU
 70
     6
  9
$SURFV
 70
     6
  9
$UCSBASE
  2

  9
$UCSNAME
  2

  9
$UCSORG
 10
0.0
 20
0.0
 30
0.0
  9
$UCSXDIR
 10
1.0
 20
0.0
 30
0.0
  9
$UCSYDIR
 10
0.0
 20
1.0
 30
0.0
  9
$UCSORTHOREF
  2

  9
$UCSORTHOVIEW
 70
     0
  9
$UCSORGTOP
 10
0.0
 20
0.0
 30
0.0
  9
$UCSORGBOTTOM
 10
0.0
 20
0.0
 30
0.0
  9
$UCSORGLEFT
 10
0.0
 20
0.0
 30
0.0
  9
$UCSORGRIGHT
 10
0.0
 20
0.0
 30
0.0
  9
$UCSORGFRONT
 10
0.0
 20
0.0
 30
0.0
  9
$UCSORGBACK
 10
0.0
 20
0.0
 30
0.0
  9
$PUCSBASE
  2

  9
$PUCSNAME
  2

  9
$PUCSORG
 10
0.0
 20
0.0
 30
0.0
  9
$PUCSXDIR
 10
1.0
 20
0.0
 30
0.0
  9
$PUCSYDIR
 10
0.0
 20
1.0
 30
0.0
  9
$PUCSORTHOREF
  2

  9
$PUCSORTHOVIEW
 70
     0
  9
$PUCSORGTOP
 10
0.0
 20
0.0
 30
0.0
  9
$PUCSORGBOTTOM
 10
0.0
 20
0.0
 30
0.0
  9
$PUCSORGLEFT
 10
0.0
 20
0.0
 30
0.0
  9
$PUCSORGRIGHT
 10
0.0
 20
0.0
 30
0.0
  9
$PUCSORGFRONT
 10
0.0
 20
0.0
 30
0.0
  9
$PUCSORGBACK
 10
0.0
 20
0.0
 30
0.0
  9
$USERI1
 70
     0
  9
$USERI2
 70
     0
  9
$USERI3
 70
     0
  9
$USERI4
 70
     0
  9
$USERI5
 70
     0
  9
$USERR1
 40
0.0
  9
$USERR2
 40
0.0
  9
$USERR3
 40
0.0
  9
$USERR4
 40
0.0
  9
$USERR5
 40
0.0
  9
$WORLDVIEW
 70
     1
  9
$SHADEDGE
 70
     3
  9
$SHADEDIF
 70
    70
  9
$TILEMODE
 70
     1
  9
$MAXACTVP
 70
    16
  9
$PINSBASE
 10
0.0
 20
0.0
 30
0.0
  9
$PLIMCHECK
 70
     0
  9
$PEXTMIN
 10
1.000000E+20
 20
1.000000E+20
 30
1.000000E+20
  9
$PEXTMAX
 10
-1.000000E+20
 20
-1.000000E+20
 30
-1.000000E+20
  9
$PLIMMIN
 10
0.0
 20
0.0
  9
$PLIMMAX
 10
12.0
 20
9.0
  9
$UNITMODE
 70
     0
  9
$VISRETAIN
 70
     0
  9
$PLINEGEN
 70
     1
  9
$PSLTSCALE
 70
     0
  9
$TREEDEPTH
 70
  3020
  9
$CMLSTYLE
  2
Standard
  9
$CMLJUST
 70
     0
  9
$CMLSCALE
 40
1.0
  9
$PROXYGRAPHICS
 70
     0
  9
$MEASUREMENT
 70
     1
  9
$CELWEIGHT
370
     0
  9
$ENDCAPS
280
     0
  9
$JOINSTYLE
280
     0
  9
$LWDISPLAY
290
     0
  9
$INSUNITS
 70
     0
  9
$HYPERLINKBASE
  1

  9
$STYLESHEET
  1

  9
$XEDIT
290
     1
  9
$CEPSNTYPE
380
     0
  9
$PSTYLEMODE
290
     1
  9
$FINGERPRINTGUID
  2

  9
$VERSIONGUID
  2

  9
$EXTNAMES
290
     1
  9
$PSVPSCALE
 40
0.0
  0
ENDSEC
  0
SECTION
  2
CLASSES
  0
CLASS
  1
LWPOLYLINE
  2
AcDbPolyline
  3
AutoCAD 2000
 90
    32768
280
     0
281
     1
  0
CLASS
  1
IMAGE
  2
AcDbRasterImage
  3
ISM
 90
      127
280
     0
281
     1
  0
CLASS
  1
OLE2FRAME
  2
AcDbOle2Frame
  3
AutoCAD 2000
 90
    32768
280
     0
281
     1
  0
CLASS
  1
HATCH
  2
AcDbHatch
  3
AutoCAD 2000
 90
    32768
280
     0
281
     1
  0
CLASS
  1
DICTIONARYVAR
  2
AcDbDictionaryVar
  3
AutoCAD 2000
 90
    32768
280
     0
281
     0
  0
CLASS
  1
RASTERVARIABLES
  2
AcDbRasterVariables
  3
ISM
 90
    32768
280
     0
281
     0
  0
CLASS
  1
IMAGEDEF
  2
AcDbRasterImageDef
  3
ISM
 90
        0
280
     0
281
     0
  0
CLASS
  1
IMAGEDEF_REACTOR
  2
AcDbRasterImageDefReactor
  3
ISM
 90
        1
280
     0
281
     0
  0
CLASS
  1
IDBUFFER
  2
AcDbIdBuffer
  3
AutoCAD 2000
 90
    32768
280
     0
281
     0
  0
CLASS
  1
SPATIAL_FILTER
  2
AcDbSpatialFilter
  3
AutoCAD 2000
 90
    32768
280
     0
281
     0
  0
CLASS
  1
XRECORD
  2
AcDbXrecord
  3
AutoCAD 2000
 90
    32768
280
     0
281
     0
  0
CLASS
  1
SORTENTSTABLE
  2
AcDbSortentsTable
  3
AutoCAD 2000
 90
    32768
280
     0
281
     0
  0
CLASS
  1
LAYER_INDEX
  2
AcDbLayerIndex
  3
AutoCAD 2000
 90
    32768
280
     0
281
     0
  0
CLASS
  1
SPATIAL_INDEX
  2
AcDbSpatialIndex
  3
AutoCAD 2000
 90
    32768
280
     0
281
     0
  0
CLASS
  1
OBJECT_PTR
  2
CAseDLPNTableRecord
  3
"ASE-LPNTableRecord"
 90
    32769
280
     0
281
     0
  0
CLASS
  1
LAYOUT
  2
AcDbLayout
  3
AutoCAD 2000
 90
        0
280
     0
281
     0
  0
CLASS
  1
PLOTSETTINGS
  2
AcDbPlotSettings
  3
AutoCAD 2000
 90
    32768
280
     0
281
     0
  0
CLASS
  1
ACDBDICTIONARYWDFLT
  2
AcDbDictionaryWithDefault
  3
AutoCAD 2000
 90
        0
280
     0
281
     0
  0
CLASS
  1
ACDBPLACEHOLDER
  2
AcDbPlaceHolder
  3
AutoCAD 2000
 90
        0
280
     0
281
     0
  0
CLASS
  1
VBA_PROJECT
  2
AcDbVbaProject
  3
acadvba
 90
    32768
280
     0
281
     0
  0
CLASS
  1
WIPEOUT
  2
AcDbWipeout
  3
WipeOut|AutoCAD Express Tool|expresstools@autodesk.com
 90
    32895
280
     0
281
     1
  0
CLASS
  1
WIPEOUTVARIABLES
  2
AcDbWipeoutVariables
  3
WipeOut|AutoCAD Express Tool|expresstools@autodesk.com
 90
        0
280
     0
281
     0
  0
CLASS
  1
RTEXT
  2
RText
  3
RText|AutoCAD Express Tool|expresstools@autodesk.com
 90
    32768
280
     0
281
     1
  0
CLASS
  1
ARCALIGNEDTEXT
  2
AcDbArcAlignedText
  3
ATEXT|AutoCAD Express Tool|expresstools@autodesk.com
 90
    32768
280
     0
281
     1
  0
ENDSEC
  0
SECTION
  2
TABLES
  0
TABLE
  2
VPORT
  5
7
100
AcDbSymbolTable
 70
     1
  0
VPORT
  5
15
100
AcDbSymbolTableRecord
100
AcDbViewportTableRecord
  2
*ACTIVE
 70
     0
 10
0.0
 20
0.0
 11
1.0
 21
1.0
 12
6.591288
 22
4.579184
 13
0.0
 23
0.0
 14
1.0
 24
1.0
 15
0.0
 25
0.0
 16
0.0
 26
0.0
 36
1.0
 17
0.0
 27
0.0
 37
0.0
 40
9.158369
 41
0.688564
 42
50.0
 43
0.0
 44
0.0
 50
0.0
 51
0.0
 71
     0
 72
   100
 73
     1
 74
     1
 75
     0
 76
     0
 77
     0
 78
     0
281
     0
 65
     0
110
0.0
120
0.0
130
0.0
111
1.0
121
0.0
131
0.0
112
0.0
122
1.0
132
0.0
345
0
346
0
 79
     0
146
0.0
  0
ENDTAB
  0
TABLE
  2
LTYPE
  5
4
100
AcDbSymbolTable
 70
     6
  0
LTYPE
  5
11
100
AcDbSymbolTableRecord
100
AcDbLinetypeTableRecord
  2
ByBlock
 70
    64
  3

 72
    65
 73
     0
 40
0.0
  0
LTYPE
  5
12
100
AcDbSymbolTableRecord
100
AcDbLinetypeTableRecord
  2
ByLayer
 70
    64
  3

 72
    65
 73
     0
 40
0.0
  0
LTYPE
  5
13
100
AcDbSymbolTableRecord
100
AcDbLinetypeTableRecord
  2
Continuous
 70
    64
  3
Solid line
 72
    65
 73
     0
 40
0.0
  0
LTYPE
  5
5D
100
AcDbSymbolTableRecord
100
AcDbLinetypeTableRecord
  2
AI9-LType1
 70
    64
  3
Illustrator Dash Style No.1
 72
    65
 73
     4
 40
8.000295
 49
4.99992
 74
     0
 49
-1.000125
 74
     0
 49
1.000125
 74
     0
 49
-1.000125
 74
     0
  0
LTYPE
  5
E0
100
AcDbSymbolTableRecord
100
AcDbLinetypeTableRecord
  2
AI9-LType2
 70
    64
  3
Illustrator Dash Style No.2
 72
    65
 73
     2
 40
3.999795
 49
1.000125
 74
     0
 49
-2.99967
 74
     0
  0
LTYPE
  5
554
100
AcDbSymbolTableRecord
100
AcDbLinetypeTableRecord
  2
AI9-LType3
 70
    64
  3
Illustrator Dash Style No.3
 72
    65
 73
     4
 40
14.795182
 49
9.246975
 74
     0
 49
-1.849402
 74
     0
 49
1.849402
 74
     0
 49
-1.849402
 74
     0
  0
ENDTAB
  0
TABLE
  2
LAYER
  5
2
100
AcDbSymbolTable
 70
     3
  0
LAYER
  5
14
100
AcDbSymbolTableRecord
100
AcDbLayerTableRecord
  2
0
 70
     0
 62
     7
  6
Continuous
290
     1
370
    -3
390
1D
  0
LAYER
  5
28
100
AcDbSymbolTableRecord
100
AcDbLayerTableRecord
  2
レイヤー_2
 70
     0
 62
     1
  6
Continuous
290
     1
370
    -3
390
1D
  0
LAYER
  5
5B6
100
AcDbSymbolTableRecord
100
AcDbLayerTableRecord
  2
レイヤー_1
 70
     0
 62
   160
  6
Continuous
290
     1
370
    -3
390
1D
  0
ENDTAB
  0
TABLE
  2
STYLE
  5
3
100
AcDbSymbolTable
 70
     5
  0
STYLE
  5
17
100
AcDbSymbolTableRecord
100
AcDbTextStyleTableRecord
  2
Standard
 70
     0
 40
0.0
 41
1.0
 50
0.0
 71
     0
 42
0.0
  3
txt
  4

  0
STYLE
  5
24
100
AcDbSymbolTableRecord
100
AcDbTextStyleTableRecord
  2
STD
 70
     0
 40
0.0
 41
1.0
 50
0.0
 71
     0
 42
0.0
  3
txt
  4

  0
STYLE
  5
25
100
AcDbSymbolTableRecord
100
AcDbTextStyleTableRecord
  2
TATESTD
 70
     4
 40
0.0
 41
1.0
 50
0.0
 71
     0
 42
0.0
  3
txt
  4

  0
STYLE
  5
26
100
AcDbSymbolTableRecord
100
AcDbTextStyleTableRecord
  2
KANJISTD
 70
     0
 40
0.0
 41
1.0
 50
0.0
 71
     0
 42
0.0
  3
txt
  4
extfont
  0
STYLE
  5
27
100
AcDbSymbolTableRecord
100
AcDbTextStyleTableRecord
  2
KANJITATE
 70
     4
 40
0.0
 41
1.0
 50
0.0
 71
     0
 42
0.0
  3
txt
  4
extfont
  0
ENDTAB
  0
TABLE
  2
VIEW
  5
5
100
AcDbSymbolTable
 70
     0
  0
ENDTAB
  0
TABLE
  2
UCS
  5
6
100
AcDbSymbolTable
 70
     0
  0
ENDTAB
  0
TABLE
  2
APPID
  5
8
100
AcDbSymbolTable
 70
     1
  0
APPID
  5
16
100
AcDbSymbolTableRecord
100
AcDbRegAppTableRecord
  2
ACAD
 70
     0
  0
ENDTAB
  0
TABLE
  2
DIMSTYLE
  5
9
100
AcDbSymbolTable
 70
     1
100
AcDbDimStyleTable
 71
     0
  0
DIMSTYLE
105
18
100
AcDbSymbolTableRecord
100
AcDbDimStyleTableRecord
  2
Standard
 70
     0
  3

  4

 40
1.0
 41
0.18
 42
0.0625
 43
0.38
 44
0.18
 45
0.0
 46
0.0
 47
0.0
 48
0.0
 71
     0
 72
     0
 73
     1
 74
     1
 75
     0
 76
     0
 77
     0
 78
     0
 79
     0
140
0.18
141
0.09
142
0.0
143
25.4
144
1.0
145
0.0
146
1.0
147
0.09
148
0.0
170
     0
171
     2
172
     0
173
     0
174
     0
175
     0
176
     0
177
     0
178
     0
179
     0
271
     4
272
     4
273
     2
274
     2
275
     0
276
     0
277
     2
278
    46
279
     0
280
     0
281
     0
282
     0
283
     1
284
     0
285
     0
286
     0
288
     0
340
17
341
0
342
0
343
0
344
0
371
    -2
372
    -2
  0
ENDTAB
  0
TABLE
  2
BLOCK_RECORD
  5
1
100
AcDbSymbolTable
 70
     8
  0
BLOCK_RECORD
  5
A
100
AcDbSymbolTableRecord
100
AcDbBlockTableRecord
  2
*MODEL_SPACE
340
20
  0
BLOCK_RECORD
  5
B
100
AcDbSymbolTableRecord
100
AcDbBlockTableRecord
  2
*PAPER_SPACE
340
21
  0
BLOCK_RECORD
  5
4F4
100
AcDbSymbolTableRecord
100
AcDbBlockTableRecord
  2
AI9-BLK1
340
0
102
{BLKREFS
331
4F5
102
}
  0
BLOCK_RECORD
  5
501
100
AcDbSymbolTableRecord
100
AcDbBlockTableRecord
  2
AI9-BLK2
340
0
102
{BLKREFS
331
502
102
}
  0
BLOCK_RECORD
  5
507
100
AcDbSymbolTableRecord
100
AcDbBlockTableRecord
  2
AI9-BLK3
340
0
102
{BLKREFS
331
508
102
}
  0
BLOCK_RECORD
  5
50A
100
AcDbSymbolTableRecord
100
AcDbBlockTableRecord
  2
AI9-BLK4
340
0
102
{BLKREFS
331
50B
102
}
  0
BLOCK_RECORD
  5
50D
100
AcDbSymbolTableRecord
100
AcDbBlockTableRecord
  2
AI9-BLK5
340
0
102
{BLKREFS
331
50E
102
}
  0
BLOCK_RECORD
  5
55B
100
AcDbSymbolTableRecord
100
AcDbBlockTableRecord
  2
AI9-BLK6
340
0
102
{BLKREFS
331
55C
102
}
  0
BLOCK_RECORD
  5
55E
100
AcDbSymbolTableRecord
100
AcDbBlockTableRecord
  2
AI9-BLK7
340
0
102
{BLKREFS
331
55F
102
}
  0
BLOCK_RECORD
  5
561
100
AcDbSymbolTableRecord
100
AcDbBlockTableRecord
  2
AI9-BLK8
340
0
102
{BLKREFS
331
562
102
}
  0
ENDTAB
  0
ENDSEC
  0
SECTION
  2
BLOCKS
  0
BLOCK
  5
D
100
AcDbEntity
  8
0
100
AcDbBlockBegin
  2
*MODEL_SPACE
 70
     0
 10
0.0
 20
0.0
 30
0.0
  3
*MODEL_SPACE
  1

  0
ENDBLK
  5
E
100
AcDbEntity
  8
0
100
AcDbBlockEnd
  0
BLOCK
  5
F
100
AcDbEntity
 67
     1
  8
0
100
AcDbBlockBegin
  2
*PAPER_SPACE
 70
     0
 10
0.0
 20
0.0
 30
0.0
  3
*PAPER_SPACE
  1

  0
ENDBLK
  5
10
100
AcDbEntity
 67
     1
  8
0
100
AcDbBlockEnd
  0
BLOCK
  5
4F6
100
AcDbEntity
  8
レイヤー_2
  6
AI9-LType2
 62
     7
100
AcDbBlockBegin
  2
AI9-BLK1
 70
     0
 10
0.0
 20
0.0
 30
0.0
  3
AI9-BLK1
  1

  0
MTEXT
  5
4F7
100
AcDbEntity
  8
レイヤー_2
  6
AI9-LType2
 62
     7
100
AcDbMText
 10
-7.408333
 20
2.835313
 30
0.0
 40
5.512152
 41
0.0
 71
     1
 72
     2
  1
\fMS Gothic|b0|i0|c128;\H5.5122;\C7;\U+03C6\U+0033\U+0035
  7
STD
210
0.0
220
0.0
230
1.0
 73
     1
 44
1.0
  0
ENDBLK
  5
4F8
100
AcDbEntity
  8
レイヤー_2
100
AcDbBlockEnd
  0
BLOCK
  5
503
100
AcDbEntity
  8
レイヤー_2
 62
     7
100
AcDbBlockBegin
  2
AI9-BLK2
 70
     0
 10
0.0
 20
0.0
 30
0.0
  3
AI9-BLK2
  1

  0
MTEXT
  5
505
100
AcDbEntity
  8
レイヤー_2
 62
     7
100
AcDbMText
 10
-9.928679
 20
3.954609
 30
0.0
 40
2.887318
 41
0.0
 71
     1
 72
     2
  1
\fMS PGothic|b0|i0|c128;\H2.8873;\C7;\U+63A5\U+7D9A\U+30BD\U+30B1\U+30C3\U+30C8
  7
STD
210
0.0
220
0.0
230
1.0
 73
     1
 44
1.0
  0
MTEXT
  5
504
100
AcDbEntity
  8
レイヤー_2
 62
     7
100
AcDbMText
 10
-9.928679
 20
-0.98428
 30
0.0
 40
2.887318
 41
0.0
 71
     1
 72
     2
  1
\fMS PGothic|b0|i0|c128;\H2.8873;\C7;\U+FF08\U+9006\U+6B62\U+5F01\U+4ED8\U+FF09
  7
STD
210
0.0
220
0.0
230
1.0
 73
     1
 44
1.0
  0
ENDBLK
  5
506
100
AcDbEntity
  8
レイヤー_2
100
AcDbBlockEnd
  0
BLOCK
  5
509
100
AcDbEntity
  8
レイヤー_2
 62
     7
100
AcDbBlockBegin
  2
AI9-BLK3
 70
     0
 10
0.0
 20
0.0
 30
0.0
  3
AI9-BLK3
  1

  0
MTEXT
  5
559
100
AcDbEntity
  8
レイヤー_2
  6
AI9-LType3
 62
     7
100
AcDbMText
 10
-10.952648
 20
-34.029448
 30
0.0
 40
5.512152
 41
0.0
 71
     1
 72
     2
  1
\fMS PGothic|b0|i0|c128;\H5.5122;\C7;\U+0047\U+0031\U+002F\U+0032
  7
STD
210
0.0
220
0.0
230
1.0
 73
     1
 44
1.0
  0
INSERT
  5
50B
100
AcDbEntity
  8
レイヤー_2
 62
     7
100
AcDbBlockReference
  2
AI9-BLK4
 10
2.170066
 20
4.084505
 30
0.0
  0
ENDBLK
  5
55A
100
AcDbEntity
  8
レイヤー_2
100
AcDbBlockEnd
  0
BLOCK
  5
50C
100
AcDbEntity
  8
レイヤー_2
 62
     7
100
AcDbBlockBegin
  2
AI9-BLK4
 70
     0
 10
0.0
 20
0.0
 30
0.0
  3
AI9-BLK4
  1

  0
LINE
  5
557
100
AcDbEntity
  8
レイヤー_2
  6
AI9-LType3
 62
     7
100
AcDbLine
 10
8.694387
 20
-27.15097
 30
0.0
 11
8.694387
 21
36.381759
 31
0.0
  0
LINE
  5
556
100
AcDbEntity
  8
レイヤー_2
  6
AI9-LType3
 62
     7
100
AcDbLine
 10
8.570364
 20
-27.069666
 30
0.0
 11
-5.567619
 21
-15.429377
 31
0.0
  0
LINE
  5
555
100
AcDbEntity
  8
レイヤー_2
  6
AI9-LType3
 62
     7
100
AcDbLine
 10
-5.567619
 20
-15.429377
 30
0.0
 11
-5.567619
 21
-36.381759
 31
0.0
  0
INSERT
  5
50E
100
AcDbEntity
  8
レイヤー_2
 62
     7
100
AcDbBlockReference
  2
AI9-BLK5
 10
-5.567963
 20
-29.339467
 30
0.0
  0
ENDBLK
  5
558
100
AcDbEntity
  8
レイヤー_2
100
AcDbBlockEnd
  0
BLOCK
  5
50F
100
AcDbEntity
  8
レイヤー_2
 62
     7
100
AcDbBlockBegin
  2
AI9-BLK5
 70
     0
 10
0.0
 20
0.0
 30
0.0
  3
AI9-BLK5
  1

  0
SPLINE
  5
552
100
AcDbEntity
  8
レイヤー_2
 62
     7
100
AcDbSpline
210
0.0
220
0.0
230
1.0
 70
     8
 71
     3
 72
    95
 73
    91
 74
     0
 42
0.00000001
 43
0.00000001
 40
0.0
 40
0.0
 40
0.0
 40
0.0
 40
1.0
 40
1.0
 40
1.0
 40
2.0
 40
2.0
 40
2.0
 40
3.0
 40
3.0
 40
3.0
 40
4.0
 40
4.0
 40
4.0
 40
5.0
 40
5.0
 40
5.0
 40
6.0
 40
6.0
 40
6.0
 40
7.0
 40
7.0
 40
7.0
 40
8.0
 40
8.0
 40
8.0
 40
9.0
 40
9.0
 40
9.0
 40
10.0
 40
10.0
 40
10.0
 40
11.0
 40
11.0
 40
11.0
 40
12.0
 40
12.0
 40
12.0
 40
13.0
 40
13.0
 40
13.0
 40
14.0
 40
14.0
 40
14.0
 40
15.0
 40
15.0
 40
15.0
 40
16.0
 40
16.0
 40
16.0
 40
17.0
 40
17.0
 40
17.0
 40
18.0
 40
18.0
 40
18.0
 40
19.0
 40
19.0
 40
19.0
 40
20.0
 40
20.0
 40
20.0
 40
21.0
 40
21.0
 40
21.0
 40
22.0
 40
22.0
 40
22.0
 40
23.0
 40
23.0
 40
23.0
 40
24.0
 40
24.0
 40
24.0
 40
25.0
 40
25.0
 40
25.0
 40
26.0
 40
26.0
 40
26.0
 40
27.0
 40
27.0
 40
27.0
 40
28.0
 40
28.0
 40
28.0
 40
29.0
 40
29.0
 40
29.0
 40
30.0
 40
30.0
 40
30.0
 40
30.0
 10
1.1103542751736111
 20
6.2991848415798604
 30
0.0
 10
1.097951931423611
 20
6.2957397460937496
 30
0.0
 10
1.085549587673611
 20
6.292294650607638
 30
0.0
 10
1.0731472439236109
 20
6.2888495551215273
 30
0.0
 10
1.0607449001736111
 20
6.2854044596354157
 30
0.0
 10
1.0483425564236111
 20
6.282648383246527
 30
0.0
 10
1.035940212673611
 20
6.2798923068576382
 30
0.0
 10
1.023537868923611
 20
6.2771362304687495
 30
0.0
 10
1.0111355251736109
 20
6.2743801540798607
 30
0.0
 10
0.998733181423611
 20
6.2723130967881939
 30
0.0
 10
0.9863308376736111
 20
6.2702460394965271
 30
0.0
 10
0.973928493923611
 20
6.2688680013020823
 30
0.0
 10
0.9608371310763888
 20
6.2674899631076384
 30
0.0
 10
0.9484347873263888
 20
6.2661119249131936
 30
0.0
 10
0.9360324435763888
 20
6.2661119249131936
 30
0.0
 10
0.9229410807291666
 20
6.2661119249131936
 30
0.0
 10
0.8946912977430555
 20
6.2668009440104164
 30
0.0
 10
0.8664415147569444
 20
6.2702460394965271
 30
0.0
 10
0.8388807508680555
 20
6.2771362304687495
 30
0.0
 10
0.8099419487847221
 20
6.2840264214409718
 30
0.0
 10
0.781692165798611
 20
6.2916056315104161
 30
0.0
 10
0.7541314019097222
 20
6.2998738606770823
 30
0.0
 10
0.725881618923611
 20
6.3081420898437495
 30
0.0
 10
0.6976318359374999
 20
6.3164103190104157
 30
0.0
 10
0.6700710720486111
 20
6.3239895290798609
 30
0.0
 10
0.6431993272569444
 20
6.3308797200520823
 30
0.0
 10
0.6156385633680555
 20
6.3363918728298607
 30
0.0
 10
0.5880777994791666
 20
6.3398369683159714
 30
0.0
 10
0.5625840928819444
 20
6.3425930447048602
 30
0.0
 10
0.5357123480902777
 20
6.3419040256076382
 30
0.0
 10
0.5102186414930555
 20
6.3370808919270827
 30
0.0
 10
0.4716335720486111
 20
6.3281236436631936
 30
0.0
 10
0.4351155598958333
 20
6.3115871853298602
 30
0.0
 10
0.4034206814236111
 20
6.2881605360243054
 30
0.0
 10
0.3675916883680555
 20
6.2619778103298609
 30
0.0
 10
0.3338297526041666
 20
6.2337280273437496
 30
0.0
 10
0.3028238932291666
 20
6.2027221679687496
 30
0.0
 10
0.2704399956597222
 20
6.1703382703993048
 30
0.0
 10
0.2373670789930555
 20
6.1386433919270829
 30
0.0
 10
0.2049831814236111
 20
6.1069485134548609
 30
0.0
 10
0.1739773220486111
 20
6.0773206922743048
 30
0.0
 10
0.1409044053819444
 20
6.0504489474826384
 30
0.0
 10
0.1050754123263889
 20
6.0263332790798607
 30
0.0
 10
0.0740695529513889
 20
6.0049736870659718
 30
0.0
 10
0.0375515407986111
 20
5.9918823242187491
 30
0.0
 10
0.0003445095486111
 20
5.9863701714409716
 30
0.0
 10
-0.0368625217013889
 20
5.982236056857638
 30
0.0
 10
-0.0740695529513889
 20
5.9870591905381936
 30
0.0
 10
-0.1078314887152778
 20
6.002217610677083
 30
0.0
 10
-0.1457275390625
 20
6.0187540690104164
 30
0.0
 10
-0.1829345703125
 20
6.0359795464409718
 30
0.0
 10
-0.2208306206597222
 20
6.0532050238715271
 30
0.0
 10
-0.2601047092013888
 20
6.0718085394965273
 30
0.0
 10
-0.2986897786458333
 20
6.0924791124131943
 30
0.0
 10
-0.3358968098958333
 20
6.1152167426215271
 30
0.0
 10
-0.3717258029513889
 20
6.1351982964409713
 30
0.0
 10
-0.4096218532986111
 20
6.1517347547743046
 30
0.0
 10
-0.4482069227430555
 20
6.1648261176215273
 30
0.0
 10
-0.4826578776041666
 20
6.1765394422743052
 30
0.0
 10
-0.5191758897569444
 20
6.1806735568576388
 30
0.0
 10
-0.5550048828124999
 20
6.1765394422743052
 30
0.0
 10
-0.5811876085069444
 20
6.1724053276909716
 30
0.0
 10
-0.6066813151041666
 20
6.1634480794270825
 30
0.0
 10
-0.6294189453125
 20
6.1503567165798607
 30
0.0
 10
-0.6542236328125
 20
6.1358873155381941
 30
0.0
 10
-0.6783393012152778
 20
6.1193508572048607
 30
0.0
 10
-0.7010769314236111
 20
6.1014363606770825
 30
0.0
 10
-0.7245035807291667
 20
6.0821438259548604
 30
0.0
 10
-0.7486192491319443
 20
6.0621622721354163
 30
0.0
 10
-0.7720458984374999
 20
6.0421807183159713
 30
0.0
 10
-0.7954725477430555
 20
6.0221991644965271
 30
0.0
 10
-0.8195882161458332
 20
6.002906629774305
 30
0.0
 10
-0.8450819227430555
 20
5.9849921332465268
 30
0.0
 10
-0.8691975911458333
 20
5.9670776367187495
 30
0.0
 10
-0.8953803168402778
 20
5.9526082356770829
 30
0.0
 10
-0.9229410807291666
 20
5.940894911024305
 30
0.0
 10
-0.9346544053819443
 20
5.9353827582465275
 30
0.0
 10
-0.9463677300347222
 20
5.9312486436631939
 30
0.0
 10
-0.9587700737847221
 20
5.9284925672743052
 30
0.0
 10
-0.9711724175347222
 20
5.9250474717881936
 30
0.0
 10
-0.9835747612847221
 20
5.9222913953993048
 30
0.0
 10
-0.9959771050347221
 20
5.9195353190104161
 30
0.0
 10
-1.0083794487847222
 20
5.9174682617187493
 30
0.0
 10
-1.0207817925347222
 20
5.9154012044270825
 30
0.0
 10
-1.0331841362847221
 20
5.9140231662326386
 30
0.0
 10
-1.0462754991319443
 20
5.9126451280381938
 30
0.0
 10
-1.0586778428819443
 20
5.9119561089409718
 30
0.0
 10
-1.0717692057291666
 20
5.910578070746527
 30
0.0
 10
-1.0841715494791666
 20
5.909200032552083
 30
0.0
 10
-1.0972629123263888
 20
5.9085110134548602
 30
0.0
 10
-1.1096652560763889
 20
5.9078219943576382
 30
0.0
  0
LINE
  5
551
100
AcDbEntity
  8
レイヤー_2
 62
     7
100
AcDbLine
 10
-1.986098
 20
-0.541397
 30
0.0
 11
-1.869653
 21
-0.541397
 31
0.0
  0
LINE
  5
550
100
AcDbEntity
  8
レイヤー_2
 62
     7
100
AcDbLine
 10
-1.869653
 20
0.525894
 30
0.0
 11
-1.869653
 21
-0.541397
 31
0.0
  0
LINE
  5
54F
100
AcDbEntity
  8
レイヤー_2
 62
     7
100
AcDbLine
 10
-1.869653
 20
-0.541397
 30
0.0
 11
-1.986098
 21
-0.743279
 31
0.0
  0
LINE
  5
54E
100
AcDbEntity
  8
レイヤー_2
 62
     7
100
AcDbLine
 10
1.869653
 20
-0.541397
 30
0.0
 11
1.986787
 21
-0.541397
 31
0.0
  0
LINE
  5
54D
100
AcDbEntity
  8
レイヤー_2
 62
     7
100
AcDbLine
 10
1.869653
 20
-0.541397
 30
0.0
 11
1.869653
 21
0.525894
 31
0.0
  0
LINE
  5
54C
100
AcDbEntity
  8
レイヤー_2
 62
     7
100
AcDbLine
 10
1.986787
 20
-0.743279
 30
0.0
 11
1.869653
 21
-0.541397
 31
0.0
  0
LINE
  5
54B
100
AcDbEntity
  8
レイヤー_2
 62
     7
100
AcDbLine
 10
1.096574
 20
0.635448
 30
0.0
 11
1.57682
 21
0.635448
 31
0.0
  0
LINE
  5
54A
100
AcDbEntity
  8
レイヤー_2
 62
     7
100
AcDbLine
 10
1.096574
 20
3.087667
 30
0.0
 11
1.096574
 21
0.635448
 31
0.0
  0
LINE
  5
549
100
AcDbEntity
  8
レイヤー_2
 62
     7
100
AcDbLine
 10
1.57682
 20
3.087667
 30
0.0
 11
1.096574
 21
3.087667
 31
0.0
  0
LINE
  5
548
100
AcDbEntity
  8
レイヤー_2
 62
     7
100
AcDbLine
 10
1.57682
 20
3.087667
 30
0.0
 11
1.57682
 21
0.635448
 31
0.0
  0
LINE
  5
547
100
AcDbEntity
  8
レイヤー_2
 62
     7
100
AcDbLine
 10
1.75252
 20
4.706862
 30
0.0
 11
0.000345
 21
4.706862
 31
0.0
  0
LINE
  5
546
100
AcDbEntity
  8
レイヤー_2
 62
     7
100
AcDbLine
 10
2.453942
 20
0.5004
 30
0.0
 11
0.000345
 21
0.5004
 31
0.0
  0
LINE
  5
545
100
AcDbEntity
  8
レイヤー_2
 62
     7
100
AcDbLine
 10
2.687519
 20
0.635448
 30
0.0
 11
2.453942
 21
0.5004
 31
0.0
  0
LINE
  5
544
100
AcDbEntity
  8
レイヤー_2
 62
     7
100
AcDbLine
 10
1.75252
 20
4.706862
 30
0.0
 11
2.56005
 21
3.308842
 31
0.0
  0
LINE
  5
543
100
AcDbEntity
  8
レイヤー_2
 62
     7
100
AcDbLine
 10
2.687519
 20
3.087667
 30
0.0
 11
2.687519
 21
0.635448
 31
0.0
  0
LINE
  5
542
100
AcDbEntity
  8
レイヤー_2
 62
     7
100
AcDbLine
 10
-1.179945
 20
4.706862
 30
0.0
 11
0.000345
 21
4.706862
 31
0.0
  0
LINE
  5
541
100
AcDbEntity
  8
レイヤー_2
 62
     7
100
AcDbLine
 10
-2.044664
 20
0.5004
 30
0.0
 11
0.000345
 21
0.5004
 31
0.0
  0
LINE
  5
540
100
AcDbEntity
  8
レイヤー_2
 62
     7
100
AcDbLine
 10
-1.57682
 20
0.635448
 30
0.0
 11
-1.095885
 21
0.635448
 31
0.0
  0
LINE
  5
53F
100
AcDbEntity
  8
レイヤー_2
 62
     7
100
AcDbLine
 10
-1.095885
 20
0.635448
 30
0.0
 11
-1.095885
 21
3.087667
 31
0.0
  0
LINE
  5
53E
100
AcDbEntity
  8
レイヤー_2
 62
     7
100
AcDbLine
 10
-1.095885
 20
3.087667
 30
0.0
 11
-1.57682
 21
3.087667
 31
0.0
  0
LINE
  5
53D
100
AcDbEntity
  8
レイヤー_2
 62
     7
100
AcDbLine
 10
-1.57682
 20
0.635448
 30
0.0
 11
-1.57682
 21
3.087667
 31
0.0
  0
LINE
  5
53C
100
AcDbEntity
  8
レイヤー_2
 62
     7
100
AcDbLine
 10
0.000345
 20
4.706862
 30
0.0
 11
-1.75252
 21
4.706862
 31
0.0
  0
LINE
  5
53B
100
AcDbEntity
  8
レイヤー_2
 62
     7
100
AcDbLine
 10
0.000345
 20
0.5004
 30
0.0
 11
-2.453942
 21
0.5004
 31
0.0
  0
LINE
  5
53A
100
AcDbEntity
  8
レイヤー_2
 62
     7
100
AcDbLine
 10
-2.453942
 20
0.5004
 30
0.0
 11
-2.687519
 21
0.635448
 31
0.0
  0
LINE
  5
539
100
AcDbEntity
  8
レイヤー_2
 62
     7
100
AcDbLine
 10
-2.687519
 20
3.087667
 30
0.0
 11
-1.75252
 21
4.706862
 31
0.0
  0
LINE
  5
538
100
AcDbEntity
  8
レイヤー_2
 62
     7
100
AcDbLine
 10
-2.687519
 20
0.635448
 30
0.0
 11
-2.687519
 21
3.087667
 31
0.0
  0
LINE
  5
537
100
AcDbEntity
  8
レイヤー_2
 62
     7
100
AcDbLine
 10
2.56005
 20
3.308842
 30
0.0
 11
2.687519
 21
3.087667
 31
0.0
  0
SPLINE
  5
536
100
AcDbEntity
  8
レイヤー_2
 62
     7
100
AcDbSpline
210
0.0
220
0.0
230
1.0
 70
     8
 71
     3
 72
     8
 73
     4
 74
     0
 42
0.00000001
 43
0.00000001
 40
0.0
 40
0.0
 40
0.0
 40
0.0
 40
1.0
 40
1.0
 40
1.0
 40
1.0
 10
1.0965738932291667
 20
0.6354478624131944
 30
0.0
 10
0.7375949435763888
 20
0.5458753797743056
 30
0.0
 10
0.3696587456597222
 20
0.5004001193576388
 30
0.0
 10
0.0003445095486111
 20
0.5004001193576388
 30
0.0
  0
SPLINE
  5
535
100
AcDbEntity
  8
レイヤー_2
 62
     7
100
AcDbSpline
210
0.0
220
0.0
230
1.0
 70
     8
 71
     3
 72
     8
 73
     4
 74
     0
 42
0.00000001
 43
0.00000001
 40
0.0
 40
0.0
 40
0.0
 40
0.0
 40
1.0
 40
1.0
 40
1.0
 40
1.0
 10
2.6875189887152775
 20
0.6354478624131944
 30
0.0
 10
2.3395643446180552
 20
0.4549248589409722
 30
0.0
 10
1.9254638671874997
 20
0.4549248589409722
 30
0.0
 10
1.5768202039930554
 20
0.6354478624131944
 30
0.0
  0
SPLINE
  5
534
100
AcDbEntity
  8
レイヤー_2
 62
     7
100
AcDbSpline
210
0.0
220
0.0
230
1.0
 70
     8
 71
     3
 72
     8
 73
     4
 74
     0
 42
0.00000001
 43
0.00000001
 40
0.0
 40
0.0
 40
0.0
 40
0.0
 40
1.0
 40
1.0
 40
1.0
 40
1.0
 10
0.0003445095486111
 20
3.4928100585937498
 30
0.0
 10
0.4020426432291666
 20
3.4928100585937498
 30
0.0
 10
0.7906494140624999
 20
3.3494940863715277
 30
0.0
 10
1.0965738932291667
 20
3.087666829427083
 30
0.0
  0
SPLINE
  5
533
100
AcDbEntity
  8
レイヤー_2
 62
     7
100
AcDbSpline
210
0.0
220
0.0
230
1.0
 70
     8
 71
     3
 72
    11
 73
     7
 74
     0
 42
0.00000001
 43
0.00000001
 40
0.0
 40
0.0
 40
0.0
 40
0.0
 40
1.0
 40
1.0
 40
1.0
 40
2.0
 40
2.0
 40
2.0
 40
2.0
 10
1.5768202039930554
 20
3.087666829427083
 30
0.0
 10
1.6725938585069442
 20
3.3949693467881943
 30
0.0
 10
1.9991889105902776
 20
3.5658460828993053
 30
0.0
 10
2.3058024088541664
 20
3.4693834092881941
 30
0.0
 10
2.403643120659722
 20
3.4390665690104165
 30
0.0
 10
2.491148546006944
 20
3.3839450412326384
 30
0.0
 10
2.5600504557291663
 20
3.3088419596354162
 30
0.0
  0
SPLINE
  5
532
100
AcDbEntity
  8
レイヤー_2
 62
     7
100
AcDbSpline
210
0.0
220
0.0
230
1.0
 70
     8
 71
     3
 72
     8
 73
     4
 74
     0
 42
0.00000001
 43
0.00000001
 40
0.0
 40
0.0
 40
0.0
 40
0.0
 40
1.0
 40
1.0
 40
1.0
 40
1.0
 10
0.0003445095486111
 20
0.5004001193576388
 30
0.0
 10
-0.3696587456597222
 20
0.5004001193576388
 30
0.0
 10
-0.7375949435763888
 20
0.5458753797743056
 30
0.0
 10
-1.0958848741319442
 20
0.6354478624131944
 30
0.0
  0
SPLINE
  5
531
100
AcDbEntity
  8
レイヤー_2
 62
     7
100
AcDbSpline
210
0.0
220
0.0
230
1.0
 70
     8
 71
     3
 72
     8
 73
     4
 74
     0
 42
0.00000001
 43
0.00000001
 40
0.0
 40
0.0
 40
0.0
 40
0.0
 40
1.0
 40
1.0
 40
1.0
 40
1.0
 10
-1.5768202039930554
 20
0.6354478624131944
 30
0.0
 10
-1.9254638671874997
 20
0.4549248589409722
 30
0.0
 10
-2.3395643446180552
 20
0.4549248589409722
 30
0.0
 10
-2.6875189887152775
 20
0.6354478624131944
 30
0.0
  0
SPLINE
  5
530
100
AcDbEntity
  8
レイヤー_2
 62
     7
100
AcDbSpline
210
0.0
220
0.0
230
1.0
 70
     8
 71
     3
 72
     8
 73
     4
 74
     0
 42
0.00000001
 43
0.00000001
 40
0.0
 40
0.0
 40
0.0
 40
0.0
 40
1.0
 40
1.0
 40
1.0
 40
1.0
 10
-1.0958848741319442
 20
3.087666829427083
 30
0.0
 10
-0.7906494140624999
 20
3.3494940863715277
 30
0.0
 10
-0.4020426432291666
 20
3.4928100585937498
 30
0.0
 10
0.0003445095486111
 20
3.4928100585937498
 30
0.0
  0
SPLINE
  5
52F
100
AcDbEntity
  8
レイヤー_2
 62
     7
100
AcDbSpline
210
0.0
220
0.0
230
1.0
 70
     8
 71
     3
 72
    11
 73
     7
 74
     0
 42
0.00000001
 43
0.00000001
 40
0.0
 40
0.0
 40
0.0
 40
0.0
 40
1.0
 40
1.0
 40
1.0
 40
2.0
 40
2.0
 40
2.0
 40
2.0
 10
-2.6875189887152775
 20
3.087666829427083
 30
0.0
 10
-2.5917453342013888
 20
3.3949693467881943
 30
0.0
 10
-2.2651502821180554
 20
3.5658460828993053
 30
0.0
 10
-1.9585367838541665
 20
3.4693834092881941
 30
0.0
 10
-1.7766357421874999
 20
3.4128838433159721
 30
0.0
 10
-1.6340087890624999
 20
3.2702568901909719
 30
0.0
 10
-1.5768202039930554
 20
3.087666829427083
 30
0.0
  0
LINE
  5
52E
100
AcDbEntity
  8
レイヤー_2
 62
     7
100
AcDbLine
 10
2.775024
 20
-6.131409
 30
0.0
 11
3.03823
 21
-5.990849
 31
0.0
  0
LINE
  5
52D
100
AcDbEntity
  8
レイヤー_2
 62
     7
100
AcDbLine
 10
-3.03823
 20
-5.990849
 30
0.0
 11
-2.775024
 21
-6.131409
 31
0.0
  0
LINE
  5
52C
100
AcDbEntity
  8
レイヤー_2
 62
     7
100
AcDbLine
 10
3.03823
 20
-1.316543
 30
0.0
 11
2.775024
 21
-1.175983
 31
0.0
  0
LINE
  5
52B
100
AcDbEntity
  8
レイヤー_2
 62
     7
100
AcDbLine
 10
-2.775024
 20
-1.175983
 30
0.0
 11
-3.03823
 21
-1.316543
 31
0.0
  0
LINE
  5
52A
100
AcDbEntity
  8
レイヤー_2
 62
     7
100
AcDbLine
 10
2.687519
 20
-6.34156
 30
0.0
 11
-2.687519
 21
-6.34156
 31
0.0
  0
LINE
  5
529
100
AcDbEntity
  8
レイヤー_2
 62
     7
100
AcDbLine
 10
1.844849
 20
-5.990849
 30
0.0
 11
1.168921
 21
-5.990849
 31
0.0
  0
LINE
  5
528
100
AcDbEntity
  8
レイヤー_2
 62
     7
100
AcDbLine
 10
-1.168232
 20
-5.990849
 30
0.0
 11
-1.84416
 21
-5.990849
 31
0.0
  0
LINE
  5
527
100
AcDbEntity
  8
レイヤー_2
 62
     7
100
AcDbLine
 10
-3.03823
 20
-5.990849
 30
0.0
 11
-2.687519
 21
-6.34156
 31
0.0
  0
LINE
  5
526
100
AcDbEntity
  8
レイヤー_2
 62
     7
100
AcDbLine
 10
3.03823
 20
-5.990849
 30
0.0
 11
2.687519
 21
-6.34156
 31
0.0
  0
LINE
  5
525
100
AcDbEntity
  8
レイヤー_2
 62
     7
100
AcDbLine
 10
-2.687519
 20
-0.965833
 30
0.0
 11
2.687519
 21
-0.965833
 31
0.0
  0
LINE
  5
524
100
AcDbEntity
  8
レイヤー_2
 62
     7
100
AcDbLine
 10
-2.687519
 20
-0.965833
 30
0.0
 11
-3.03823
 21
-1.316543
 31
0.0
  0
LINE
  5
523
100
AcDbEntity
  8
レイヤー_2
 62
     7
100
AcDbLine
 10
-1.84416
 20
-1.316543
 30
0.0
 11
-1.168232
 21
-1.316543
 31
0.0
  0
LINE
  5
522
100
AcDbEntity
  8
レイヤー_2
 62
     7
100
AcDbLine
 10
1.168921
 20
-1.316543
 30
0.0
 11
1.844849
 21
-1.316543
 31
0.0
  0
LINE
  5
521
100
AcDbEntity
  8
レイヤー_2
 62
     7
100
AcDbLine
 10
2.687519
 20
-0.965833
 30
0.0
 11
3.03823
 21
-1.316543
 31
0.0
  0
LINE
  5
520
100
AcDbEntity
  8
レイヤー_2
 62
     7
100
AcDbLine
 10
3.03823
 20
-5.990849
 30
0.0
 11
3.03823
 21
-1.316543
 31
0.0
  0
LINE
  5
51F
100
AcDbEntity
  8
レイヤー_2
 62
     7
100
AcDbLine
 10
1.844849
 20
-5.990849
 30
0.0
 11
1.844849
 21
-1.316543
 31
0.0
  0
LINE
  5
51E
100
AcDbEntity
  8
レイヤー_2
 62
     7
100
AcDbLine
 10
1.168921
 20
-5.990849
 30
0.0
 11
1.168921
 21
-1.316543
 31
0.0
  0
LINE
  5
51D
100
AcDbEntity
  8
レイヤー_2
 62
     7
100
AcDbLine
 10
-1.168232
 20
-5.990849
 30
0.0
 11
-1.168232
 21
-1.316543
 31
0.0
  0
LINE
  5
51C
100
AcDbEntity
  8
レイヤー_2
 62
     7
100
AcDbLine
 10
-1.84416
 20
-5.990849
 30
0.0
 11
-1.84416
 21
-1.316543
 31
0.0
  0
LINE
  5
51B
100
AcDbEntity
  8
レイヤー_2
 62
     7
100
AcDbLine
 10
-3.03823
 20
-5.990849
 30
0.0
 11
-3.03823
 21
-1.316543
 31
0.0
  0
SPLINE
  5
51A
100
AcDbEntity
  8
レイヤー_2
 62
     7
100
AcDbSpline
210
0.0
220
0.0
230
1.0
 70
     8
 71
     3
 72
     8
 73
     4
 74
     0
 42
0.00000001
 43
0.00000001
 40
0.0
 40
0.0
 40
0.0
 40
0.0
 40
1.0
 40
1.0
 40
1.0
 40
1.0
 10
2.7750244140624996
 20
-6.1314086914062491
 30
0.0
 10
2.4684109157986107
 20
-6.2960842556423602
 30
0.0
 10
2.0894504123263888
 20
-6.2388956705729157
 30
0.0
 10
1.8448486328124998
 20
-5.9908487955729157
 30
0.0
  0
SPLINE
  5
519
100
AcDbEntity
  8
レイヤー_2
 62
     7
100
AcDbSpline
210
0.0
220
0.0
230
1.0
 70
     8
 71
     3
 72
     8
 73
     4
 74
     0
 42
0.00000001
 43
0.00000001
 40
0.0
 40
0.0
 40
0.0
 40
0.0
 40
1.0
 40
1.0
 40
1.0
 40
1.0
 10
-1.8441596137152776
 20
-5.9908487955729157
 30
0.0
 10
-2.0894504123263888
 20
-6.2388956705729157
 30
0.0
 10
-2.4677218967013888
 20
-6.2960842556423602
 30
0.0
 10
-2.7750244140624996
 20
-6.1314086914062491
 30
0.0
  0
SPLINE
  5
518
100
AcDbEntity
  8
レイヤー_2
 62
     7
100
AcDbSpline
210
0.0
220
0.0
230
1.0
 70
     8
 71
     3
 72
     8
 73
     4
 74
     0
 42
0.00000001
 43
0.00000001
 40
0.0
 40
0.0
 40
0.0
 40
0.0
 40
1.0
 40
1.0
 40
1.0
 40
1.0
 10
1.1689208984374999
 20
-5.9908487955729157
 30
0.0
 10
0.4206461588541666
 20
-6.3022854275173605
 30
0.0
 10
-0.4206461588541666
 20
-6.3022854275173605
 30
0.0
 10
-1.1682318793402777
 20
-5.9908487955729157
 30
0.0
  0
SPLINE
  5
517
100
AcDbEntity
  8
レイヤー_2
 62
     7
100
AcDbSpline
210
0.0
220
0.0
230
1.0
 70
     8
 71
     3
 72
     8
 73
     4
 74
     0
 42
0.00000001
 43
0.00000001
 40
0.0
 40
0.0
 40
0.0
 40
0.0
 40
1.0
 40
1.0
 40
1.0
 40
1.0
 10
1.8448486328124998
 20
-1.3165432400173609
 30
0.0
 10
2.0894504123263888
 20
-1.0691853841145833
 30
0.0
 10
2.4684109157986107
 20
-1.0119967990451388
 30
0.0
 10
2.7750244140624996
 20
-1.1759833441840277
 30
0.0
  0
SPLINE
  5
516
100
AcDbEntity
  8
レイヤー_2
 62
     7
100
AcDbSpline
210
0.0
220
0.0
230
1.0
 70
     8
 71
     3
 72
     8
 73
     4
 74
     0
 42
0.00000001
 43
0.00000001
 40
0.0
 40
0.0
 40
0.0
 40
0.0
 40
1.0
 40
1.0
 40
1.0
 40
1.0
 10
-2.7750244140624996
 20
-1.1759833441840277
 30
0.0
 10
-2.4677218967013888
 20
-1.0119967990451388
 30
0.0
 10
-2.0894504123263888
 20
-1.0691853841145833
 30
0.0
 10
-1.8441596137152776
 20
-1.3165432400173609
 30
0.0
  0
SPLINE
  5
515
100
AcDbEntity
  8
レイヤー_2
 62
     7
100
AcDbSpline
210
0.0
220
0.0
230
1.0
 70
     8
 71
     3
 72
     8
 73
     4
 74
     0
 42
0.00000001
 43
0.00000001
 40
0.0
 40
0.0
 40
0.0
 40
0.0
 40
1.0
 40
1.0
 40
1.0
 40
1.0
 10
-1.1682318793402777
 20
-1.3165432400173609
 30
0.0
 10
-0.4206461588541666
 20
-1.0051066080729165
 30
0.0
 10
0.4206461588541666
 20
-1.0051066080729165
 30
0.0
 10
1.1689208984374999
 20
-1.3165432400173609
 30
0.0
  0
LINE
  5
514
100
AcDbEntity
  8
レイヤー_2
 62
     7
100
AcDbLine
 10
1.110354
 20
4.706862
 30
0.0
 11
1.110354
 21
6.306764
 31
0.0
  0
LINE
  5
513
100
AcDbEntity
  8
レイヤー_2
 62
     7
100
AcDbLine
 10
-1.109665
 20
4.706862
 30
0.0
 11
-1.109665
 21
5.907822
 31
0.0
  0
LINE
  5
512
100
AcDbEntity
  8
レイヤー_2
 62
     7
100
AcDbLine
 10
-1.986098
 20
-0.743279
 30
0.0
 11
-1.986098
 21
0.5004
 31
0.0
  0
LINE
  5
511
100
AcDbEntity
  8
レイヤー_2
 62
     7
100
AcDbLine
 10
1.986787
 20
0.5004
 30
0.0
 11
1.986787
 21
-0.743279
 31
0.0
  0
LINE
  5
510
100
AcDbEntity
  8
レイヤー_2
 62
     7
100
AcDbLine
 10
1.869653
 20
-0.541397
 30
0.0
 11
-1.869653
 21
-0.541397
 31
0.0
  0
ENDBLK
  5
553
100
AcDbEntity
  8
レイヤー_2
100
AcDbBlockEnd
  0
BLOCK
  5
55D
100
AcDbEntity
  8
レイヤー_2
  6
AI9-LType3
 62
     7
100
AcDbBlockBegin
  2
AI9-BLK6
 70
     0
 10
0.0
 20
0.0
 30
0.0
  3
AI9-BLK6
  1

  0
MTEXT
  5
5AC
100
AcDbEntity
  8
レイヤー_2
  6
AI9-LType3
 62
     7
100
AcDbMText
 10
-4.051002
 20
-34.029448
 30
0.0
 40
5.512152
 41
0.0
 71
     1
 72
     2
  1
\fMS PGothic|b0|i0|c128;\H5.5122;\C7;\U+0047\U+0031\U+002F\U+0032
  7
STD
210
0.0
220
0.0
230
1.0
 73
     1
 44
1.0
  0
INSERT
  5
55F
100
AcDbEntity
  8
レイヤー_2
  6
AI9-LType3
 62
     7
100
AcDbBlockReference
  2
AI9-BLK7
 10
-2.128983
 20
4.084505
 30
0.0
  0
ENDBLK
  5
5AD
100
AcDbEntity
  8
レイヤー_2
100
AcDbBlockEnd
  0
BLOCK
  5
560
100
AcDbEntity
  8
レイヤー_2
  6
AI9-LType3
 62
     7
100
AcDbBlockBegin
  2
AI9-BLK7
 70
     0
 10
0.0
 20
0.0
 30
0.0
  3
AI9-BLK7
  1

  0
LINE
  5
5AA
100
AcDbEntity
  8
レイヤー_2
  6
AI9-LType3
 62
     7
100
AcDbLine
 10
-8.694387
 20
-27.15097
 30
0.0
 11
-8.694387
 21
36.381759
 31
0.0
  0
LINE
  5
5A9
100
AcDbEntity
  8
レイヤー_2
  6
AI9-LType3
 62
     7
100
AcDbLine
 10
-8.570364
 20
-27.069666
 30
0.0
 11
5.567619
 21
-15.429377
 31
0.0
  0
LINE
  5
5A8
100
AcDbEntity
  8
レイヤー_2
  6
AI9-LType3
 62
     7
100
AcDbLine
 10
5.567619
 20
-15.429377
 30
0.0
 11
5.567619
 21
-36.381759
 31
0.0
  0
INSERT
  5
562
100
AcDbEntity
  8
レイヤー_2
  6
AI9-LType3
 62
     7
100
AcDbBlockReference
  2
AI9-BLK8
 10
5.567963
 20
-29.339467
 30
0.0
  0
ENDBLK
  5
5AB
100
AcDbEntity
  8
レイヤー_2
100
AcDbBlockEnd
  0
BLOCK
  5
563
100
AcDbEntity
  8
レイヤー_2
  6
AI9-LType3
 62
     7
100
AcDbBlockBegin
  2
AI9-BLK8
 70
     0
 10
0.0
 20
0.0
 30
0.0
  3
AI9-BLK8
  1

  0
SPLINE
  5
5A6
100
AcDbEntity
  8
レイヤー_2
 62
     7
100
AcDbSpline
210
0.0
220
0.0
230
1.0
 70
     8
 71
     3
 72
    95
 73
    91
 74
     0
 42
0.00000001
 43
0.00000001
 40
0.0
 40
0.0
 40
0.0
 40
0.0
 40
1.0
 40
1.0
 40
1.0
 40
2.0
 40
2.0
 40
2.0
 40
3.0
 40
3.0
 40
3.0
 40
4.0
 40
4.0
 40
4.0
 40
5.0
 40
5.0
 40
5.0
 40
6.0
 40
6.0
 40
6.0
 40
7.0
 40
7.0
 40
7.0
 40
8.0
 40
8.0
 40
8.0
 40
9.0
 40
9.0
 40
9.0
 40
10.0
 40
10.0
 40
10.0
 40
11.0
 40
11.0
 40
11.0
 40
12.0
 40
12.0
 40
12.0
 40
13.0
 40
13.0
 40
13.0
 40
14.0
 40
14.0
 40
14.0
 40
15.0
 40
15.0
 40
15.0
 40
16.0
 40
16.0
 40
16.0
 40
17.0
 40
17.0
 40
17.0
 40
18.0
 40
18.0
 40
18.0
 40
19.0
 40
19.0
 40
19.0
 40
20.0
 40
20.0
 40
20.0
 40
21.0
 40
21.0
 40
21.0
 40
22.0
 40
22.0
 40
22.0
 40
23.0
 40
23.0
 40
23.0
 40
24.0
 40
24.0
 40
24.0
 40
25.0
 40
25.0
 40
25.0
 40
26.0
 40
26.0
 40
26.0
 40
27.0
 40
27.0
 40
27.0
 40
28.0
 40
28.0
 40
28.0
 40
29.0
 40
29.0
 40
29.0
 40
30.0
 40
30.0
 40
30.0
 40
30.0
 10
-1.1103542751736111
 20
6.2991848415798604
 30
0.0
 10
-1.097951931423611
 20
6.2957397460937496
 30
0.0
 10
-1.085549587673611
 20
6.292294650607638
 30
0.0
 10
-1.0731472439236109
 20
6.2888495551215273
 30
0.0
 10
-1.0607449001736111
 20
6.2854044596354157
 30
0.0
 10
-1.0483425564236111
 20
6.282648383246527
 30
0.0
 10
-1.035940212673611
 20
6.2798923068576382
 30
0.0
 10
-1.023537868923611
 20
6.2771362304687495
 30
0.0
 10
-1.0111355251736109
 20
6.2743801540798607
 30
0.0
 10
-0.998733181423611
 20
6.2723130967881939
 30
0.0
 10
-0.9863308376736111
 20
6.2702460394965271
 30
0.0
 10
-0.973928493923611
 20
6.2688680013020823
 30
0.0
 10
-0.9608371310763888
 20
6.2674899631076384
 30
0.0
 10
-0.9484347873263888
 20
6.2661119249131936
 30
0.0
 10
-0.9360324435763888
 20
6.2661119249131936
 30
0.0
 10
-0.9229410807291666
 20
6.2661119249131936
 30
0.0
 10
-0.8946912977430555
 20
6.2668009440104164
 30
0.0
 10
-0.8664415147569444
 20
6.2702460394965271
 30
0.0
 10
-0.8388807508680555
 20
6.2771362304687495
 30
0.0
 10
-0.8099419487847221
 20
6.2840264214409718
 30
0.0
 10
-0.781692165798611
 20
6.2916056315104161
 30
0.0
 10
-0.7541314019097222
 20
6.2998738606770823
 30
0.0
 10
-0.725881618923611
 20
6.3081420898437495
 30
0.0
 10
-0.6976318359374999
 20
6.3164103190104157
 30
0.0
 10
-0.6700710720486111
 20
6.3239895290798609
 30
0.0
 10
-0.6431993272569444
 20
6.3308797200520823
 30
0.0
 10
-0.6156385633680555
 20
6.3363918728298607
 30
0.0
 10
-0.5880777994791666
 20
6.3398369683159714
 30
0.0
 10
-0.5625840928819444
 20
6.3425930447048602
 30
0.0
 10
-0.5357123480902777
 20
6.3419040256076382
 30
0.0
 10
-0.5102186414930555
 20
6.3370808919270827
 30
0.0
 10
-0.4716335720486111
 20
6.3281236436631936
 30
0.0
 10
-0.4351155598958333
 20
6.3115871853298602
 30
0.0
 10
-0.4034206814236111
 20
6.2881605360243054
 30
0.0
 10
-0.3675916883680555
 20
6.2619778103298609
 30
0.0
 10
-0.3338297526041666
 20
6.2337280273437496
 30
0.0
 10
-0.3028238932291666
 20
6.2027221679687496
 30
0.0
 10
-0.2704399956597222
 20
6.1703382703993048
 30
0.0
 10
-0.2373670789930555
 20
6.1386433919270829
 30
0.0
 10
-0.2049831814236111
 20
6.1069485134548609
 30
0.0
 10
-0.1739773220486111
 20
6.0773206922743048
 30
0.0
 10
-0.1409044053819444
 20
6.0504489474826384
 30
0.0
 10
-0.1050754123263889
 20
6.0263332790798607
 30
0.0
 10
-0.0740695529513889
 20
6.0049736870659718
 30
0.0
 10
-0.0375515407986111
 20
5.9918823242187491
 30
0.0
 10
-0.0003445095486111
 20
5.9863701714409716
 30
0.0
 10
0.0368625217013889
 20
5.982236056857638
 30
0.0
 10
0.0740695529513889
 20
5.9870591905381936
 30
0.0
 10
0.1078314887152778
 20
6.002217610677083
 30
0.0
 10
0.1457275390625
 20
6.0187540690104164
 30
0.0
 10
0.1829345703125
 20
6.0359795464409718
 30
0.0
 10
0.2208306206597222
 20
6.0532050238715271
 30
0.0
 10
0.2601047092013888
 20
6.0718085394965273
 30
0.0
 10
0.2986897786458333
 20
6.0924791124131943
 30
0.0
 10
0.3358968098958333
 20
6.1152167426215271
 30
0.0
 10
0.3717258029513889
 20
6.1351982964409713
 30
0.0
 10
0.4096218532986111
 20
6.1517347547743046
 30
0.0
 10
0.4482069227430555
 20
6.1648261176215273
 30
0.0
 10
0.4826578776041666
 20
6.1765394422743052
 30
0.0
 10
0.5191758897569444
 20
6.1806735568576388
 30
0.0
 10
0.5550048828124999
 20
6.1765394422743052
 30
0.0
 10
0.5811876085069444
 20
6.1724053276909716
 30
0.0
 10
0.6066813151041666
 20
6.1634480794270825
 30
0.0
 10
0.6294189453125
 20
6.1503567165798607
 30
0.0
 10
0.6542236328125
 20
6.1358873155381941
 30
0.0
 10
0.6783393012152778
 20
6.1193508572048607
 30
0.0
 10
0.7010769314236111
 20
6.1014363606770825
 30
0.0
 10
0.7245035807291667
 20
6.0821438259548604
 30
0.0
 10
0.7486192491319443
 20
6.0621622721354163
 30
0.0
 10
0.7720458984374999
 20
6.0421807183159713
 30
0.0
 10
0.7954725477430555
 20
6.0221991644965271
 30
0.0
 10
0.8195882161458332
 20
6.002906629774305
 30
0.0
 10
0.8450819227430555
 20
5.9849921332465268
 30
0.0
 10
0.8691975911458333
 20
5.9670776367187495
 30
0.0
 10
0.8953803168402778
 20
5.9526082356770829
 30
0.0
 10
0.9229410807291666
 20
5.940894911024305
 30
0.0
 10
0.9346544053819443
 20
5.9353827582465275
 30
0.0
 10
0.9463677300347222
 20
5.9312486436631939
 30
0.0
 10
0.9587700737847221
 20
5.9284925672743052
 30
0.0
 10
0.9711724175347222
 20
5.9250474717881936
 30
0.0
 10
0.9835747612847221
 20
5.9222913953993048
 30
0.0
 10
0.9959771050347221
 20
5.9195353190104161
 30
0.0
 10
1.0083794487847222
 20
5.9174682617187493
 30
0.0
 10
1.0207817925347222
 20
5.9154012044270825
 30
0.0
 10
1.0331841362847221
 20
5.9140231662326386
 30
0.0
 10
1.0462754991319443
 20
5.9126451280381938
 30
0.0
 10
1.0586778428819443
 20
5.9119561089409718
 30
0.0
 10
1.0717692057291666
 20
5.910578070746527
 30
0.0
 10
1.0841715494791666
 20
5.909200032552083
 30
0.0
 10
1.0972629123263888
 20
5.9085110134548602
 30
0.0
 10
1.1096652560763889
 20
5.9078219943576382
 30
0.0
  0
LINE
  5
5A5
100
AcDbEntity
  8
レイヤー_2
 62
     7
100
AcDbLine
 10
1.986098
 20
-0.541397
 30
0.0
 11
1.869653
 21
-0.541397
 31
0.0
  0
LINE
  5
5A4
100
AcDbEntity
  8
レイヤー_2
 62
     7
100
AcDbLine
 10
1.869653
 20
0.525894
 30
0.0
 11
1.869653
 21
-0.541397
 31
0.0
  0
LINE
  5
5A3
100
AcDbEntity
  8
レイヤー_2
 62
     7
100
AcDbLine
 10
1.869653
 20
-0.541397
 30
0.0
 11
1.986098
 21
-0.743279
 31
0.0
  0
LINE
  5
5A2
100
AcDbEntity
  8
レイヤー_2
 62
     7
100
AcDbLine
 10
-1.869653
 20
-0.541397
 30
0.0
 11
-1.986787
 21
-0.541397
 31
0.0
  0
LINE
  5
5A1
100
AcDbEntity
  8
レイヤー_2
 62
     7
100
AcDbLine
 10
-1.869653
 20
-0.541397
 30
0.0
 11
-1.869653
 21
0.525894
 31
0.0
  0
LINE
  5
5A0
100
AcDbEntity
  8
レイヤー_2
 62
     7
100
AcDbLine
 10
-1.986787
 20
-0.743279
 30
0.0
 11
-1.869653
 21
-0.541397
 31
0.0
  0
LINE
  5
59F
100
AcDbEntity
  8
レイヤー_2
 62
     7
100
AcDbLine
 10
-1.096574
 20
0.635448
 30
0.0
 11
-1.57682
 21
0.635448
 31
0.0
  0
LINE
  5
59E
100
AcDbEntity
  8
レイヤー_2
 62
     7
100
AcDbLine
 10
-1.096574
 20
3.087667
 30
0.0
 11
-1.096574
 21
0.635448
 31
0.0
  0
LINE
  5
59D
100
AcDbEntity
  8
レイヤー_2
 62
     7
100
AcDbLine
 10
-1.57682
 20
3.087667
 30
0.0
 11
-1.096574
 21
3.087667
 31
0.0
  0
LINE
  5
59C
100
AcDbEntity
  8
レイヤー_2
 62
     7
100
AcDbLine
 10
-1.57682
 20
3.087667
 30
0.0
 11
-1.57682
 21
0.635448
 31
0.0
  0
LINE
  5
59B
100
AcDbEntity
  8
レイヤー_2
 62
     7
100
AcDbLine
 10
-1.75252
 20
4.706862
 30
0.0
 11
-0.000345
 21
4.706862
 31
0.0
  0
LINE
  5
59A
100
AcDbEntity
  8
レイヤー_2
 62
     7
100
AcDbLine
 10
-2.453942
 20
0.5004
 30
0.0
 11
-0.000345
 21
0.5004
 31
0.0
  0
LINE
  5
599
100
AcDbEntity
  8
レイヤー_2
 62
     7
100
AcDbLine
 10
-2.687519
 20
0.635448
 30
0.0
 11
-2.453942
 21
0.5004
 31
0.0
  0
LINE
  5
598
100
AcDbEntity
  8
レイヤー_2
 62
     7
100
AcDbLine
 10
-1.75252
 20
4.706862
 30
0.0
 11
-2.56005
 21
3.308842
 31
0.0
  0
LINE
  5
597
100
AcDbEntity
  8
レイヤー_2
 62
     7
100
AcDbLine
 10
-2.687519
 20
3.087667
 30
0.0
 11
-2.687519
 21
0.635448
 31
0.0
  0
LINE
  5
596
100
AcDbEntity
  8
レイヤー_2
 62
     7
100
AcDbLine
 10
1.179945
 20
4.706862
 30
0.0
 11
-0.000345
 21
4.706862
 31
0.0
  0
LINE
  5
595
100
AcDbEntity
  8
レイヤー_2
 62
     7
100
AcDbLine
 10
2.044664
 20
0.5004
 30
0.0
 11
-0.000345
 21
0.5004
 31
0.0
  0
LINE
  5
594
100
AcDbEntity
  8
レイヤー_2
 62
     7
100
AcDbLine
 10
1.57682
 20
0.635448
 30
0.0
 11
1.095885
 21
0.635448
 31
0.0
  0
LINE
  5
593
100
AcDbEntity
  8
レイヤー_2
 62
     7
100
AcDbLine
 10
1.095885
 20
0.635448
 30
0.0
 11
1.095885
 21
3.087667
 31
0.0
  0
LINE
  5
592
100
AcDbEntity
  8
レイヤー_2
 62
     7
100
AcDbLine
 10
1.095885
 20
3.087667
 30
0.0
 11
1.57682
 21
3.087667
 31
0.0
  0
LINE
  5
591
100
AcDbEntity
  8
レイヤー_2
 62
     7
100
AcDbLine
 10
1.57682
 20
0.635448
 30
0.0
 11
1.57682
 21
3.087667
 31
0.0
  0
LINE
  5
590
100
AcDbEntity
  8
レイヤー_2
 62
     7
100
AcDbLine
 10
-0.000345
 20
4.706862
 30
0.0
 11
1.75252
 21
4.706862
 31
0.0
  0
LINE
  5
58F
100
AcDbEntity
  8
レイヤー_2
 62
     7
100
AcDbLine
 10
-0.000345
 20
0.5004
 30
0.0
 11
2.453942
 21
0.5004
 31
0.0
  0
LINE
  5
58E
100
AcDbEntity
  8
レイヤー_2
 62
     7
100
AcDbLine
 10
2.453942
 20
0.5004
 30
0.0
 11
2.687519
 21
0.635448
 31
0.0
  0
LINE
  5
58D
100
AcDbEntity
  8
レイヤー_2
 62
     7
100
AcDbLine
 10
2.687519
 20
3.087667
 30
0.0
 11
1.75252
 21
4.706862
 31
0.0
  0
LINE
  5
58C
100
AcDbEntity
  8
レイヤー_2
 62
     7
100
AcDbLine
 10
2.687519
 20
0.635448
 30
0.0
 11
2.687519
 21
3.087667
 31
0.0
  0
LINE
  5
58B
100
AcDbEntity
  8
レイヤー_2
 62
     7
100
AcDbLine
 10
-2.56005
 20
3.308842
 30
0.0
 11
-2.687519
 21
3.087667
 31
0.0
  0
SPLINE
  5
58A
100
AcDbEntity
  8
レイヤー_2
 62
     7
100
AcDbSpline
210
0.0
220
0.0
230
1.0
 70
     8
 71
     3
 72
     8
 73
     4
 74
     0
 42
0.00000001
 43
0.00000001
 40
0.0
 40
0.0
 40
0.0
 40
0.0
 40
1.0
 40
1.0
 40
1.0
 40
1.0
 10
-1.0965738932291667
 20
0.6354478624131944
 30
0.0
 10
-0.7375949435763888
 20
0.5458753797743056
 30
0.0
 10
-0.3696587456597222
 20
0.5004001193576388
 30
0.0
 10
-0.0003445095486111
 20
0.5004001193576388
 30
0.0
  0
SPLINE
  5
589
100
AcDbEntity
  8
レイヤー_2
 62
     7
100
AcDbSpline
210
0.0
220
0.0
230
1.0
 70
     8
 71
     3
 72
     8
 73
     4
 74
     0
 42
0.00000001
 43
0.00000001
 40
0.0
 40
0.0
 40
0.0
 40
0.0
 40
1.0
 40
1.0
 40
1.0
 40
1.0
 10
-2.6875189887152775
 20
0.6354478624131944
 30
0.0
 10
-2.3395643446180552
 20
0.4549248589409722
 30
0.0
 10
-1.9254638671874997
 20
0.4549248589409722
 30
0.0
 10
-1.5768202039930554
 20
0.6354478624131944
 30
0.0
  0
SPLINE
  5
588
100
AcDbEntity
  8
レイヤー_2
 62
     7
100
AcDbSpline
210
0.0
220
0.0
230
1.0
 70
     8
 71
     3
 72
     8
 73
     4
 74
     0
 42
0.00000001
 43
0.00000001
 40
0.0
 40
0.0
 40
0.0
 40
0.0
 40
1.0
 40
1.0
 40
1.0
 40
1.0
 10
-0.0003445095486111
 20
3.4928100585937498
 30
0.0
 10
-0.4020426432291666
 20
3.4928100585937498
 30
0.0
 10
-0.7906494140624999
 20
3.3494940863715277
 30
0.0
 10
-1.0965738932291667
 20
3.087666829427083
 30
0.0
  0
SPLINE
  5
587
100
AcDbEntity
  8
レイヤー_2
 62
     7
100
AcDbSpline
210
0.0
220
0.0
230
1.0
 70
     8
 71
     3
 72
    11
 73
     7
 74
     0
 42
0.00000001
 43
0.00000001
 40
0.0
 40
0.0
 40
0.0
 40
0.0
 40
1.0
 40
1.0
 40
1.0
 40
2.0
 40
2.0
 40
2.0
 40
2.0
 10
-1.5768202039930554
 20
3.087666829427083
 30
0.0
 10
-1.6725938585069442
 20
3.3949693467881943
 30
0.0
 10
-1.9991889105902776
 20
3.5658460828993053
 30
0.0
 10
-2.3058024088541664
 20
3.4693834092881941
 30
0.0
 10
-2.403643120659722
 20
3.4390665690104165
 30
0.0
 10
-2.491148546006944
 20
3.3839450412326384
 30
0.0
 10
-2.5600504557291663
 20
3.3088419596354162
 30
0.0
  0
SPLINE
  5
586
100
AcDbEntity
  8
レイヤー_2
 62
     7
100
AcDbSpline
210
0.0
220
0.0
230
1.0
 70
     8
 71
     3
 72
     8
 73
     4
 74
     0
 42
0.00000001
 43
0.00000001
 40
0.0
 40
0.0
 40
0.0
 40
0.0
 40
1.0
 40
1.0
 40
1.0
 40
1.0
 10
-0.0003445095486111
 20
0.5004001193576388
 30
0.0
 10
0.3696587456597222
 20
0.5004001193576388
 30
0.0
 10
0.7375949435763888
 20
0.5458753797743056
 30
0.0
 10
1.0958848741319442
 20
0.6354478624131944
 30
0.0
  0
SPLINE
  5
585
100
AcDbEntity
  8
レイヤー_2
 62
     7
100
AcDbSpline
210
0.0
220
0.0
230
1.0
 70
     8
 71
     3
 72
     8
 73
     4
 74
     0
 42
0.00000001
 43
0.00000001
 40
0.0
 40
0.0
 40
0.0
 40
0.0
 40
1.0
 40
1.0
 40
1.0
 40
1.0
 10
1.5768202039930554
 20
0.6354478624131944
 30
0.0
 10
1.9254638671874997
 20
0.4549248589409722
 30
0.0
 10
2.3395643446180552
 20
0.4549248589409722
 30
0.0
 10
2.6875189887152775
 20
0.6354478624131944
 30
0.0
  0
SPLINE
  5
584
100
AcDbEntity
  8
レイヤー_2
 62
     7
100
AcDbSpline
210
0.0
220
0.0
230
1.0
 70
     8
 71
     3
 72
     8
 73
     4
 74
     0
 42
0.00000001
 43
0.00000001
 40
0.0
 40
0.0
 40
0.0
 40
0.0
 40
1.0
 40
1.0
 40
1.0
 40
1.0
 10
1.0958848741319442
 20
3.087666829427083
 30
0.0
 10
0.7906494140624999
 20
3.3494940863715277
 30
0.0
 10
0.4020426432291666
 20
3.4928100585937498
 30
0.0
 10
-0.0003445095486111
 20
3.4928100585937498
 30
0.0
  0
SPLINE
  5
583
100
AcDbEntity
  8
レイヤー_2
 62
     7
100
AcDbSpline
210
0.0
220
0.0
230
1.0
 70
     8
 71
     3
 72
    11
 73
     7
 74
     0
 42
0.00000001
 43
0.00000001
 40
0.0
 40
0.0
 40
0.0
 40
0.0
 40
1.0
 40
1.0
 40
1.0
 40
2.0
 40
2.0
 40
2.0
 40
2.0
 10
2.6875189887152775
 20
3.087666829427083
 30
0.0
 10
2.5917453342013888
 20
3.3949693467881943
 30
0.0
 10
2.2651502821180554
 20
3.5658460828993053
 30
0.0
 10
1.9585367838541665
 20
3.4693834092881941
 30
0.0
 10
1.7766357421874999
 20
3.4128838433159721
 30
0.0
 10
1.6340087890624999
 20
3.2702568901909719
 30
0.0
 10
1.5768202039930554
 20
3.087666829427083
 30
0.0
  0
LINE
  5
582
100
AcDbEntity
  8
レイヤー_2
 62
     7
100
AcDbLine
 10
-2.775024
 20
-6.131409
 30
0.0
 11
-3.03823
 21
-5.990849
 31
0.0
  0
LINE
  5
581
100
AcDbEntity
  8
レイヤー_2
 62
     7
100
AcDbLine
 10
3.03823
 20
-5.990849
 30
0.0
 11
2.775024
 21
-6.131409
 31
0.0
  0
LINE
  5
580
100
AcDbEntity
  8
レイヤー_2
 62
     7
100
AcDbLine
 10
-3.03823
 20
-1.316543
 30
0.0
 11
-2.775024
 21
-1.175983
 31
0.0
  0
LINE
  5
57F
100
AcDbEntity
  8
レイヤー_2
 62
     7
100
AcDbLine
 10
2.775024
 20
-1.175983
 30
0.0
 11
3.03823
 21
-1.316543
 31
0.0
  0
LINE
  5
57E
100
AcDbEntity
  8
レイヤー_2
 62
     7
100
AcDbLine
 10
-2.687519
 20
-6.34156
 30
0.0
 11
2.687519
 21
-6.34156
 31
0.0
  0
LINE
  5
57D
100
AcDbEntity
  8
レイヤー_2
 62
     7
100
AcDbLine
 10
-1.844849
 20
-5.990849
 30
0.0
 11
-1.168921
 21
-5.990849
 31
0.0
  0
LINE
  5
57C
100
AcDbEntity
  8
レイヤー_2
 62
     7
100
AcDbLine
 10
1.168232
 20
-5.990849
 30
0.0
 11
1.84416
 21
-5.990849
 31
0.0
  0
LINE
  5
57B
100
AcDbEntity
  8
レイヤー_2
 62
     7
100
AcDbLine
 10
3.03823
 20
-5.990849
 30
0.0
 11
2.687519
 21
-6.34156
 31
0.0
  0
LINE
  5
57A
100
AcDbEntity
  8
レイヤー_2
 62
     7
100
AcDbLine
 10
-3.03823
 20
-5.990849
 30
0.0
 11
-2.687519
 21
-6.34156
 31
0.0
  0
LINE
  5
579
100
AcDbEntity
  8
レイヤー_2
 62
     7
100
AcDbLine
 10
2.687519
 20
-0.965833
 30
0.0
 11
-2.687519
 21
-0.965833
 31
0.0
  0
LINE
  5
578
100
AcDbEntity
  8
レイヤー_2
 62
     7
100
AcDbLine
 10
2.687519
 20
-0.965833
 30
0.0
 11
3.03823
 21
-1.316543
 31
0.0
  0
LINE
  5
577
100
AcDbEntity
  8
レイヤー_2
 62
     7
100
AcDbLine
 10
1.84416
 20
-1.316543
 30
0.0
 11
1.168232
 21
-1.316543
 31
0.0
  0
LINE
  5
576
100
AcDbEntity
  8
レイヤー_2
 62
     7
100
AcDbLine
 10
-1.168921
 20
-1.316543
 30
0.0
 11
-1.844849
 21
-1.316543
 31
0.0
  0
LINE
  5
575
100
AcDbEntity
  8
レイヤー_2
 62
     7
100
AcDbLine
 10
-2.687519
 20
-0.965833
 30
0.0
 11
-3.03823
 21
-1.316543
 31
0.0
  0
LINE
  5
574
100
AcDbEntity
  8
レイヤー_2
 62
     7
100
AcDbLine
 10
-3.03823
 20
-5.990849
 30
0.0
 11
-3.03823
 21
-1.316543
 31
0.0
  0
LINE
  5
573
100
AcDbEntity
  8
レイヤー_2
 62
     7
100
AcDbLine
 10
-1.844849
 20
-5.990849
 30
0.0
 11
-1.844849
 21
-1.316543
 31
0.0
  0
LINE
  5
572
100
AcDbEntity
  8
レイヤー_2
 62
     7
100
AcDbLine
 10
-1.168921
 20
-5.990849
 30
0.0
 11
-1.168921
 21
-1.316543
 31
0.0
  0
LINE
  5
571
100
AcDbEntity
  8
レイヤー_2
 62
     7
100
AcDbLine
 10
1.168232
 20
-5.990849
 30
0.0
 11
1.168232
 21
-1.316543
 31
0.0
  0
LINE
  5
570
100
AcDbEntity
  8
レイヤー_2
 62
     7
100
AcDbLine
 10
1.84416
 20
-5.990849
 30
0.0
 11
1.84416
 21
-1.316543
 31
0.0
  0
LINE
  5
56F
100
AcDbEntity
  8
レイヤー_2
 62
     7
100
AcDbLine
 10
3.03823
 20
-5.990849
 30
0.0
 11
3.03823
 21
-1.316543
 31
0.0
  0
SPLINE
  5
56E
100
AcDbEntity
  8
レイヤー_2
 62
     7
100
AcDbSpline
210
0.0
220
0.0
230
1.0
 70
     8
 71
     3
 72
     8
 73
     4
 74
     0
 42
0.00000001
 43
0.00000001
 40
0.0
 40
0.0
 40
0.0
 40
0.0
 40
1.0
 40
1.0
 40
1.0
 40
1.0
 10
-2.7750244140624996
 20
-6.1314086914062491
 30
0.0
 10
-2.4684109157986107
 20
-6.2960842556423602
 30
0.0
 10
-2.0894504123263888
 20
-6.2388956705729157
 30
0.0
 10
-1.8448486328124998
 20
-5.9908487955729157
 30
0.0
  0
SPLINE
  5
56D
100
AcDbEntity
  8
レイヤー_2
 62
     7
100
AcDbSpline
210
0.0
220
0.0
230
1.0
 70
     8
 71
     3
 72
     8
 73
     4
 74
     0
 42
0.00000001
 43
0.00000001
 40
0.0
 40
0.0
 40
0.0
 40
0.0
 40
1.0
 40
1.0
 40
1.0
 40
1.0
 10
1.8441596137152776
 20
-5.9908487955729157
 30
0.0
 10
2.0894504123263888
 20
-6.2388956705729157
 30
0.0
 10
2.4677218967013888
 20
-6.2960842556423602
 30
0.0
 10
2.7750244140624996
 20
-6.1314086914062491
 30
0.0
  0
SPLINE
  5
56C
100
AcDbEntity
  8
レイヤー_2
 62
     7
100
AcDbSpline
210
0.0
220
0.0
230
1.0
 70
     8
 71
     3
 72
     8
 73
     4
 74
     0
 42
0.00000001
 43
0.00000001
 40
0.0
 40
0.0
 40
0.0
 40
0.0
 40
1.0
 40
1.0
 40
1.0
 40
1.0
 10
-1.1689208984374999
 20
-5.9908487955729157
 30
0.0
 10
-0.4206461588541666
 20
-6.3022854275173605
 30
0.0
 10
0.4206461588541666
 20
-6.3022854275173605
 30
0.0
 10
1.1682318793402777
 20
-5.9908487955729157
 30
0.0
  0
SPLINE
  5
56B
100
AcDbEntity
  8
レイヤー_2
 62
     7
100
AcDbSpline
210
0.0
220
0.0
230
1.0
 70
     8
 71
     3
 72
     8
 73
     4
 74
     0
 42
0.00000001
 43
0.00000001
 40
0.0
 40
0.0
 40
0.0
 40
0.0
 40
1.0
 40
1.0
 40
1.0
 40
1.0
 10
-1.8448486328124998
 20
-1.3165432400173609
 30
0.0
 10
-2.0894504123263888
 20
-1.0691853841145833
 30
0.0
 10
-2.4684109157986107
 20
-1.0119967990451388
 30
0.0
 10
-2.7750244140624996
 20
-1.1759833441840277
 30
0.0
  0
SPLINE
  5
56A
100
AcDbEntity
  8
レイヤー_2
 62
     7
100
AcDbSpline
210
0.0
220
0.0
230
1.0
 70
     8
 71
     3
 72
     8
 73
     4
 74
     0
 42
0.00000001
 43
0.00000001
 40
0.0
 40
0.0
 40
0.0
 40
0.0
 40
1.0
 40
1.0
 40
1.0
 40
1.0
 10
2.7750244140624996
 20
-1.1759833441840277
 30
0.0
 10
2.4677218967013888
 20
-1.0119967990451388
 30
0.0
 10
2.0894504123263888
 20
-1.0691853841145833
 30
0.0
 10
1.8441596137152776
 20
-1.3165432400173609
 30
0.0
  0
SPLINE
  5
569
100
AcDbEntity
  8
レイヤー_2
 62
     7
100
AcDbSpline
210
0.0
220
0.0
230
1.0
 70
     8
 71
     3
 72
     8
 73
     4
 74
     0
 42
0.00000001
 43
0.00000001
 40
0.0
 40
0.0
 40
0.0
 40
0.0
 40
1.0
 40
1.0
 40
1.0
 40
1.0
 10
1.1682318793402777
 20
-1.3165432400173609
 30
0.0
 10
0.4206461588541666
 20
-1.0051066080729165
 30
0.0
 10
-0.4206461588541666
 20
-1.0051066080729165
 30
0.0
 10
-1.1689208984374999
 20
-1.3165432400173609
 30
0.0
  0
LINE
  5
568
100
AcDbEntity
  8
レイヤー_2
 62
     7
100
AcDbLine
 10
-1.110354
 20
4.706862
 30
0.0
 11
-1.110354
 21
6.306764
 31
0.0
  0
LINE
  5
567
100
AcDbEntity
  8
レイヤー_2
 62
     7
100
AcDbLine
 10
1.109665
 20
4.706862
 30
0.0
 11
1.109665
 21
5.907822
 31
0.0
  0
LINE
  5
566
100
AcDbEntity
  8
レイヤー_2
 62
     7
100
AcDbLine
 10
1.986098
 20
-0.743279
 30
0.0
 11
1.986098
 21
0.5004
 31
0.0
  0
LINE
  5
565
100
AcDbEntity
  8
レイヤー_2
 62
     7
100
AcDbLine
 10
-1.986787
 20
0.5004
 30
0.0
 11
-1.986787
 21
-0.743279
 31
0.0
  0
LINE
  5
564
100
AcDbEntity
  8
レイヤー_2
 62
     7
100
AcDbLine
 10
-1.869653
 20
-0.541397
 30
0.0
 11
1.869653
 21
-0.541397
 31
0.0
  0
ENDBLK
  5
5A7
100
AcDbEntity
  8
レイヤー_2
100
AcDbBlockEnd
  0
ENDSEC
  0
SECTION
  2
ENTITIES
  0
MTEXT
  5
5D0
100
AcDbEntity
  8
レイヤー_1
 62
     7
100
AcDbMText
 10
47.801389
 20
55.180324
 30
0.0
 40
3.674768
 41
0.0
 71
     1
 72
     2
  1
\fOsaka|b0|i0|c128;\H3.6748;\C7;\U+0033\U+0033\U+002E\U+0035\U+0033\U+0037\U+002E\U+0036\U+0037\U+0030\U+002E\U+0058\U+0058
  7
STD
210
0.0
220
0.0
230
1.0
 73
     1
 44
1.0
  0
MTEXT
  5
5CF
100
AcDbEntity
  8
レイヤー_1
 62
     7
100
AcDbMText
 10
39.6875
 20
57.666567
 30
0.0
 40
1.574901
 41
0.0
 71
     1
 72
     2
  1
\fOsaka|b0|i0|c128;\H1.5749;\C7;\U+54C1\U+756A
  7
STD
210
0.0
220
0.0
230
1.0
 73
     1
 44
1.0
  0
MTEXT
  5
5CE
100
AcDbEntity
  8
レイヤー_1
 62
     7
100
AcDbMText
 10
47.801389
 20
34.017542
 30
0.0
 40
3.149486
 41
0.0
 71
     1
 72
     2
  1
\fOsaka|b0|i0|c128;\H3.1495;\C7;\U+FF11\U+7A74\U+578B\U+30B7\U+30F3\U+30B0\U+30EB\U+30EC\U+30D0\U+30FC\U+6D17\U+9762\U+7528\U+6DF7\U+5408\U+6813
  7
STD
210
0.0
220
0.0
230
1.0
 73
     1
 44
1.0
  0
MTEXT
  5
5CD
100
AcDbEntity
  8
レイヤー_1
 62
     7
100
AcDbMText
 10
39.6875
 20
36.499901
 30
0.0
 40
1.574901
 41
0.0
 71
     1
 72
     2
  1
\fOsaka|b0|i0|c128;\H1.5749;\C7;\U+54C1
  7
STD
210
0.0
220
0.0
230
1.0
 73
     1
 44
1.0
  0
MTEXT
  5
5CC
100
AcDbEntity
  8
レイヤー_1
 62
     7
100
AcDbMText
 10
47.801389
 20
44.013142
 30
0.0
 40
3.149486
 41
0.0
 71
     1
 72
     2
  1
\fOsaka|b0|i0|c128;\H3.1495;\C7;\U+FF29\U+FF2D\U+FF2F
  7
STD
210
0.0
220
0.0
230
1.0
 73
     1
 44
1.0
  0
POLYLINE
  5
5C6
100
AcDbEntity
  8
レイヤー_1
 62
     7
100
AcDb2dPolyline
 66
     1
 10
0.0
 20
0.0
 30
0.0
 70
     1
  0
VERTEX
  5
5C7
100
AcDbEntity
  8
レイヤー_1
 62
     7
100
AcDbVertex
100
AcDb2dVertex
 10
23.636111
 20
27.163889
 30
0.0
  0
VERTEX
  5
5C8
100
AcDbEntity
  8
レイヤー_1
 62
     7
100
AcDbVertex
100
AcDb2dVertex
 10
198.613889
 20
27.163889
 30
0.0
  0
VERTEX
  5
5C9
100
AcDbEntity
  8
レイヤー_1
 62
     7
100
AcDbVertex
100
AcDb2dVertex
 10
198.613889
 20
276.577778
 30
0.0
  0
VERTEX
  5
5CA
100
AcDbEntity
  8
レイヤー_1
 62
     7
100
AcDbVertex
100
AcDb2dVertex
 10
23.636111
 20
276.577778
 30
0.0
  0
SEQEND
  5
5CB
100
AcDbEntity
  8
レイヤー_1
 62
     7
  0
LINE
  5
5C5
100
AcDbEntity
  8
レイヤー_1
 62
     7
100
AcDbLine
 10
170.568056
 20
37.570833
 30
0.0
 11
27.693056
 21
37.570833
 31
0.0
  0
LINE
  5
5C4
100
AcDbEntity
  8
レイヤー_1
 62
     7
100
AcDbLine
 10
170.568056
 20
48.154167
 30
0.0
 11
27.693056
 21
48.154167
 31
0.0
  0
LINE
  5
5C3
100
AcDbEntity
  8
レイヤー_1
 62
     7
100
AcDbLine
 10
23.636111
 20
58.913889
 30
0.0
 11
198.261111
 21
58.913889
 31
0.0
  0
LINE
  5
5C2
100
AcDbEntity
  8
レイヤー_1
 62
     7
100
AcDbLine
 10
170.744444
 20
58.913889
 30
0.0
 11
170.744444
 21
27.516667
 31
0.0
  0
MTEXT
  5
5C1
100
AcDbEntity
  8
レイヤー_1
 62
     7
100
AcDbMText
 10
29.104167
 20
47.083234
 30
0.0
 40
1.574901
 41
0.0
 71
     1
 72
     2
  1
\fOsaka|b0|i0|c128;\H1.5749;\C7;\U+30BB\U+30EC\U+30AF\U+30B7\U+30E7\U+30F3
  7
STD
210
0.0
220
0.0
230
1.0
 73
     1
 44
1.0
  0
MTEXT
  5
5C0
100
AcDbEntity
  8
レイヤー_1
 62
     7
100
AcDbMText
 10
174.095833
 20
55.713375
 30
0.0
 40
3.149801
 41
0.0
 71
     1
 72
     2
  1
\fHeiseiKakuGothicCAN W9|b0|i0|c128;\H3.1498;\C253;\U+5BF8\U+6CD5\U+53C2\U+8003\U+56F3
  7
STD
210
0.0
220
0.0
230
1.0
 11
0.9999
 21
0.0
 31
0.0
 73
     1
 44
1.0
  0
LINE
  5
5BF
100
AcDbEntity
  8
レイヤー_1
 62
     7
100
AcDbLine
 10
27.516667
 20
58.913889
 30
0.0
 11
27.516667
 21
27.516667
 31
0.0
  0
IMAGE
  5
5BC
100
AcDbEntity
  8
レイヤー_1
  6
AI9-LType3
 62
     7
 92
        0
100
AcDbRasterImage
 90
        0
 10
172.155556
 20
29.633016
 30
0.0
 11
0.352531
 21
0.0
 31
0.0
 12
0.0
 22
0.352813
 32
0.0
 13
70.0
 23
9.0
340
5BE
 70
     7
280
     0
281
    50
282
    50
283
     0
360
5BD
 71
     1
 91
        2
 14
-0.5
 24
-0.5
 14
69.5
 24
8.5
  0
IMAGE
  5
5B9
100
AcDbEntity
  8
レイヤー_1
  6
AI9-LType3
 62
     7
 92
        0
100
AcDbRasterImage
 90
        0
 10
172.155556
 20
29.633016
 30
0.0
 11
0.352531
 21
0.0
 31
0.0
 12
0.0
 22
0.352813
 32
0.0
 13
70.0
 23
9.0
340
5BB
 70
     7
280
     0
281
    50
282
    50
283
     0
360
5BA
 71
     1
 91
        2
 14
-0.5
 24
-0.5
 14
69.5
 24
8.5
  0
MTEXT
  5
5B8
100
AcDbEntity
  8
レイヤー_1
  6
AI9-LType3
 62
     7
100
AcDbMText
 10
113.418056
 20
47.083234
 30
0.0
 40
1.574901
 41
0.0
 71
     1
 72
     2
  1
\fOsaka|b0|i0|c128;\H1.5749;\C7;\U+4ED5\U+4E0A
  7
STD
210
0.0
220
0.0
230
1.0
 73
     1
 44
1.0
  0
MTEXT
  5
5B7
100
AcDbEntity
  8
レイヤー_1
  6
AI9-LType3
 62
     7
100
AcDbMText
 10
124.765511
 20
42.026497
 30
0.0
 40
1.162842
 41
0.0
 71
     1
 72
     2
  1
\fOsaka|b0|i0|c128;\H1.1628;\W2.71;\C7;
  7
STD
210
0.0
220
0.0
230
1.0
 73
     1
 44
1.0
  0
MTEXT
  5
5B5
100
AcDbEntity
  8
レイヤー_2
  6
AI9-LType3
 62
     7
100
AcDbMText
 10
40.210638
 20
265.124976
 30
0.0
 40
6.299603
 41
0.0
 71
     1
 72
     2
  1
\fMS Gothic|b0|i0|c128;\H6.2996;\C7;\U+03C6\U+0034\U+0037
  7
STD
210
0.0
220
0.0
230
1.0
 73
     1
 44
1.0
  0
MTEXT
  5
5B4
100
AcDbEntity
  8
レイヤー_2
  6
AI9-LType3
 62
     7
100
AcDbMText
 10
121.203971
 20
264.546889
 30
0.0
 40
6.299603
 41
0.0
 71
     1
 72
     2
  1
\fMS Gothic|b0|i0|c128;\H6.2996;\C7;\U+0031\U+0036\U+0035
  7
STD
210
0.0
220
0.0
230
1.0
 73
     1
 44
1.0
  0
MTEXT
  5
5B3
100
AcDbEntity
  8
レイヤー_2
  6
AI9-LType3
 62
     7
100
AcDbMText
 10
138.99509
 20
219.506012
 30
0.0
 40
6.299603
 41
0.0
 71
     1
 72
     2
  1
\fMS Gothic|b0|i0|c128;\H6.2996;\C7;\U+0035\U+0030\U+00B0
  7
STD
210
0.0
220
0.0
230
1.0
 11
0.76604
 21
-0.64279
 31
0.0
 73
     1
 44
1.0
  0
MTEXT
  5
5B2
100
AcDbEntity
  8
レイヤー_2
  6
AI9-LType3
 62
     7
100
AcDbMText
 10
33.920509
 20
119.68744
 30
0.0
 40
6.299603
 41
0.0
 71
     1
 72
     2
  1
\fMS Gothic|b0|i0|c128;\H6.2996;\C7;\U+006D\U+0061\U+0078\U+002E\U+0035\U+0030
  7
STD
210
0.0
220
0.0
230
1.0
 11
0.0
 21
1.0
 31
0.0
 73
     1
 44
1.0
  0
MTEXT
  5
5B1
100
AcDbEntity
  8
レイヤー_2
  6
AI9-LType3
 62
     7
100
AcDbMText
 10
182.465447
 20
196.891686
 30
0.0
 40
6.299603
 41
0.0
 71
     1
 72
     2
  1
\fMS Gothic|b0|i0|c128;\H6.2996;\C7;\U+0033\U+0035\U+0038
  7
STD
210
0.0
220
0.0
230
1.0
 11
0.0
 21
1.0
 31
0.0
 73
     1
 44
1.0
  0
MTEXT
  5
5B0
100
AcDbEntity
  8
レイヤー_2
  6
AI9-LType3
 62
     7
100
AcDbMText
 10
172.465024
 20
193.145833
 30
0.0
 40
6.299603
 41
0.0
 71
     1
 72
     2
  1
\fMS Gothic|b0|i0|c128;\H6.2996;\C7;\U+0033\U+0032\U+0034
  7
STD
210
0.0
220
0.0
230
1.0
 11
0.0
 21
1.0
 31
0.0
 73
     1
 44
1.0
  0
MTEXT
  5
5AF
100
AcDbEntity
  8
レイヤー_2
  6
AI9-LType3
 62
     7
100
AcDbMText
 10
161.08174
 20
183.973611
 30
0.0
 40
6.299603
 41
0.0
 71
     1
 72
     2
  1
\fMS Gothic|b0|i0|c128;\H6.2996;\C7;\U+0032\U+0034\U+0037
  7
STD
210
0.0
220
0.0
230
1.0
 11
0.0
 21
1.0
 31
0.0
 73
     1
 44
1.0
  0
MTEXT
  5
5AE
100
AcDbEntity
  8
レイヤー_2
  6
AI9-LType3
 62
     7
100
AcDbMText
 10
151.081661
 20
173.887061
 30
0.0
 40
6.299603
 41
0.0
 71
     1
 72
     2
  1
\fMS Gothic|b0|i0|c128;\H6.2996;\C7;\U+0031\U+0037\U+0030
  7
STD
210
0.0
220
0.0
230
1.0
 11
0.0
 21
1.0
 31
0.0
 73
     1
 44
1.0
  0
INSERT
  5
55C
100
AcDbEntity
  8
レイヤー_2
  6
AI9-LType3
 62
     7
100
AcDbBlockReference
  2
AI9-BLK6
 10
76.025592
 20
124.492143
 30
0.0
  0
INSERT
  5
508
100
AcDbEntity
  8
レイヤー_2
 62
     7
100
AcDbBlockReference
  2
AI9-BLK3
 10
51.118671
 20
124.492143
 30
0.0
  0
INSERT
  5
502
100
AcDbEntity
  8
レイヤー_2
 62
     7
100
AcDbBlockReference
  2
AI9-BLK2
 10
96.557844
 20
99.182921
 30
0.0
  0
SPLINE
  5
500
100
AcDbEntity
  8
レイヤー_2
 62
     7
100
AcDbSpline
210
0.0
220
0.0
230
1.0
 70
     8
 71
     3
 72
    17
 73
    13
 74
     0
 42
0.00000001
 43
0.00000001
 40
0.0
 40
0.0
 40
0.0
 40
0.0
 40
1.0
 40
1.0
 40
1.0
 40
2.0
 40
2.0
 40
2.0
 40
3.0
 40
3.0
 40
3.0
 40
4.0
 40
4.0
 40
4.0
 40
4.0
 10
67.301490614149301
 20
74.890174696180551
 30
0.0
 10
67.301490614149301
 20
76.944140624999989
 30
0.0
 10
65.636648220486109
 20
78.608810763888883
 30
0.0
 10
63.583026801215269
 20
78.608810763888883
 30
0.0
 10
61.529060872395824
 20
78.608810763888883
 30
0.0
 10
59.863701714409714
 20
76.944140624999989
 30
0.0
 10
59.863701714409714
 20
74.890174696180551
 30
0.0
 10
59.863701714409714
 20
72.8362087673611
 30
0.0
 10
61.529060872395824
 20
71.172227647569443
 30
0.0
 10
63.583026801215269
 20
71.172227647569443
 30
0.0
 10
65.636648220486109
 20
71.172227647569443
 30
0.0
 10
67.301490614149301
 20
72.8362087673611
 30
0.0
 10
67.301490614149301
 20
74.890174696180551
 30
0.0
  0
LINE
  5
4FF
100
AcDbEntity
  8
レイヤー_2
  6
AI9-LType1
 62
     7
100
AcDbLine
 10
63.583027
 20
70.344027
 30
0.0
 11
63.583027
 21
207.040076
 31
0.0
  0
LINE
  5
4FE
100
AcDbEntity
  8
レイヤー_2
  6
AI9-LType1
 62
     7
100
AcDbLine
 10
58.629841
 20
74.890175
 30
0.0
 11
68.198938
 21
74.890175
 31
0.0
  0
LINE
  5
4FD
100
AcDbEntity
  8
レイヤー_2
 62
     7
100
AcDbLine
 10
68.198938
 20
74.890175
 30
0.0
 11
69.049704
 21
74.890175
 31
0.0
  0
LINE
  5
4FC
100
AcDbEntity
  8
レイヤー_2
 62
     7
100
AcDbLine
 10
70.344888
 20
68.197043
 30
0.0
 11
59.799967
 21
78.741102
 31
0.0
  0
LINE
  5
4FB
100
AcDbEntity
  8
レイヤー_2
 62
     7
100
AcDbLine
 10
70.344888
 20
68.197043
 30
0.0
 11
84.329909
 21
68.197043
 31
0.0
  0
LINE
  5
4FA
100
AcDbEntity
  8
レイヤー_2
 62
     7
100
AcDbLine
 10
59.67336
 20
77.469173
 30
0.0
 11
62.455275
 21
77.469173
 31
0.0
  0
LINE
  5
4F9
100
AcDbEntity
  8
レイヤー_2
 62
     7
100
AcDbLine
 10
64.846343
 20
72.220915
 30
0.0
 11
67.627569
 21
72.220915
 31
0.0
  0
INSERT
  5
4F5
100
AcDbEntity
  8
レイヤー_2
  6
AI9-LType2
 62
     7
100
AcDbBlockReference
  2
AI9-BLK1
 10
76.537103
 20
72.16476
 30
0.0
  0
LINE
  5
4F3
100
AcDbEntity
  8
レイヤー_2
  6
AI9-LType2
 62
     7
100
AcDbLine
 10
111.059888
 20
230.979183
 30
0.0
 11
108.646598
 21
235.970782
 31
0.0
  0
LINE
  5
4F2
100
AcDbEntity
  8
レイヤー_2
 62
     7
100
AcDbLine
 10
108.646598
 20
235.970782
 30
0.0
 11
108.211827
 21
236.870985
 31
0.0
  0
LINE
  5
4F1
100
AcDbEntity
  8
レイヤー_2
  6
AI9-LType2
 62
     7
100
AcDbLine
 10
99.516406
 20
227.703242
 30
0.0
 11
99.889166
 21
226.873663
 31
0.0
  0
LINE
  5
4F0
100
AcDbEntity
  8
レイヤー_2
 62
     7
100
AcDbLine
 10
99.889166
 20
226.873663
 30
0.0
 11
100.299132
 21
225.961401
 31
0.0
  0
LINE
  5
4EF
100
AcDbEntity
  8
レイヤー_2
  6
AI9-LType2
 62
     7
100
AcDbLine
 10
95.722667
 20
236.145793
 30
0.0
 11
98.478743
 21
230.0118
 31
0.0
  0
LINE
  5
4EE
100
AcDbEntity
  8
レイヤー_2
 62
     7
100
AcDbLine
 10
98.478743
 20
230.0118
 30
0.0
 11
98.889054
 21
229.099883
 31
0.0
  0
SPLINE
  5
4ED
100
AcDbEntity
  8
レイヤー_2
 62
     7
100
AcDbSpline
210
0.0
220
0.0
230
1.0
 70
     8
 71
     3
 72
     8
 73
     4
 74
     0
 42
0.00000001
 43
0.00000001
 40
0.0
 40
0.0
 40
0.0
 40
0.0
 40
1.0
 40
1.0
 40
1.0
 40
1.0
 10
111.06746690538193
 20
230.94645453559025
 30
0.0
 10
111.06746690538193
 20
230.95782335069441
 30
0.0
 10
111.06471082899304
 20
230.96988118489583
 30
0.0
 10
111.05988769531248
 20
230.97918294270832
 30
0.0
  0
SPLINE
  5
4EC
100
AcDbEntity
  8
レイヤー_2
 62
     7
100
AcDbSpline
210
0.0
220
0.0
230
1.0
 70
     8
 71
     3
 72
    11
 73
     7
 74
     0
 42
0.00000001
 43
0.00000001
 40
0.0
 40
0.0
 40
0.0
 40
0.0
 40
1.0
 40
1.0
 40
1.0
 40
2.0
 40
2.0
 40
2.0
 40
2.0
 10
111.02440321180555
 20
230.87824164496524
 30
0.0
 10
111.03267144097221
 20
230.88272026909721
 30
0.0
 10
111.03990614149305
 20
230.88754340277777
 30
0.0
 10
111.04541829427082
 20
230.89374457465274
 30
0.0
 10
111.05988769531248
 20
230.90786946614583
 30
0.0
 10
111.06746690538193
 20
230.92750651041663
 30
0.0
 10
111.06746690538193
 20
230.94645453559025
 30
0.0
  0
SPLINE
  5
4EB
100
AcDbEntity
  8
レイヤー_2
 62
     7
100
AcDbSpline
210
0.0
220
0.0
230
1.0
 70
     8
 71
     3
 72
    11
 73
     7
 74
     0
 42
0.00000001
 43
0.00000001
 40
0.0
 40
0.0
 40
0.0
 40
0.0
 40
1.0
 40
1.0
 40
1.0
 40
2.0
 40
2.0
 40
2.0
 40
2.0
 10
100.29913194444444
 20
225.96140136718748
 30
0.0
 10
100.30292154947915
 20
225.95278862847221
 30
0.0
 10
100.30843370225693
 20
225.94520941840275
 30
0.0
 10
100.31429036458333
 20
225.93935275607637
 30
0.0
 10
100.33771701388888
 20
225.91661512586805
 30
0.0
 10
100.37113444010416
 20
225.91144748263886
 30
0.0
 10
100.39938422309027
 20
225.92419433593747
 30
0.0
  0
LINE
  5
4EA
100
AcDbEntity
  8
レイヤー_2
  6
AI9-LType2
 62
     7
100
AcDbLine
 10
121.74244
 20
248.565706
 30
0.0
 11
101.758474
 21
239.246379
 31
0.0
  0
LINE
  5
4E9
100
AcDbEntity
  8
レイヤー_2
 62
     7
100
AcDbLine
 10
101.758474
 20
239.246379
 30
0.0
 11
100.851725
 21
238.82401
 31
0.0
  0
SPLINE
  5
4E8
100
AcDbEntity
  8
レイヤー_2
 62
     7
100
AcDbSpline
210
0.0
220
0.0
230
1.0
 70
     8
 71
     3
 72
    14
 73
    10
 74
     0
 42
0.00000001
 43
0.00000001
 40
0.0
 40
0.0
 40
0.0
 40
0.0
 40
1.0
 40
1.0
 40
1.0
 40
2.0
 40
2.0
 40
2.0
 40
3.0
 40
3.0
 40
3.0
 40
3.0
 10
95.816029188368049
 20
236.40693088107636
 30
0.0
 10
95.795358615451377
 20
236.39659559461802
 30
0.0
 10
95.77813313802082
 20
236.38350423177081
 30
0.0
 10
95.763663736979154
 20
236.36903483072913
 30
0.0
 10
95.724389648437494
 20
236.33010525173609
 30
0.0
 10
95.704752604166657
 20
236.27877332899303
 30
0.0
 10
95.704752604166657
 20
236.22744140624997
 30
0.0
 10
95.704752604166657
 20
236.19781358506941
 30
0.0
 10
95.711642795138886
 20
236.16990831163193
 30
0.0
 10
95.722667100694437
 20
236.14579264322916
 30
0.0
  0
SPLINE
  5
4E7
100
AcDbEntity
  8
レイヤー_2
  6
AI9-LType2
 62
     7
100
AcDbSpline
210
0.0
220
0.0
230
1.0
 70
     8
 71
     3
 72
     8
 73
     4
 74
     0
 42
0.00000001
 43
0.00000001
 40
0.0
 40
0.0
 40
0.0
 40
0.0
 40
1.0
 40
1.0
 40
1.0
 40
1.0
 10
100.85172526041666
 20
238.82400987413192
 30
0.0
 10
99.39031575520832
 20
238.14222547743054
 30
0.0
 10
97.939241536458326
 20
237.44907226562498
 30
0.0
 10
96.714165581597214
 20
236.84859212239581
 30
0.0
  0
SPLINE
  5
4E6
100
AcDbEntity
  8
レイヤー_2
 62
     7
100
AcDbSpline
210
0.0
220
0.0
230
1.0
 70
     8
 71
     3
 72
     8
 73
     4
 74
     0
 42
0.00000001
 43
0.00000001
 40
0.0
 40
0.0
 40
0.0
 40
0.0
 40
1.0
 40
1.0
 40
1.0
 40
1.0
 10
96.714165581597214
 20
236.84859212239581
 30
0.0
 10
96.398594835069431
 20
236.69356282552081
 30
0.0
 10
96.083368598090274
 20
236.53887803819441
 30
0.0
 10
95.816718207465271
 20
236.40761990017359
 30
0.0
  0
SPLINE
  5
4E5
100
AcDbEntity
  8
レイヤー_2
 62
     7
100
AcDbSpline
210
0.0
220
0.0
230
1.0
 70
     8
 71
     3
 72
    14
 73
    10
 74
     0
 42
0.00000001
 43
0.00000001
 40
0.0
 40
0.0
 40
0.0
 40
0.0
 40
1.0
 40
1.0
 40
1.0
 40
2.0
 40
2.0
 40
2.0
 40
3.0
 40
3.0
 40
3.0
 40
3.0
 10
108.39028320312499
 20
237.37396918402774
 30
0.0
 10
108.34894205729165
 20
237.35433213975693
 30
0.0
 10
108.31242404513888
 20
237.32883843315969
 30
0.0
 10
108.28417426215277
 20
237.29921061197913
 30
0.0
 10
108.21044921874999
 20
237.22651909722219
 30
0.0
 10
108.17393120659722
 20
237.13040093315971
 30
0.0
 10
108.17393120659722
 20
237.03462727864581
 30
0.0
 10
108.17393120659722
 20
236.97468261718748
 30
0.0
 10
108.18805609809027
 20
236.91852756076386
 30
0.0
 10
108.21182725694443
 20
236.87098524305554
 30
0.0
  0
SPLINE
  5
4E4
100
AcDbEntity
  8
レイヤー_2
 62
     7
100
AcDbSpline
210
0.0
220
0.0
230
1.0
 70
     8
 71
     3
 72
    11
 73
     7
 74
     0
 42
0.00000001
 43
0.00000001
 40
0.0
 40
0.0
 40
0.0
 40
0.0
 40
1.0
 40
1.0
 40
1.0
 40
2.0
 40
2.0
 40
2.0
 40
2.0
 10
122.00805664062499
 20
248.46821017795136
 30
0.0
 10
121.99772135416666
 20
248.49060329861109
 30
0.0
 10
121.98325195312499
 20
248.51024034288193
 30
0.0
 10
121.9680935329861
 20
248.5253987630208
 30
0.0
 10
121.90711534288194
 20
248.58637695312498
 30
0.0
 10
121.81719835069444
 20
248.59946831597219
 30
0.0
 10
121.74243977864582
 20
248.5657063802083
 30
0.0
  0
SPLINE
  5
4E3
100
AcDbEntity
  8
レイヤー_2
  6
AI9-LType2
 62
     7
100
AcDbSpline
210
0.0
220
0.0
230
1.0
 70
     8
 71
     3
 72
     8
 73
     4
 74
     0
 42
0.00000001
 43
0.00000001
 40
0.0
 40
0.0
 40
0.0
 40
0.0
 40
1.0
 40
1.0
 40
1.0
 40
1.0
 10
112.05138617621527
 20
228.43566894531247
 30
0.0
 10
111.86121690538194
 20
228.99928656684025
 30
0.0
 10
111.59387749565971
 20
229.51432834201387
 30
0.0
 10
111.28795301649305
 20
229.93773057725693
 30
0.0
  0
SPLINE
  5
4E2
100
AcDbEntity
  8
レイヤー_2
 62
     7
100
AcDbSpline
210
0.0
220
0.0
230
1.0
 70
     8
 71
     3
 72
    11
 73
     7
 74
     0
 42
0.00000001
 43
0.00000001
 40
0.0
 40
0.0
 40
0.0
 40
0.0
 40
1.0
 40
1.0
 40
1.0
 40
2.0
 40
2.0
 40
2.0
 40
2.0
 10
111.28795301649305
 20
229.93773057725693
 30
0.0
 10
111.08813747829861
 20
230.22022840711804
 30
0.0
 10
110.86765136718749
 20
230.47964409722221
 30
0.0
 10
110.65439995659722
 20
230.68910590277775
 30
0.0
 10
110.65026584201388
 20
230.69324001736109
 30
0.0
 10
110.64578721788193
 20
230.6970296223958
 30
0.0
 10
110.64303114149304
 20
230.70081922743054
 30
0.0
  0
LINE
  5
4E1
100
AcDbEntity
  8
レイヤー_2
 62
     7
100
AcDbLine
 10
112.051386
 20
227.810729
 30
0.0
 11
112.051386
 21
228.435669
 31
0.0
  0
LINE
  5
4E0
100
AcDbEntity
  8
レイヤー_2
 62
     7
100
AcDbLine
 10
110.125922
 20
227.772833
 30
0.0
 11
110.223763
 21
227.789714
 31
0.0
  0
LINE
  5
4DF
100
AcDbEntity
  8
レイヤー_2
 62
     7
100
AcDbLine
 10
110.125922
 20
227.589553
 30
0.0
 11
110.125922
 21
227.772833
 31
0.0
  0
SPLINE
  5
4DE
100
AcDbEntity
  8
レイヤー_2
  6
AI9-LType2
 62
     7
100
AcDbSpline
210
0.0
220
0.0
230
1.0
 70
     8
 71
     3
 72
    20
 73
    16
 74
     0
 42
0.00000001
 43
0.00000001
 40
0.0
 40
0.0
 40
0.0
 40
0.0
 40
1.0
 40
1.0
 40
1.0
 40
2.0
 40
2.0
 40
2.0
 40
3.0
 40
3.0
 40
3.0
 40
4.0
 40
4.0
 40
4.0
 40
5.0
 40
5.0
 40
5.0
 40
5.0
 10
112.3810818142361
 20
227.83036566840275
 30
0.0
 10
112.3810818142361
 20
227.83036566840275
 30
0.0
 10
112.38866102430555
 20
227.83105468749997
 30
0.0
 10
112.38866102430555
 20
227.83105468749997
 30
0.0
 10
112.38866102430555
 20
227.83105468749997
 30
0.0
 10
112.32354871961805
 20
227.8289876302083
 30
0.0
 10
112.24568956163193
 20
227.82692057291663
 30
0.0
 10
112.16576334635415
 20
227.82519802517359
 30
0.0
 10
112.06413302951388
 20
227.82347547743055
 30
0.0
 10
111.93494194878471
 20
227.82106391059025
 30
0.0
 10
111.80885145399304
 20
227.81761881510414
 30
0.0
 10
111.65588921440971
 20
227.81417371961803
 30
0.0
 10
111.4819118923611
 20
227.81072862413191
 30
0.0
 10
111.39888509114583
 20
227.81003960503469
 30
0.0
 10
111.31172417534721
 20
227.80797254774305
 30
0.0
 10
111.21905110677082
 20
227.80590549045138
 30
0.0
  0
SPLINE
  5
4DD
100
AcDbEntity
  8
レイヤー_2
 62
     7
100
AcDbSpline
210
0.0
220
0.0
230
1.0
 70
     8
 71
     3
 72
    11
 73
     7
 74
     0
 42
0.00000001
 43
0.00000001
 40
0.0
 40
0.0
 40
0.0
 40
0.0
 40
1.0
 40
1.0
 40
1.0
 40
2.0
 40
2.0
 40
2.0
 40
2.0
 10
111.21905110677082
 20
227.80590549045138
 30
0.0
 10
111.11156412760415
 20
227.80418294270831
 30
0.0
 10
110.99649793836805
 20
227.80142686631942
 30
0.0
 10
110.87454155815971
 20
227.79970431857637
 30
0.0
 10
110.67093641493055
 20
227.79660373263886
 30
0.0
 10
110.44734971788193
 20
227.79281412760415
 30
0.0
 10
110.22376302083332
 20
227.78971354166666
 30
0.0
  0
LINE
  5
4DC
100
AcDbEntity
  8
レイヤー_2
  6
AI9-LType2
 62
     7
100
AcDbLine
 10
104.449438
 20
227.810729
 30
0.0
 11
110.497648
 21
227.810729
 31
0.0
  0
LINE
  5
4DB
100
AcDbEntity
  8
レイヤー_2
 62
     7
100
AcDbLine
 10
110.497648
 20
227.810729
 30
0.0
 11
111.497759
 21
227.810729
 31
0.0
  0
SPLINE
  5
4DA
100
AcDbEntity
  8
レイヤー_2
 62
     7
100
AcDbSpline
210
0.0
220
0.0
230
1.0
 70
     8
 71
     3
 72
    14
 73
    10
 74
     0
 42
0.00000001
 43
0.00000001
 40
0.0
 40
0.0
 40
0.0
 40
0.0
 40
1.0
 40
1.0
 40
1.0
 40
2.0
 40
2.0
 40
2.0
 40
3.0
 40
3.0
 40
3.0
 40
3.0
 10
99.447848849826386
 20
227.92097167968748
 30
0.0
 10
99.465074327256929
 20
227.86757269965275
 30
0.0
 10
99.482988823784709
 20
227.81520724826387
 30
0.0
 10
99.496080186631929
 20
227.77352159288193
 30
0.0
 10
99.509171549479163
 20
227.73252495659719
 30
0.0
 10
99.51916232638888
 20
227.69979654947915
 30
0.0
 10
99.51916232638888
 20
227.69979654947915
 30
0.0
 10
99.51916232638888
 20
227.69979654947915
 30
0.0
 10
99.517784288194434
 20
227.70324164496526
 30
0.0
 10
99.517784288194434
 20
227.70324164496526
 30
0.0
  0
SPLINE
  5
4D9
100
AcDbEntity
  8
レイヤー_2
  6
AI9-LType2
 62
     7
100
AcDbSpline
210
0.0
220
0.0
230
1.0
 70
     8
 71
     3
 72
    17
 73
    13
 74
     0
 42
0.00000001
 43
0.00000001
 40
0.0
 40
0.0
 40
0.0
 40
0.0
 40
1.0
 40
1.0
 40
1.0
 40
2.0
 40
2.0
 40
2.0
 40
3.0
 40
3.0
 40
3.0
 40
4.0
 40
4.0
 40
4.0
 40
4.0
 10
98.890432400173609
 20
229.09988335503471
 30
0.0
 10
98.890432400173609
 20
229.09988335503471
 30
0.0
 10
98.887331814236106
 20
229.10505099826386
 30
0.0
 10
98.887331814236106
 20
229.10505099826386
 30
0.0
 10
98.887331814236106
 20
229.10505099826386
 30
0.0
 10
98.901801215277771
 20
229.08059082031247
 30
0.0
 10
98.92178276909722
 20
229.04786241319442
 30
0.0
 10
98.941419813368043
 20
229.01478949652775
 30
0.0
 10
98.966224500868051
 20
228.97448187934026
 30
0.0
 10
98.995507812499994
 20
228.92246093749998
 30
0.0
 10
99.009632703993049
 20
228.89800075954858
 30
0.0
 10
99.025135633680549
 20
228.8700954861111
 30
0.0
 10
99.04098307291666
 20
228.84081217447914
 30
0.0
  0
SPLINE
  5
4D8
100
AcDbEntity
  8
レイヤー_2
 62
     7
100
AcDbSpline
210
0.0
220
0.0
230
1.0
 70
     8
 71
     3
 72
    20
 73
    16
 74
     0
 42
0.00000001
 43
0.00000001
 40
0.0
 40
0.0
 40
0.0
 40
0.0
 40
1.0
 40
1.0
 40
1.0
 40
2.0
 40
2.0
 40
2.0
 40
3.0
 40
3.0
 40
3.0
 40
4.0
 40
4.0
 40
4.0
 40
5.0
 40
5.0
 40
5.0
 40
5.0
 10
99.04098307291666
 20
228.84081217447914
 30
0.0
 10
99.057519531249994
 20
228.81083984374999
 30
0.0
 10
99.074055989583329
 20
228.77845594618054
 30
0.0
 10
99.092659505208317
 20
228.74503851996525
 30
0.0
 10
99.13158908420138
 20
228.66993543836804
 30
0.0
 10
99.16982964409722
 20
228.59448784722221
 30
0.0
 10
99.206003146701377
 20
228.51559516059027
 30
0.0
 10
99.242865668402771
 20
228.43842502170136
 30
0.0
 10
99.278694661458317
 20
228.35815429687497
 30
0.0
 10
99.311078559027763
 20
228.27960611979165
 30
0.0
 10
99.34380696614582
 20
228.2010579427083
 30
0.0
 10
99.374123806423597
 20
228.12388780381943
 30
0.0
 10
99.399617513020829
 20
228.05567491319442
 30
0.0
 10
99.416842990451386
 20
228.00778808593748
 30
0.0
 10
99.432690429687497
 20
227.96437988281247
 30
0.0
 10
99.447848849826386
 20
227.92097167968748
 30
0.0
  0
LINE
  5
4D7
100
AcDbEntity
  8
レイヤー_2
 62
     7
100
AcDbLine
 10
111.024403
 20
230.878242
 30
0.0
 11
111.014068
 21
230.874108
 31
0.0
  0
LINE
  5
4D6
100
AcDbEntity
  8
レイヤー_2
 62
     7
100
AcDbLine
 10
111.014068
 20
230.874108
 30
0.0
 11
110.933453
 21
230.835867
 31
0.0
  0
LINE
  5
4D5
100
AcDbEntity
  8
レイヤー_2
 62
     7
100
AcDbLine
 10
110.933453
 20
230.835867
 30
0.0
 11
110.774289
 21
230.761797
 31
0.0
  0
LINE
  5
4D4
100
AcDbEntity
  8
レイヤー_2
 62
     7
100
AcDbLine
 10
110.774289
 20
230.761797
 30
0.0
 11
110.537956
 21
230.651899
 31
0.0
  0
LINE
  5
4D3
100
AcDbEntity
  8
レイヤー_2
 62
     7
100
AcDbLine
 10
110.537956
 20
230.651899
 30
0.0
 11
110.228242
 21
230.507549
 31
0.0
  0
LINE
  5
4D2
100
AcDbEntity
  8
レイヤー_2
 62
     7
100
AcDbLine
 10
110.228242
 20
230.507549
 30
0.0
 11
109.850315
 21
230.330816
 31
0.0
  0
LINE
  5
4D1
100
AcDbEntity
  8
レイヤー_2
 62
     7
100
AcDbLine
 10
109.850315
 20
230.330816
 30
0.0
 11
109.409342
 21
230.125833
 31
0.0
  0
LINE
  5
4D0
100
AcDbEntity
  8
レイヤー_2
 62
     7
100
AcDbLine
 10
109.409342
 20
230.125833
 30
0.0
 11
108.912904
 21
229.894667
 31
0.0
  0
LINE
  5
4CF
100
AcDbEntity
  8
レイヤー_2
 62
     7
100
AcDbLine
 10
108.912904
 20
229.894667
 30
0.0
 11
108.368235
 21
229.640074
 31
0.0
  0
LINE
  5
4CE
100
AcDbEntity
  8
レイヤー_2
 62
     7
100
AcDbLine
 10
108.368235
 20
229.640074
 30
0.0
 11
107.781879
 21
229.367223
 31
0.0
  0
LINE
  5
4CD
100
AcDbEntity
  8
レイヤー_2
 62
     7
100
AcDbLine
 10
107.781879
 20
229.367223
 30
0.0
 11
107.165207
 21
229.079557
 31
0.0
  0
LINE
  5
4CC
100
AcDbEntity
  8
レイヤー_2
 62
     7
100
AcDbLine
 10
107.165207
 20
229.079557
 30
0.0
 11
106.526487
 21
228.781212
 31
0.0
  0
LINE
  5
4CB
100
AcDbEntity
  8
レイヤー_2
 62
     7
100
AcDbLine
 10
106.526487
 20
228.781212
 30
0.0
 11
105.875363
 21
228.477355
 31
0.0
  0
LINE
  5
4CA
100
AcDbEntity
  8
レイヤー_2
 62
     7
100
AcDbLine
 10
105.875363
 20
228.477355
 30
0.0
 11
105.22114
 21
228.172808
 31
0.0
  0
LINE
  5
4C9
100
AcDbEntity
  8
レイヤー_2
 62
     7
100
AcDbLine
 10
105.22114
 20
228.172808
 30
0.0
 11
104.57484
 21
227.871362
 31
0.0
  0
LINE
  5
4C8
100
AcDbEntity
  8
レイヤー_2
 62
     7
100
AcDbLine
 10
104.57484
 20
227.871362
 30
0.0
 11
103.94611
 21
227.577496
 31
0.0
  0
LINE
  5
4C7
100
AcDbEntity
  8
レイヤー_2
 62
     7
100
AcDbLine
 10
103.94611
 20
227.577496
 30
0.0
 11
103.343907
 21
227.297065
 31
0.0
  0
LINE
  5
4C6
100
AcDbEntity
  8
レイヤー_2
 62
     7
100
AcDbLine
 10
103.343907
 20
227.297065
 30
0.0
 11
102.777534
 21
227.033171
 31
0.0
  0
LINE
  5
4C5
100
AcDbEntity
  8
レイヤー_2
 62
     7
100
AcDbLine
 10
102.777534
 20
227.033171
 30
0.0
 11
102.255946
 21
226.789947
 31
0.0
  0
LINE
  5
4C4
100
AcDbEntity
  8
レイヤー_2
 62
     7
100
AcDbLine
 10
102.255946
 20
226.789947
 30
0.0
 11
101.786035
 21
226.570839
 31
0.0
  0
LINE
  5
4C3
100
AcDbEntity
  8
レイヤー_2
 62
     7
100
AcDbLine
 10
101.786035
 20
226.570839
 30
0.0
 11
101.375724
 21
226.379291
 31
0.0
  0
LINE
  5
4C2
100
AcDbEntity
  8
レイヤー_2
 62
     7
100
AcDbLine
 10
101.375724
 20
226.379291
 30
0.0
 11
101.031559
 21
226.219095
 31
0.0
  0
LINE
  5
4C1
100
AcDbEntity
  8
レイヤー_2
 62
     7
100
AcDbLine
 10
101.031559
 20
226.219095
 30
0.0
 11
100.758019
 21
226.091281
 31
0.0
  0
LINE
  5
4C0
100
AcDbEntity
  8
レイヤー_2
 62
     7
100
AcDbLine
 10
100.758019
 20
226.091281
 30
0.0
 11
100.559926
 21
225.998608
 31
0.0
  0
LINE
  5
4BF
100
AcDbEntity
  8
レイヤー_2
 62
     7
100
AcDbLine
 10
100.559926
 20
225.998608
 30
0.0
 11
100.439347
 21
225.942798
 31
0.0
  0
LINE
  5
4BE
100
AcDbEntity
  8
レイヤー_2
 62
     7
100
AcDbLine
 10
100.439347
 20
225.942798
 30
0.0
 11
100.399384
 21
225.924194
 31
0.0
  0
SPLINE
  5
4BD
100
AcDbEntity
  8
レイヤー_2
 62
     7
100
AcDbSpline
210
0.0
220
0.0
230
1.0
 70
     8
 71
     3
 72
    20
 73
    16
 74
     0
 42
0.00000001
 43
0.00000001
 40
0.0
 40
0.0
 40
0.0
 40
0.0
 40
1.0
 40
1.0
 40
1.0
 40
2.0
 40
2.0
 40
2.0
 40
3.0
 40
3.0
 40
3.0
 40
4.0
 40
4.0
 40
4.0
 40
5.0
 40
5.0
 40
5.0
 40
5.0
 10
106.1830105251736
 20
241.30895724826388
 30
0.0
 10
106.1830105251736
 20
241.30895724826388
 30
0.0
 10
106.16785210503471
 20
241.30206705729165
 30
0.0
 10
106.16785210503471
 20
241.30206705729165
 30
0.0
 10
106.12754448784722
 20
241.28311903211804
 30
0.0
 10
106.0868923611111
 20
241.2634819878472
 30
0.0
 10
106.04899631076388
 20
241.24625651041666
 30
0.0
 10
106.01178927951388
 20
241.22834201388886
 30
0.0
 10
105.97596028645832
 20
241.21249457465277
 30
0.0
 10
105.94495442708332
 20
241.19768066406249
 30
0.0
 10
105.91429307725693
 20
241.18321126302081
 30
0.0
 10
105.88707682291665
 20
241.1704644097222
 30
0.0
 10
105.86847330729165
 20
241.1615071614583
 30
0.0
 10
105.84918077256944
 20
241.15254991319443
 30
0.0
 10
105.83781195746526
 20
241.14669325086803
 30
0.0
 10
105.82678765190971
 20
241.14152560763887
 30
0.0
  0
SPLINE
  5
4BC
100
AcDbEntity
  8
レイヤー_2
 62
     7
100
AcDbSpline
210
0.0
220
0.0
230
1.0
 70
     8
 71
     3
 72
    20
 73
    16
 74
     0
 42
0.00000001
 43
0.00000001
 40
0.0
 40
0.0
 40
0.0
 40
0.0
 40
1.0
 40
1.0
 40
1.0
 40
2.0
 40
2.0
 40
2.0
 40
3.0
 40
3.0
 40
3.0
 40
4.0
 40
4.0
 40
4.0
 40
5.0
 40
5.0
 40
5.0
 40
5.0
 10
108.35100911458332
 20
237.35605468749998
 30
0.0
 10
108.31414659288194
 20
237.33331705729165
 30
0.0
 10
108.27693956163193
 20
237.31161295572915
 30
0.0
 10
108.24524468315971
 20
237.28267415364581
 30
0.0
 10
108.21423882378471
 20
237.25373535156248
 30
0.0
 10
108.18840060763888
 20
237.2172173394097
 30
0.0
 10
108.16945258246527
 20
237.17897677951387
 30
0.0
 10
108.15084906684027
 20
237.14039171006942
 30
0.0
 10
108.13775770399305
 20
237.09939507378471
 30
0.0
 10
108.13155653211804
 20
237.05598687065969
 30
0.0
 10
108.12673339843749
 20
237.01361219618053
 30
0.0
 10
108.12742241753472
 20
236.97054850260415
 30
0.0
 10
108.13775770399305
 20
236.92955186631943
 30
0.0
 10
108.14430338541666
 20
236.90233561197914
 30
0.0
 10
108.15463867187499
 20
236.8761528862847
 30
0.0
 10
108.16566297743054
 20
236.84997016059026
 30
0.0
  0
SPLINE
  5
4BB
100
AcDbEntity
  8
レイヤー_2
 62
     7
100
AcDbSpline
210
0.0
220
0.0
230
1.0
 70
     8
 71
     3
 72
     8
 73
     4
 74
     0
 42
0.00000001
 43
0.00000001
 40
0.0
 40
0.0
 40
0.0
 40
0.0
 40
1.0
 40
1.0
 40
1.0
 40
1.0
 10
123.75919867621526
 20
244.66792534722219
 30
0.0
 10
123.75919867621526
 20
244.69893120659719
 30
0.0
 10
123.75230848524305
 20
244.72821451822915
 30
0.0
 10
123.74059516059026
 20
244.75267469618052
 30
0.0
  0
SPLINE
  5
4BA
100
AcDbEntity
  8
レイヤー_2
 62
     7
100
AcDbSpline
210
0.0
220
0.0
230
1.0
 70
     8
 71
     3
 72
    11
 73
     7
 74
     0
 42
0.00000001
 43
0.00000001
 40
0.0
 40
0.0
 40
0.0
 40
0.0
 40
1.0
 40
1.0
 40
1.0
 40
2.0
 40
2.0
 40
2.0
 40
2.0
 10
123.64413248697916
 20
244.48740234374998
 30
0.0
 10
123.66618109809026
 20
244.49739312065969
 30
0.0
 10
123.68547363281249
 20
244.51082899305553
 30
0.0
 10
123.70097656249999
 20
244.52702094184025
 30
0.0
 10
123.74025065104165
 20
244.5652615017361
 30
0.0
 10
123.75919867621526
 20
244.61693793402776
 30
0.0
 10
123.75919867621526
 20
244.66792534722219
 30
0.0
  0
LINE
  5
4B9
100
AcDbEntity
  8
レイヤー_2
  6
AI9-LType2
 62
     7
100
AcDbLine
 10
123.644132
 20
244.487402
 30
0.0
 11
109.257414
 21
237.778768
 31
0.0
  0
LINE
  5
4B8
100
AcDbEntity
  8
レイヤー_2
 62
     7
100
AcDbLine
 10
109.257414
 20
237.778768
 30
0.0
 11
108.351009
 21
237.356055
 31
0.0
  0
LINE
  5
4B7
100
AcDbEntity
  8
レイヤー_2
  6
AI9-LType2
 62
     7
100
AcDbLine
 10
122.008057
 20
248.467866
 30
0.0
 11
123.317882
 21
245.659079
 31
0.0
  0
LINE
  5
4B6
100
AcDbEntity
  8
レイヤー_2
 62
     7
100
AcDbLine
 10
123.317882
 20
245.659079
 30
0.0
 11
123.740595
 21
244.752675
 31
0.0
  0
LINE
  5
4B5
100
AcDbEntity
  8
レイヤー_2
  6
AI9-LType2
 62
     7
100
AcDbLine
 10
105.786136
 20
228.435669
 30
0.0
 11
111.050586
 21
228.435669
 31
0.0
  0
LINE
  5
4B4
100
AcDbEntity
  8
レイヤー_2
 62
     7
100
AcDbLine
 10
111.050586
 20
228.435669
 30
0.0
 11
112.051386
 21
228.435669
 31
0.0
  0
LINE
  5
4B3
100
AcDbEntity
  8
レイヤー_2
  6
AI9-LType2
 62
     7
100
AcDbLine
 10
69.146167
 20
146.977075
 30
0.0
 11
69.133076
 21
147.228567
 31
0.0
  0
LINE
  5
4B2
100
AcDbEntity
  8
レイヤー_2
 62
     7
100
AcDbLine
 10
69.133076
 20
147.228567
 30
0.0
 11
69.080366
 21
148.226611
 31
0.0
  0
LINE
  5
4B1
100
AcDbEntity
  8
レイヤー_2
  6
AI9-LType2
 62
     7
100
AcDbLine
 10
57.462126
 20
148.226611
 30
0.0
 11
57.449034
 21
147.975464
 31
0.0
  0
LINE
  5
4B0
100
AcDbEntity
  8
レイヤー_2
 62
     7
100
AcDbLine
 10
57.449034
 20
147.975464
 30
0.0
 11
57.396669
 21
146.977075
 31
0.0
  0
LINE
  5
4AF
100
AcDbEntity
  8
レイヤー_2
 62
     7
100
AcDbLine
 10
67.278925
 20
143.51751
 30
0.0
 11
67.225871
 21
143.526812
 31
0.0
  0
LINE
  5
4AE
100
AcDbEntity
  8
レイヤー_2
 62
     7
100
AcDbLine
 10
66.904099
 20
142.502241
 30
0.0
 11
67.278925
 21
143.151641
 31
0.0
  0
LINE
  5
4AD
100
AcDbEntity
  8
レイヤー_2
 62
     7
100
AcDbLine
 10
67.278925
 20
143.151641
 30
0.0
 11
67.278925
 21
143.51751
 31
0.0
  0
LINE
  5
4AC
100
AcDbEntity
  8
レイヤー_2
 62
     7
100
AcDbLine
 10
66.904099
 20
136.65178
 30
0.0
 11
66.904099
 21
142.502241
 31
0.0
  0
LINE
  5
4AB
100
AcDbEntity
  8
レイヤー_2
 62
     7
100
AcDbLine
 10
67.379867
 20
136.593557
 30
0.0
 11
67.278925
 21
136.65178
 31
0.0
  0
LINE
  5
4AA
100
AcDbEntity
  8
レイヤー_2
 62
     7
100
AcDbLine
 10
67.278925
 20
133.65179
 30
0.0
 11
67.379867
 21
133.710012
 31
0.0
  0
LINE
  5
4A9
100
AcDbEntity
  8
レイヤー_2
 62
     7
100
AcDbLine
 10
69.458293
 20
146.477192
 30
0.0
 11
69.458293
 21
146.977075
 31
0.0
  0
LINE
  5
4A8
100
AcDbEntity
  8
レイヤー_2
 62
     7
100
AcDbLine
 10
62.120239
 20
146.977075
 30
0.0
 11
62.120239
 21
146.477192
 31
0.0
  0
LINE
  5
4A7
100
AcDbEntity
  8
レイヤー_2
 62
     7
100
AcDbLine
 10
57.285737
 20
146.977075
 30
0.0
 11
57.285737
 21
146.477192
 31
0.0
  0
SPLINE
  5
4A6
100
AcDbEntity
  8
レイヤー_2
 62
     7
100
AcDbSpline
210
0.0
220
0.0
230
1.0
 70
     8
 71
     3
 72
     8
 73
     4
 74
     0
 42
0.00000001
 43
0.00000001
 40
0.0
 40
0.0
 40
0.0
 40
0.0
 40
1.0
 40
1.0
 40
1.0
 40
1.0
 10
69.207145182291654
 20
144.47662489149303
 30
0.0
 10
69.34563802083332
 20
144.47662489149303
 30
0.0
 10
69.457259114583323
 20
144.58893500434027
 30
0.0
 10
69.457259114583323
 20
144.72708333333333
 30
0.0
  0
LINE
  5
4A5
100
AcDbEntity
  8
レイヤー_2
 62
     7
100
AcDbLine
 10
69.457259
 20
144.727083
 30
0.0
 11
69.457259
 21
146.477192
 31
0.0
  0
SPLINE
  5
4A4
100
AcDbEntity
  8
レイヤー_2
 62
     7
100
AcDbSpline
210
0.0
220
0.0
230
1.0
 70
     8
 71
     3
 72
    14
 73
    10
 74
     0
 42
0.00000001
 43
0.00000001
 40
0.0
 40
0.0
 40
0.0
 40
0.0
 40
1.0
 40
1.0
 40
1.0
 40
2.0
 40
2.0
 40
2.0
 40
3.0
 40
3.0
 40
3.0
 40
3.0
 10
68.959442816840266
 20
143.68390842013886
 30
0.0
 10
68.983558485243051
 20
143.70251193576388
 30
0.0
 10
69.007329644097211
 20
143.72111545138887
 30
0.0
 10
69.031789822048609
 20
143.75384385850694
 30
0.0
 10
69.056249999999991
 20
143.78622775607639
 30
0.0
 10
69.08208821614582
 20
143.83170301649304
 30
0.0
 10
69.080365668402777
 20
143.87648925781249
 30
0.0
 10
69.080021158854166
 20
143.88785807291666
 30
0.0
 10
69.077954101562497
 20
143.89991590711804
 30
0.0
 10
69.075542534722217
 20
143.91162923177083
 30
0.0
  0
LINE
  5
4A3
100
AcDbEntity
  8
レイヤー_2
 62
     7
100
AcDbLine
 10
62.120239
 20
146.477192
 30
0.0
 11
62.120239
 21
144.741208
 31
0.0
  0
SPLINE
  5
4A2
100
AcDbEntity
  8
レイヤー_2
 62
     7
100
AcDbSpline
210
0.0
220
0.0
230
1.0
 70
     8
 71
     3
 72
    41
 73
    37
 74
     0
 42
0.00000001
 43
0.00000001
 40
0.0
 40
0.0
 40
0.0
 40
0.0
 40
1.0
 40
1.0
 40
1.0
 40
2.0
 40
2.0
 40
2.0
 40
3.0
 40
3.0
 40
3.0
 40
4.0
 40
4.0
 40
4.0
 40
5.0
 40
5.0
 40
5.0
 40
6.0
 40
6.0
 40
6.0
 40
7.0
 40
7.0
 40
7.0
 40
8.0
 40
8.0
 40
8.0
 40
9.0
 40
9.0
 40
9.0
 40
10.0
 40
10.0
 40
10.0
 40
11.0
 40
11.0
 40
11.0
 40
12.0
 40
12.0
 40
12.0
 40
12.0
 10
62.123339843749996
 20
144.7422417534722
 30
0.0
 10
62.123339843749996
 20
144.7422417534722
 30
0.0
 10
62.121272786458327
 20
144.71812608506943
 30
0.0
 10
62.121272786458327
 20
144.71812608506943
 30
0.0
 10
62.120583767361104
 20
144.69022081163192
 30
0.0
 10
62.130574544270829
 20
144.66162651909721
 30
0.0
 10
62.142976888020826
 20
144.63613281249999
 30
0.0
 10
62.15296766493055
 20
144.61477322048609
 30
0.0
 10
62.165714518229159
 20
144.5958251953125
 30
0.0
 10
62.17983940972222
 20
144.57825520833333
 30
0.0
 10
62.192586263020829
 20
144.56309678819443
 30
0.0
 10
62.206711154513883
 20
144.5496609157986
 30
0.0
 10
62.221180555555549
 20
144.53863661024303
 30
0.0
 10
62.234960937499991
 20
144.52899034288194
 30
0.0
 10
62.248052300347219
 20
144.52106662326386
 30
0.0
 10
62.259765624999993
 20
144.51486545138889
 30
0.0
 10
62.271134440104163
 20
144.50900878906248
 30
0.0
 10
62.291115993923604
 20
144.50108506944443
 30
0.0
 10
62.291115993923604
 20
144.50108506944443
 30
0.0
 10
62.30386284722222
 20
144.49591742621527
 30
0.0
 10
62.31454264322916
 20
144.49247233072916
 30
0.0
 10
62.324877929687496
 20
144.48937174479164
 30
0.0
 10
62.35037163628472
 20
144.48213704427081
 30
0.0
 10
62.373798285590269
 20
144.47731391059025
 30
0.0
 10
62.401703559027773
 20
144.4721462673611
 30
0.0
 10
62.443044704861109
 20
144.46456705729165
 30
0.0
 10
62.492998589409716
 20
144.456298828125
 30
0.0
 10
62.552254231770824
 20
144.44837510850692
 30
0.0
 10
62.614610460069436
 20
144.44010687934028
 30
0.0
 10
62.68661295572916
 20
144.43114963107638
 30
0.0
 10
62.764472113715271
 20
144.42253689236111
 30
0.0
 10
62.835785590277773
 20
144.41461317274303
 30
0.0
 10
62.912266710069439
 20
144.40668945312498
 30
0.0
 10
62.99012586805555
 20
144.39979926215275
 30
0.0
 10
63.010451931423603
 20
144.39773220486109
 30
0.0
 10
63.031122504340274
 20
144.39600965711804
 30
0.0
 10
63.05213758680555
 20
144.39394259982637
 30
0.0
  0
SPLINE
  5
4A1
100
AcDbEntity
  8
レイヤー_2
 62
     7
100
AcDbSpline
210
0.0
220
0.0
230
1.0
 70
     8
 71
     3
 72
     8
 73
     4
 74
     0
 42
0.00000001
 43
0.00000001
 40
0.0
 40
0.0
 40
0.0
 40
0.0
 40
1.0
 40
1.0
 40
1.0
 40
1.0
 10
69.207145182291654
 20
144.47662489149303
 30
0.0
 10
69.138932291666663
 20
144.47662489149303
 30
0.0
 10
69.082777235243043
 20
144.42081434461804
 30
0.0
 10
69.082777235243043
 20
144.35156792534721
 30
0.0
  0
LINE
  5
4A0
100
AcDbEntity
  8
レイヤー_2
 62
     7
100
AcDbLine
 10
69.082777
 20
143.909907
 30
0.0
 11
69.082777
 21
144.351568
 31
0.0
  0
SPLINE
  5
49F
100
AcDbEntity
  8
レイヤー_2
 62
     7
100
AcDbSpline
210
0.0
220
0.0
230
1.0
 70
     8
 71
     3
 72
    14
 73
    10
 74
     0
 42
0.00000001
 43
0.00000001
 40
0.0
 40
0.0
 40
0.0
 40
0.0
 40
1.0
 40
1.0
 40
1.0
 40
2.0
 40
2.0
 40
2.0
 40
3.0
 40
3.0
 40
3.0
 40
3.0
 10
66.875849066840274
 20
143.93367784288193
 30
0.0
 10
66.8951416015625
 20
143.93023274739582
 30
0.0
 10
66.915123155381934
 20
143.92644314236111
 30
0.0
 10
66.93200412326388
 20
143.92230902777777
 30
0.0
 10
66.948196072048603
 20
143.91748589409721
 30
0.0
 10
66.956119791666666
 20
143.91576334635414
 30
0.0
 10
66.956119791666666
 20
143.91576334635414
 30
0.0
 10
66.956119791666666
 20
143.91576334635414
 30
0.0
 10
66.955086263020831
 20
143.91576334635414
 30
0.0
 10
66.955086263020831
 20
143.91576334635414
 30
0.0
  0
SPLINE
  5
49E
100
AcDbEntity
  8
レイヤー_2
 62
     7
100
AcDbSpline
210
0.0
220
0.0
230
1.0
 70
     8
 71
     3
 72
    14
 73
    10
 74
     0
 42
0.00000001
 43
0.00000001
 40
0.0
 40
0.0
 40
0.0
 40
0.0
 40
1.0
 40
1.0
 40
1.0
 40
2.0
 40
2.0
 40
2.0
 40
3.0
 40
3.0
 40
3.0
 40
3.0
 10
69.039024522569434
 20
143.73765190972222
 30
0.0
 10
69.040747070312491
 20
143.75143229166665
 30
0.0
 10
69.04281412760416
 20
143.7655571831597
 30
0.0
 10
69.044881184895829
 20
143.77623697916664
 30
0.0
 10
69.046948242187497
 20
143.78760579427083
 30
0.0
 10
69.049359809027777
 20
143.79725206163192
 30
0.0
 10
69.049359809027777
 20
143.79725206163192
 30
0.0
 10
69.049359809027777
 20
143.79725206163192
 30
0.0
 10
69.049359809027777
 20
143.79690755208333
 30
0.0
 10
69.049359809027777
 20
143.79690755208333
 30
0.0
  0
SPLINE
  5
49D
100
AcDbEntity
  8
レイヤー_2
 62
     7
100
AcDbSpline
210
0.0
220
0.0
230
1.0
 70
     8
 71
     3
 72
     8
 73
     4
 74
     0
 42
0.00000001
 43
0.00000001
 40
0.0
 40
0.0
 40
0.0
 40
0.0
 40
1.0
 40
1.0
 40
1.0
 40
1.0
 10
68.791322157118046
 20
143.52681206597222
 30
0.0
 10
68.916723632812491
 20
143.52681206597222
 30
0.0
 10
69.020421006944431
 20
143.61879611545137
 30
0.0
 10
69.038680013020823
 20
143.74006347656248
 30
0.0
  0
LINE
  5
49C
100
AcDbEntity
  8
レイヤー_2
 62
     7
100
AcDbLine
 10
57.29745
 20
146.477192
 30
0.0
 11
57.29745
 21
144.741208
 31
0.0
  0
SPLINE
  5
49B
100
AcDbEntity
  8
レイヤー_2
 62
     7
100
AcDbSpline
210
0.0
220
0.0
230
1.0
 70
     8
 71
     3
 72
    29
 73
    25
 74
     0
 42
0.00000001
 43
0.00000001
 40
0.0
 40
0.0
 40
0.0
 40
0.0
 40
1.0
 40
1.0
 40
1.0
 40
2.0
 40
2.0
 40
2.0
 40
3.0
 40
3.0
 40
3.0
 40
4.0
 40
4.0
 40
4.0
 40
5.0
 40
5.0
 40
5.0
 40
6.0
 40
6.0
 40
6.0
 40
7.0
 40
7.0
 40
7.0
 40
8.0
 40
8.0
 40
8.0
 40
8.0
 10
57.300895182291661
 20
144.74017469618053
 30
0.0
 10
57.30055067274305
 20
144.72570529513888
 30
0.0
 10
57.299517144097216
 20
144.71226942274305
 30
0.0
 10
57.300895182291661
 20
144.69848904079859
 30
0.0
 10
57.30296223958333
 20
144.67127278645833
 30
0.0
 10
57.31364203559027
 20
144.64612358940971
 30
0.0
 10
57.32742241753472
 20
144.62235243055554
 30
0.0
 10
57.338446723090271
 20
144.60202636718748
 30
0.0
 10
57.350849066840276
 20
144.58445638020831
 30
0.0
 10
57.365662977430553
 20
144.56826443142359
 30
0.0
 10
57.378409830729161
 20
144.55413953993053
 30
0.0
 10
57.392879231770827
 20
144.54242621527777
 30
0.0
 10
57.407004123263881
 20
144.53209092881943
 30
0.0
 10
57.419750976562497
 20
144.52382269965275
 30
0.0
 10
57.432497829861106
 20
144.51693250868055
 30
0.0
 10
57.443522135416664
 20
144.51142035590277
 30
0.0
 10
57.454890950520827
 20
144.50556369357636
 30
0.0
 10
57.474872504340276
 20
144.49832899305554
 30
0.0
 10
57.474872504340276
 20
144.49832899305554
 30
0.0
 10
57.487963867187496
 20
144.49316134982638
 30
0.0
 10
57.49967719184027
 20
144.49006076388886
 30
0.0
 10
57.512079535590274
 20
144.48661566840278
 30
0.0
 10
57.512079535590274
 20
144.48661566840278
 30
0.0
 10
57.53309461805555
 20
144.48179253472222
 30
0.0
 10
57.53309461805555
 20
144.48179253472222
 30
0.0
  0
LINE
  5
49A
100
AcDbEntity
  8
レイヤー_2
  6
AI9-LType2
 62
     7
100
AcDbLine
 10
57.462126
 20
148.226611
 30
0.0
 11
68.080943
 21
148.226611
 31
0.0
  0
LINE
  5
499
100
AcDbEntity
  8
レイヤー_2
 62
     7
100
AcDbLine
 10
68.080943
 20
148.226611
 30
0.0
 11
69.080366
 21
148.226611
 31
0.0
  0
LINE
  5
498
100
AcDbEntity
  8
レイヤー_2
 62
     7
100
AcDbLine
 10
57.396669
 20
146.977075
 30
0.0
 11
62.120239
 21
146.977075
 31
0.0
  0
LINE
  5
497
100
AcDbEntity
  8
レイヤー_2
 62
     7
100
AcDbLine
 10
67.492866
 20
133.796484
 30
0.0
 11
66.871026
 21
133.65179
 31
0.0
  0
SPLINE
  5
496
100
AcDbEntity
  8
レイヤー_2
 62
     7
100
AcDbSpline
210
0.0
220
0.0
230
1.0
 70
     8
 71
     3
 72
    11
 73
     7
 74
     0
 42
0.00000001
 43
0.00000001
 40
0.0
 40
0.0
 40
0.0
 40
0.0
 40
1.0
 40
1.0
 40
1.0
 40
2.0
 40
2.0
 40
2.0
 40
2.0
 10
66.871025933159714
 20
133.65179036458332
 30
0.0
 10
66.85690104166666
 20
133.65179036458332
 30
0.0
 10
66.842087131076383
 20
133.65247938368054
 30
0.0
 10
66.827273220486106
 20
133.65247938368054
 30
0.0
 10
66.663286675347223
 20
133.65833604600692
 30
0.0
 10
66.502400716145829
 20
133.71655815972221
 30
0.0
 10
66.341514756944434
 20
133.77409125434028
 30
0.0
  0
SPLINE
  5
495
100
AcDbEntity
  8
レイヤー_2
 62
     7
100
AcDbSpline
210
0.0
220
0.0
230
1.0
 70
     8
 71
     3
 72
    11
 73
     7
 74
     0
 42
0.00000001
 43
0.00000001
 40
0.0
 40
0.0
 40
0.0
 40
0.0
 40
1.0
 40
1.0
 40
1.0
 40
2.0
 40
2.0
 40
2.0
 40
2.0
 10
66.871025933159714
 20
136.65177951388887
 30
0.0
 10
66.85690104166666
 20
136.65177951388887
 30
0.0
 10
66.842087131076383
 20
136.65143500434027
 30
0.0
 10
66.827273220486106
 20
136.65143500434027
 30
0.0
 10
66.663286675347223
 20
136.64523383246527
 30
0.0
 10
66.502400716145829
 20
136.58701171874998
 30
0.0
 10
66.341514756944434
 20
136.52947862413194
 30
0.0
  0
LINE
  5
494
100
AcDbEntity
  8
レイヤー_2
 62
     7
100
AcDbLine
 10
67.492866
 20
136.507086
 30
0.0
 11
66.871026
 21
136.65178
 31
0.0
  0
LINE
  5
493
100
AcDbEntity
  8
レイヤー_2
 62
     7
100
AcDbLine
 10
67.492866
 20
133.796484
 30
0.0
 11
67.492866
 21
136.507086
 31
0.0
  0
LINE
  5
492
100
AcDbEntity
  8
レイヤー_2
 62
     7
100
AcDbLine
 10
67.278925
 20
143.51751
 30
0.0
 11
66.341515
 21
143.51751
 31
0.0
  0
LINE
  5
491
100
AcDbEntity
  8
レイヤー_2
 62
     7
100
AcDbLine
 10
67.278925
 20
143.151641
 30
0.0
 11
66.341515
 21
143.151641
 31
0.0
  0
LINE
  5
490
100
AcDbEntity
  8
レイヤー_2
 62
     7
100
AcDbLine
 10
66.904099
 20
142.502241
 30
0.0
 11
66.341515
 21
142.502241
 31
0.0
  0
LINE
  5
48F
100
AcDbEntity
  8
レイヤー_2
 62
     7
100
AcDbLine
 10
66.341515
 20
136.65178
 30
0.0
 11
66.871026
 21
136.65178
 31
0.0
  0
LINE
  5
48E
100
AcDbEntity
  8
レイヤー_2
 62
     7
100
AcDbLine
 10
66.871026
 20
133.65179
 30
0.0
 11
66.341515
 21
133.65179
 31
0.0
  0
LINE
  5
48D
100
AcDbEntity
  8
レイヤー_2
 62
     7
100
AcDbLine
 10
63.815226
 20
133.796484
 30
0.0
 11
63.815226
 21
136.507086
 31
0.0
  0
LINE
  5
48C
100
AcDbEntity
  8
レイヤー_2
 62
     7
100
AcDbLine
 10
67.367809
 20
136.572198
 30
0.0
 11
67.492866
 21
136.507086
 31
0.0
  0
LINE
  5
48B
100
AcDbEntity
  8
レイヤー_2
 62
     7
100
AcDbLine
 10
66.871026
 20
136.65178
 30
0.0
 11
67.278925
 21
136.65178
 31
0.0
  0
LINE
  5
48A
100
AcDbEntity
  8
レイヤー_2
 62
     7
100
AcDbLine
 10
67.367809
 20
133.731372
 30
0.0
 11
67.492866
 21
133.796484
 31
0.0
  0
LINE
  5
489
100
AcDbEntity
  8
レイヤー_2
 62
     7
100
AcDbLine
 10
67.278925
 20
133.65179
 30
0.0
 11
66.871026
 21
133.65179
 31
0.0
  0
LINE
  5
488
100
AcDbEntity
  8
レイヤー_2
 62
     7
100
AcDbLine
 10
65.168115
 20
146.477192
 30
0.0
 11
69.458293
 21
146.477192
 31
0.0
  0
LINE
  5
487
100
AcDbEntity
  8
レイヤー_2
 62
     7
100
AcDbLine
 10
63.138265
 20
146.977075
 30
0.0
 11
69.458293
 21
146.977075
 31
0.0
  0
LINE
  5
486
100
AcDbEntity
  8
レイヤー_2
 62
     7
100
AcDbLine
 10
62.139187
 20
146.977075
 30
0.0
 11
63.138265
 21
146.977075
 31
0.0
  0
LINE
  5
485
100
AcDbEntity
  8
レイヤー_2
 62
     7
100
AcDbLine
 10
57.285737
 20
146.477192
 30
0.0
 11
59.308352
 21
146.477192
 31
0.0
  0
LINE
  5
484
100
AcDbEntity
  8
レイヤー_2
 62
     7
100
AcDbLine
 10
57.285737
 20
146.977075
 30
0.0
 11
57.396669
 21
146.977075
 31
0.0
  0
LINE
  5
483
100
AcDbEntity
  8
レイヤー_2
 62
     7
100
AcDbLine
 10
59.308352
 20
146.477192
 30
0.0
 11
60.716707
 21
146.477192
 31
0.0
  0
SPLINE
  5
482
100
AcDbEntity
  8
レイヤー_2
 62
     7
100
AcDbSpline
210
0.0
220
0.0
230
1.0
 70
     8
 71
     3
 72
    35
 73
    31
 74
     0
 42
0.00000001
 43
0.00000001
 40
0.0
 40
0.0
 40
0.0
 40
0.0
 40
1.0
 40
1.0
 40
1.0
 40
2.0
 40
2.0
 40
2.0
 40
3.0
 40
3.0
 40
3.0
 40
4.0
 40
4.0
 40
4.0
 40
5.0
 40
5.0
 40
5.0
 40
6.0
 40
6.0
 40
6.0
 40
7.0
 40
7.0
 40
7.0
 40
8.0
 40
8.0
 40
8.0
 40
9.0
 40
9.0
 40
9.0
 40
10.0
 40
10.0
 40
10.0
 40
10.0
 10
66.609543185763883
 20
144.35156792534721
 30
0.0
 10
66.542363823784711
 20
144.35397949218748
 30
0.0
 10
66.47415093315972
 20
144.35742458767359
 30
0.0
 10
66.40490451388888
 20
144.35983615451389
 30
0.0
 10
66.127918836805549
 20
144.37051595052083
 30
0.0
 10
65.830607096354157
 20
144.38119574652777
 30
0.0
 10
65.522960069444437
 20
144.39153103298611
 30
0.0
 10
65.250108506944443
 20
144.40048828124998
 30
0.0
 10
64.968644205729163
 20
144.41047905815972
 30
0.0
 10
64.680978732638877
 20
144.41909179687499
 30
0.0
 10
64.3836669921875
 20
144.42908257378471
 30
0.0
 10
64.080498589409714
 20
144.43769531249998
 30
0.0
 10
63.776296657986109
 20
144.44665256076388
 30
0.0
 10
63.634014214409717
 20
144.45147569444444
 30
0.0
 10
63.490698242187491
 20
144.45560980902778
 30
0.0
 10
63.348071289062496
 20
144.45939941406249
 30
0.0
 10
63.257120768229164
 20
144.46249999999998
 30
0.0
 10
63.165136718749991
 20
144.46491156684027
 30
0.0
 10
63.074530707465271
 20
144.46732313368054
 30
0.0
 10
63.020442708333327
 20
144.46904568142361
 30
0.0
 10
62.966010199652771
 20
144.47007921006943
 30
0.0
 10
62.91261121961805
 20
144.4718017578125
 30
0.0
 10
62.882983398437496
 20
144.47283528645832
 30
0.0
 10
62.85301106770833
 20
144.47386881510414
 30
0.0
 10
62.82372775607638
 20
144.47421332465277
 30
0.0
 10
62.808913845486103
 20
144.47455783420136
 30
0.0
 10
62.793066406249991
 20
144.47559136284721
 30
0.0
 10
62.778941514756937
 20
144.47593587239581
 30
0.0
 10
62.778941514756937
 20
144.47593587239581
 30
0.0
 10
62.75999348958333
 20
144.47593587239581
 30
0.0
 10
62.75999348958333
 20
144.47593587239581
 30
0.0
  0
POLYLINE
  5
47C
100
AcDbEntity
  8
レイヤー_2
 62
     7
100
AcDb2dPolyline
 66
     1
 10
0.0
 20
0.0
 30
0.0
  0
VERTEX
  5
47D
100
AcDbEntity
  8
レイヤー_2
 62
     7
100
AcDbVertex
100
AcDb2dVertex
 10
62.759993
 20
144.475936
 30
0.0
  0
VERTEX
  5
47E
100
AcDbEntity
  8
レイヤー_2
 62
     7
100
AcDbVertex
100
AcDb2dVertex
 10
62.759993
 20
144.47628
 30
0.0
  0
VERTEX
  5
47F
100
AcDbEntity
  8
レイヤー_2
 62
     7
100
AcDbVertex
100
AcDb2dVertex
 10
62.761027
 20
144.47628
 30
0.0
  0
VERTEX
  5
480
100
AcDbEntity
  8
レイヤー_2
 62
     7
100
AcDbVertex
100
AcDb2dVertex
 10
62.769984
 20
144.476625
 30
0.0
  0
SEQEND
  5
481
100
AcDbEntity
  8
レイヤー_2
 62
     7
  0
LINE
  5
47B
100
AcDbEntity
  8
レイヤー_2
 62
     7
100
AcDbLine
 10
69.207145
 20
144.476625
 30
0.0
 11
66.683613
 21
144.476625
 31
0.0
  0
LINE
  5
47A
100
AcDbEntity
  8
レイヤー_2
 62
     7
100
AcDbLine
 10
66.683613
 20
144.476625
 30
0.0
 11
63.134131
 21
144.476625
 31
0.0
  0
LINE
  5
479
100
AcDbEntity
  8
レイヤー_2
 62
     7
100
AcDbLine
 10
65.168115
 20
146.477192
 30
0.0
 11
63.138265
 21
146.477192
 31
0.0
  0
SPLINE
  5
478
100
AcDbEntity
  8
レイヤー_2
 62
     7
100
AcDbSpline
210
0.0
220
0.0
230
1.0
 70
     8
 71
     3
 72
     8
 73
     4
 74
     0
 42
0.00000001
 43
0.00000001
 40
0.0
 40
0.0
 40
0.0
 40
0.0
 40
1.0
 40
1.0
 40
1.0
 40
1.0
 10
68.788566080729154
 20
143.69079861111109
 30
0.0
 10
68.509513346354154
 20
143.87235514322916
 30
0.0
 10
65.848521592881937
 20
144.21755371093749
 30
0.0
 10
62.75999348958333
 20
144.47593587239581
 30
0.0
  0
SPLINE
  5
477
100
AcDbEntity
  8
レイヤー_2
 62
     7
100
AcDbSpline
210
0.0
220
0.0
230
1.0
 70
     8
 71
     3
 72
     8
 73
     4
 74
     0
 42
0.00000001
 43
0.00000001
 40
0.0
 40
0.0
 40
0.0
 40
0.0
 40
1.0
 40
1.0
 40
1.0
 40
1.0
 10
66.480352105034711
 20
143.87476671006942
 30
0.0
 10
67.031567382812497
 20
143.84996202256943
 30
0.0
 10
67.190386284722223
 20
143.87442220052083
 30
0.0
 10
66.902376302083326
 20
143.93023274739582
 30
0.0
  0
SPLINE
  5
476
100
AcDbEntity
  8
レイヤー_2
 62
     7
100
AcDbSpline
210
0.0
220
0.0
230
1.0
 70
     8
 71
     3
 72
     8
 73
     4
 74
     0
 42
0.00000001
 43
0.00000001
 40
0.0
 40
0.0
 40
0.0
 40
0.0
 40
1.0
 40
1.0
 40
1.0
 40
1.0
 10
66.902376302083326
 20
143.93126627604164
 30
0.0
 10
66.17236056857638
 20
144.07285970052081
 30
0.0
 10
64.679256184895834
 20
144.24890407986109
 30
0.0
 10
63.053515624999996
 20
144.39394259982637
 30
0.0
  0
SPLINE
  5
475
100
AcDbEntity
  8
レイヤー_2
 62
     7
100
AcDbSpline
210
0.0
220
0.0
230
1.0
 70
     8
 71
     3
 72
    11
 73
     7
 74
     0
 42
0.00000001
 43
0.00000001
 40
0.0
 40
0.0
 40
0.0
 40
0.0
 40
1.0
 40
1.0
 40
1.0
 40
2.0
 40
2.0
 40
2.0
 40
2.0
 10
62.963943142361103
 20
144.47765842013888
 30
0.0
 10
62.60496419270833
 20
144.50487467447914
 30
0.0
 10
62.35209418402777
 20
144.51073133680555
 30
0.0
 10
62.348649088541663
 20
144.49247233072916
 30
0.0
 10
62.346926540798606
 20
144.47249077690972
 30
0.0
 10
62.657329644097217
 20
144.42942708333331
 30
0.0
 10
63.052826605902773
 20
144.39394259982637
 30
0.0
  0
POLYLINE
  5
46F
100
AcDbEntity
  8
レイヤー_2
 62
     7
100
AcDb2dPolyline
 66
     1
 10
0.0
 20
0.0
 30
0.0
  0
VERTEX
  5
470
100
AcDbEntity
  8
レイヤー_2
 62
     7
100
AcDbVertex
100
AcDb2dVertex
 10
62.959465
 20
144.476625
 30
0.0
  0
VERTEX
  5
471
100
AcDbEntity
  8
レイヤー_2
 62
     7
100
AcDbVertex
100
AcDb2dVertex
 10
62.963254
 20
144.476625
 30
0.0
  0
VERTEX
  5
472
100
AcDbEntity
  8
レイヤー_2
 62
     7
100
AcDbVertex
100
AcDb2dVertex
 10
62.964288
 20
144.477314
 30
0.0
  0
VERTEX
  5
473
100
AcDbEntity
  8
レイヤー_2
 62
     7
100
AcDbVertex
100
AcDb2dVertex
 10
62.963943
 20
144.477658
 30
0.0
  0
SEQEND
  5
474
100
AcDbEntity
  8
レイヤー_2
 62
     7
  0
LINE
  5
46E
100
AcDbEntity
  8
レイヤー_2
 62
     7
100
AcDbLine
 10
62.769984
 20
144.476625
 30
0.0
 11
62.959465
 21
144.476625
 31
0.0
  0
LINE
  5
46D
100
AcDbEntity
  8
レイヤー_2
 62
     7
100
AcDbLine
 10
63.138265
 20
146.477192
 30
0.0
 11
62.120239
 21
146.477192
 31
0.0
  0
LINE
  5
46C
100
AcDbEntity
  8
レイヤー_2
 62
     7
100
AcDbLine
 10
63.134131
 20
144.476625
 30
0.0
 11
62.959465
 21
144.476625
 31
0.0
  0
SPLINE
  5
46B
100
AcDbEntity
  8
レイヤー_2
 62
     7
100
AcDbSpline
210
0.0
220
0.0
230
1.0
 70
     8
 71
     3
 72
     8
 73
     4
 74
     0
 42
0.00000001
 43
0.00000001
 40
0.0
 40
0.0
 40
0.0
 40
0.0
 40
1.0
 40
1.0
 40
1.0
 40
1.0
 10
68.815437825520831
 20
143.5791775173611
 30
0.0
 10
68.815437825520831
 20
143.58055555555555
 30
0.0
 10
68.815437825520831
 20
143.58158908420137
 30
0.0
 10
68.815437825520831
 20
143.58193359374999
 30
0.0
  0
SPLINE
  5
46A
100
AcDbEntity
  8
レイヤー_2
 62
     7
100
AcDbSpline
210
0.0
220
0.0
230
1.0
 70
     8
 71
     3
 72
     8
 73
     4
 74
     0
 42
0.00000001
 43
0.00000001
 40
0.0
 40
0.0
 40
0.0
 40
0.0
 40
1.0
 40
1.0
 40
1.0
 40
1.0
 10
68.791322157118046
 20
143.52681206597222
 30
0.0
 10
68.807514105902769
 20
143.54093695746528
 30
0.0
 10
68.815437825520831
 20
143.55988498263886
 30
0.0
 10
68.815437825520831
 20
143.5791775173611
 30
0.0
  0
LINE
  5
469
100
AcDbEntity
  8
レイヤー_2
 62
     7
100
AcDbLine
 10
68.791322
 20
143.526812
 30
0.0
 11
66.392847
 21
143.526812
 31
0.0
  0
LINE
  5
468
100
AcDbEntity
  8
レイヤー_2
 62
     7
100
AcDbLine
 10
66.341515
 20
143.527157
 30
0.0
 11
66.392847
 21
143.526812
 31
0.0
  0
POLYLINE
  5
462
100
AcDbEntity
  8
レイヤー_2
 62
     7
100
AcDb2dPolyline
 66
     1
 10
0.0
 20
0.0
 30
0.0
  0
VERTEX
  5
463
100
AcDbEntity
  8
レイヤー_2
 62
     7
100
AcDbVertex
100
AcDb2dVertex
 10
57.563411
 20
144.477658
 30
0.0
  0
VERTEX
  5
464
100
AcDbEntity
  8
レイヤー_2
 62
     7
100
AcDbVertex
100
AcDb2dVertex
 10
57.569613
 20
144.477314
 30
0.0
  0
VERTEX
  5
465
100
AcDbEntity
  8
レイヤー_2
 62
     7
100
AcDbVertex
100
AcDb2dVertex
 10
57.575469
 20
144.476625
 30
0.0
  0
VERTEX
  5
466
100
AcDbEntity
  8
レイヤー_2
 62
     7
100
AcDbVertex
100
AcDb2dVertex
 10
57.577881
 20
144.476625
 30
0.0
  0
SEQEND
  5
467
100
AcDbEntity
  8
レイヤー_2
 62
     7
  0
SPLINE
  5
461
100
AcDbEntity
  8
レイヤー_2
 62
     7
100
AcDbSpline
210
0.0
220
0.0
230
1.0
 70
     8
 71
     3
 72
    14
 73
    10
 74
     0
 42
0.00000001
 43
0.00000001
 40
0.0
 40
0.0
 40
0.0
 40
0.0
 40
1.0
 40
1.0
 40
1.0
 40
2.0
 40
2.0
 40
2.0
 40
3.0
 40
3.0
 40
3.0
 40
3.0
 10
58.911132812499993
 20
144.39394259982637
 30
0.0
 10
58.769883897569436
 20
144.41702473958333
 30
0.0
 10
58.529071723090276
 20
144.44458550347221
 30
0.0
 10
58.279302300347219
 20
144.46628960503472
 30
0.0
 10
57.86520182291666
 20
144.50177408854165
 30
0.0
 10
57.527926974826386
 20
144.51348741319444
 30
0.0
 10
57.525515407986106
 20
144.49247233072916
 30
0.0
 10
57.525170898437494
 20
144.48833821614582
 30
0.0
 10
57.53964029947916
 20
144.48317057291666
 30
0.0
 10
57.563411458333327
 20
144.47731391059025
 30
0.0
  0
SPLINE
  5
460
100
AcDbEntity
  8
レイヤー_2
 62
     7
100
AcDbSpline
210
0.0
220
0.0
230
1.0
 70
     8
 71
     3
 72
     8
 73
     4
 74
     0
 42
0.00000001
 43
0.00000001
 40
0.0
 40
0.0
 40
0.0
 40
0.0
 40
1.0
 40
1.0
 40
1.0
 40
1.0
 10
57.78768717447916
 20
144.47559136284721
 30
0.0
 10
58.428474934895831
 20
144.35397949218748
 30
0.0
 10
59.489908854166664
 20
144.2151421440972
 30
0.0
 10
60.716362847222214
 20
144.08353949652778
 30
0.0
  0
POLYLINE
  5
45A
100
AcDbEntity
  8
レイヤー_2
 62
     7
100
AcDb2dPolyline
 66
     1
 10
0.0
 20
0.0
 30
0.0
  0
VERTEX
  5
45B
100
AcDbEntity
  8
レイヤー_2
 62
     7
100
AcDbVertex
100
AcDb2dVertex
 10
57.767017
 20
144.476625
 30
0.0
  0
VERTEX
  5
45C
100
AcDbEntity
  8
レイヤー_2
 62
     7
100
AcDbVertex
100
AcDb2dVertex
 10
57.780797
 20
144.47628
 30
0.0
  0
VERTEX
  5
45D
100
AcDbEntity
  8
レイヤー_2
 62
     7
100
AcDbVertex
100
AcDb2dVertex
 10
57.78562
 20
144.47628
 30
0.0
  0
VERTEX
  5
45E
100
AcDbEntity
  8
レイヤー_2
 62
     7
100
AcDbVertex
100
AcDb2dVertex
 10
57.787687
 20
144.475936
 30
0.0
  0
SEQEND
  5
45F
100
AcDbEntity
  8
レイヤー_2
 62
     7
  0
LINE
  5
459
100
AcDbEntity
  8
レイヤー_2
 62
     7
100
AcDbLine
 10
57.767017
 20
144.476625
 30
0.0
 11
57.577881
 21
144.476625
 31
0.0
  0
SPLINE
  5
458
100
AcDbEntity
  8
レイヤー_2
 62
     7
100
AcDbSpline
210
0.0
220
0.0
230
1.0
 70
     8
 71
     3
 72
     8
 73
     4
 74
     0
 42
0.00000001
 43
0.00000001
 40
0.0
 40
0.0
 40
0.0
 40
0.0
 40
1.0
 40
1.0
 40
1.0
 40
1.0
 10
69.082777235243043
 20
143.90921766493054
 30
0.0
 10
69.080365668402777
 20
144.0067138671875
 30
0.0
 10
68.11504991319444
 20
144.17276746961804
 30
0.0
 10
66.610232204861106
 20
144.35156792534721
 30
0.0
  0
SPLINE
  5
457
100
AcDbEntity
  8
レイヤー_2
 62
     7
100
AcDbSpline
210
0.0
220
0.0
230
1.0
 70
     8
 71
     3
 72
     8
 73
     4
 74
     0
 42
0.00000001
 43
0.00000001
 40
0.0
 40
0.0
 40
0.0
 40
0.0
 40
1.0
 40
1.0
 40
1.0
 40
1.0
 10
58.910788302951381
 20
144.39394259982637
 30
0.0
 10
59.373120117187497
 20
144.31573893229165
 30
0.0
 10
60.011496310763881
 20
144.23374565972222
 30
0.0
 10
60.716707356770826
 20
144.15519748263887
 30
0.0
  0
SPLINE
  5
456
100
AcDbEntity
  8
レイヤー_2
 62
     7
100
AcDbSpline
210
0.0
220
0.0
230
1.0
 70
     8
 71
     3
 72
    11
 73
     7
 74
     0
 42
0.00000001
 43
0.00000001
 40
0.0
 40
0.0
 40
0.0
 40
0.0
 40
1.0
 40
1.0
 40
1.0
 40
2.0
 40
2.0
 40
2.0
 40
2.0
 10
60.721530490451386
 20
119.41252170138888
 30
0.0
 10
62.243229166666659
 20
119.56272786458332
 30
0.0
 10
63.041802300347214
 20
119.03011610243054
 30
0.0
 10
64.418462456597211
 20
119.53895670572916
 30
0.0
 10
65.014119466145829
 20
119.75978732638887
 30
0.0
 10
65.708650716145826
 20
119.67572699652777
 30
0.0
 10
66.34289279513888
 20
119.53585611979166
 30
0.0
  0
LINE
  5
455
100
AcDbEntity
  8
レイヤー_2
 62
     7
100
AcDbLine
 10
57.678822
 20
201.307265
 30
0.0
 11
57.678822
 21
159.007349
 31
0.0
  0
LINE
  5
454
100
AcDbEntity
  8
レイヤー_2
 62
     7
100
AcDbLine
 10
69.379055
 20
159.007349
 30
0.0
 11
69.379055
 21
201.307265
 31
0.0
  0
SPLINE
  5
453
100
AcDbEntity
  8
レイヤー_2
 62
     7
100
AcDbSpline
210
0.0
220
0.0
230
1.0
 70
     8
 71
     3
 72
     8
 73
     4
 74
     0
 42
0.00000001
 43
0.00000001
 40
0.0
 40
0.0
 40
0.0
 40
0.0
 40
1.0
 40
1.0
 40
1.0
 40
1.0
 10
69.3790554470486
 20
201.30726453993054
 30
0.0
 10
69.3790554470486
 20
201.41750759548609
 30
0.0
 10
69.289482964409714
 20
201.50708007812497
 30
0.0
 10
69.179584418402769
 20
201.50708007812497
 30
0.0
  0
SPLINE
  5
452
100
AcDbEntity
  8
レイヤー_2
 62
     7
100
AcDbSpline
210
0.0
220
0.0
230
1.0
 70
     8
 71
     3
 72
     8
 73
     4
 74
     0
 42
0.00000001
 43
0.00000001
 40
0.0
 40
0.0
 40
0.0
 40
0.0
 40
1.0
 40
1.0
 40
1.0
 40
1.0
 10
57.878982204861103
 20
201.50708007812497
 30
0.0
 10
57.768739149305553
 20
201.50708007812497
 30
0.0
 10
57.678822157118049
 20
201.41750759548609
 30
0.0
 10
57.678822157118049
 20
201.30726453993054
 30
0.0
  0
LINE
  5
451
100
AcDbEntity
  8
レイヤー_2
 62
     7
100
AcDbLine
 10
66.653985
 20
148.226611
 30
0.0
 11
66.653985
 21
158.257007
 31
0.0
  0
LINE
  5
450
100
AcDbEntity
  8
レイヤー_2
 62
     7
100
AcDbLine
 10
66.341515
 20
119.53689
 30
0.0
 11
66.341515
 21
144.024628
 31
0.0
  0
LINE
  5
44F
100
AcDbEntity
  8
レイヤー_2
 62
     7
100
AcDbLine
 10
66.341515
 20
148.226611
 30
0.0
 11
66.341515
 21
158.257007
 31
0.0
  0
LINE
  5
44E
100
AcDbEntity
  8
レイヤー_2
 62
     7
100
AcDbLine
 10
63.841409
 20
158.257007
 30
0.0
 11
63.841409
 21
148.226611
 31
0.0
  0
LINE
  5
44D
100
AcDbEntity
  8
レイヤー_2
 62
     7
100
AcDbLine
 10
63.841409
 20
144.320562
 30
0.0
 11
63.841409
 21
119.377037
 31
0.0
  0
LINE
  5
44C
100
AcDbEntity
  8
レイヤー_2
 62
     7
100
AcDbLine
 10
63.216469
 20
119.314336
 30
0.0
 11
63.216469
 21
144.379473
 31
0.0
  0
LINE
  5
44B
100
AcDbEntity
  8
レイヤー_2
 62
     7
100
AcDbLine
 10
63.216469
 20
148.226611
 30
0.0
 11
63.216469
 21
158.257007
 31
0.0
  0
LINE
  5
44A
100
AcDbEntity
  8
レイヤー_2
 62
     7
100
AcDbLine
 10
60.716707
 20
158.257007
 30
0.0
 11
60.716707
 21
148.226611
 31
0.0
  0
LINE
  5
449
100
AcDbEntity
  8
レイヤー_2
 62
     7
100
AcDbLine
 10
60.716707
 20
146.977075
 30
0.0
 11
60.716707
 21
119.412522
 31
0.0
  0
LINE
  5
448
100
AcDbEntity
  8
レイヤー_2
 62
     7
100
AcDbLine
 10
59.316276
 20
159.007349
 30
0.0
 11
59.316276
 21
158.257007
 31
0.0
  0
LINE
  5
447
100
AcDbEntity
  8
レイヤー_2
 62
     7
100
AcDbLine
 10
67.741602
 20
158.257007
 30
0.0
 11
67.741602
 21
159.007349
 31
0.0
  0
LINE
  5
446
100
AcDbEntity
  8
レイヤー_2
 62
     7
100
AcDbLine
 10
69.50928
 20
228.607924
 30
0.0
 11
69.353217
 21
239.773134
 31
0.0
  0
LINE
  5
445
100
AcDbEntity
  8
レイヤー_2
 62
     7
100
AcDbLine
 10
57.791821
 20
239.773134
 30
0.0
 11
57.636103
 21
228.607924
 31
0.0
  0
SPLINE
  5
444
100
AcDbEntity
  8
レイヤー_2
 62
     7
100
AcDbSpline
210
0.0
220
0.0
230
1.0
 70
     8
 71
     3
 72
     8
 73
     4
 74
     0
 42
0.00000001
 43
0.00000001
 40
0.0
 40
0.0
 40
0.0
 40
0.0
 40
1.0
 40
1.0
 40
1.0
 40
1.0
 10
69.509280056423606
 20
228.60723470052082
 30
0.0
 10
69.509280056423606
 20
228.60723470052082
 30
0.0
 10
69.509280056423606
 20
228.60757921006942
 30
0.0
 10
69.509280056423606
 20
228.60792371961804
 30
0.0
  0
SPLINE
  5
443
100
AcDbEntity
  8
レイヤー_2
 62
     7
100
AcDbSpline
210
0.0
220
0.0
230
1.0
 70
     8
 71
     3
 72
     8
 73
     4
 74
     0
 42
0.00000001
 43
0.00000001
 40
0.0
 40
0.0
 40
0.0
 40
0.0
 40
1.0
 40
1.0
 40
1.0
 40
1.0
 10
69.434176974826386
 20
228.53282063802081
 30
0.0
 10
69.475518120659714
 20
228.53282063802081
 30
0.0
 10
69.509280056423606
 20
228.5662380642361
 30
0.0
 10
69.509280056423606
 20
228.60723470052082
 30
0.0
  0
SPLINE
  5
442
100
AcDbEntity
  8
レイヤー_2
 62
     7
100
AcDbSpline
210
0.0
220
0.0
230
1.0
 70
     8
 71
     3
 72
    11
 73
     7
 74
     0
 42
0.00000001
 43
0.00000001
 40
0.0
 40
0.0
 40
0.0
 40
0.0
 40
1.0
 40
1.0
 40
1.0
 40
2.0
 40
2.0
 40
2.0
 40
2.0
 10
57.636102973090274
 20
228.60792371961804
 30
0.0
 10
57.636102973090274
 20
228.60757921006942
 30
0.0
 10
57.636102973090274
 20
228.60757921006942
 30
0.0
 10
57.636102973090274
 20
228.60757921006942
 30
0.0
 10
57.636102973090274
 20
228.5662380642361
 30
0.0
 10
57.669520399305547
 20
228.53282063802081
 30
0.0
 10
57.711550564236106
 20
228.53213161892359
 30
0.0
  0
LINE
  5
441
100
AcDbEntity
  8
レイヤー_2
 62
     7
100
AcDbLine
 10
58.028844
 20
228.38227
 30
0.0
 11
58.028844
 21
227.757674
 31
0.0
  0
LINE
  5
440
100
AcDbEntity
  8
レイヤー_2
 62
     7
100
AcDbLine
 10
69.029034
 20
227.757674
 30
0.0
 11
69.029034
 21
228.38227
 31
0.0
  0
LINE
  5
43F
100
AcDbEntity
  8
レイヤー_2
 62
     7
100
AcDbLine
 10
58.081898
 20
228.532132
 30
0.0
 11
58.028844
 21
228.38227
 31
0.0
  0
LINE
  5
43E
100
AcDbEntity
  8
レイヤー_2
 62
     7
100
AcDbLine
 10
69.029034
 20
228.38227
 30
0.0
 11
68.976324
 21
228.532132
 31
0.0
  0
LINE
  5
43D
100
AcDbEntity
  8
レイヤー_2
 62
     7
100
AcDbLine
 10
66.805225
 20
221.305355
 30
0.0
 11
67.280992
 21
221.305355
 31
0.0
  0
LINE
  5
43C
100
AcDbEntity
  8
レイヤー_2
 62
     7
100
AcDbLine
 10
59.776885
 20
221.305355
 30
0.0
 11
60.252653
 21
221.305355
 31
0.0
  0
LINE
  5
43B
100
AcDbEntity
  8
レイヤー_2
 62
     7
100
AcDbLine
 10
65.876427
 20
221.305355
 30
0.0
 11
66.288116
 21
221.305355
 31
0.0
  0
LINE
  5
43A
100
AcDbEntity
  8
レイヤー_2
 62
     7
100
AcDbLine
 10
64.483919
 20
221.305355
 30
0.0
 11
64.895608
 21
221.305355
 31
0.0
  0
LINE
  5
439
100
AcDbEntity
  8
レイヤー_2
 62
     7
100
AcDbLine
 10
60.769762
 20
221.305355
 30
0.0
 11
61.181106
 21
221.305355
 31
0.0
  0
LINE
  5
438
100
AcDbEntity
  8
レイヤー_2
 62
     7
100
AcDbLine
 10
63.091067
 20
221.305355
 30
0.0
 11
63.503101
 21
221.305355
 31
0.0
  0
LINE
  5
437
100
AcDbEntity
  8
レイヤー_2
 62
     7
100
AcDbLine
 10
61.697871
 20
221.305355
 30
0.0
 11
62.110248
 21
221.305355
 31
0.0
  0
LINE
  5
436
100
AcDbEntity
  8
レイヤー_2
 62
     7
100
AcDbLine
 10
60.305363
 20
221.305355
 30
0.0
 11
60.717052
 21
221.305355
 31
0.0
  0
LINE
  5
435
100
AcDbEntity
  8
レイヤー_2
 62
     7
100
AcDbLine
 10
63.555466
 20
221.305355
 30
0.0
 11
63.967499
 21
221.305355
 31
0.0
  0
LINE
  5
434
100
AcDbEntity
  8
レイヤー_2
 62
     7
100
AcDbLine
 10
66.340826
 20
221.305355
 30
0.0
 11
66.752515
 21
221.305355
 31
0.0
  0
LINE
  5
433
100
AcDbEntity
  8
レイヤー_2
 62
     7
100
AcDbLine
 10
61.233127
 20
221.305355
 30
0.0
 11
61.64585
 21
221.305355
 31
0.0
  0
LINE
  5
432
100
AcDbEntity
  8
レイヤー_2
 62
     7
100
AcDbLine
 10
64.01952
 20
221.305355
 30
0.0
 11
64.431898
 21
221.305355
 31
0.0
  0
LINE
  5
431
100
AcDbEntity
  8
レイヤー_2
 62
     7
100
AcDbLine
 10
62.626324
 20
221.305355
 30
0.0
 11
63.039046
 21
221.305355
 31
0.0
  0
LINE
  5
430
100
AcDbEntity
  8
レイヤー_2
 62
     7
100
AcDbLine
 10
62.162269
 20
221.305355
 30
0.0
 11
62.574647
 21
221.305355
 31
0.0
  0
LINE
  5
42F
100
AcDbEntity
  8
レイヤー_2
 62
     7
100
AcDbLine
 10
64.947974
 20
221.305355
 30
0.0
 11
65.360007
 21
221.305355
 31
0.0
  0
LINE
  5
42E
100
AcDbEntity
  8
レイヤー_2
 62
     7
100
AcDbLine
 10
65.412373
 20
221.305355
 30
0.0
 11
65.824406
 21
221.305355
 31
0.0
  0
LINE
  5
42D
100
AcDbEntity
  8
レイヤー_2
 62
     7
100
AcDbLine
 10
66.340826
 20
221.032503
 30
0.0
 11
66.752515
 21
221.032503
 31
0.0
  0
LINE
  5
42C
100
AcDbEntity
  8
レイヤー_2
 62
     7
100
AcDbLine
 10
64.01952
 20
221.032503
 30
0.0
 11
64.431898
 21
221.032503
 31
0.0
  0
LINE
  5
42B
100
AcDbEntity
  8
レイヤー_2
 62
     7
100
AcDbLine
 10
65.876427
 20
221.032503
 30
0.0
 11
66.288116
 21
221.032503
 31
0.0
  0
LINE
  5
42A
100
AcDbEntity
  8
レイヤー_2
 62
     7
100
AcDbLine
 10
63.555466
 20
221.032503
 30
0.0
 11
63.967499
 21
221.032503
 31
0.0
  0
LINE
  5
429
100
AcDbEntity
  8
レイヤー_2
 62
     7
100
AcDbLine
 10
63.091067
 20
221.032503
 30
0.0
 11
63.503101
 21
221.032503
 31
0.0
  0
LINE
  5
428
100
AcDbEntity
  8
レイヤー_2
 62
     7
100
AcDbLine
 10
60.305363
 20
221.032503
 30
0.0
 11
60.717052
 21
221.032503
 31
0.0
  0
LINE
  5
427
100
AcDbEntity
  8
レイヤー_2
 62
     7
100
AcDbLine
 10
64.947974
 20
221.032503
 30
0.0
 11
65.360007
 21
221.032503
 31
0.0
  0
LINE
  5
426
100
AcDbEntity
  8
レイヤー_2
 62
     7
100
AcDbLine
 10
61.697871
 20
221.032503
 30
0.0
 11
62.110248
 21
221.032503
 31
0.0
  0
LINE
  5
425
100
AcDbEntity
  8
レイヤー_2
 62
     7
100
AcDbLine
 10
61.233127
 20
221.032503
 30
0.0
 11
61.64585
 21
221.032503
 31
0.0
  0
LINE
  5
424
100
AcDbEntity
  8
レイヤー_2
 62
     7
100
AcDbLine
 10
65.412373
 20
221.032503
 30
0.0
 11
65.824406
 21
221.032503
 31
0.0
  0
LINE
  5
423
100
AcDbEntity
  8
レイヤー_2
 62
     7
100
AcDbLine
 10
62.626324
 20
221.032503
 30
0.0
 11
63.039046
 21
221.032503
 31
0.0
  0
LINE
  5
422
100
AcDbEntity
  8
レイヤー_2
 62
     7
100
AcDbLine
 10
66.805225
 20
221.032503
 30
0.0
 11
67.34197
 21
221.032503
 31
0.0
  0
LINE
  5
421
100
AcDbEntity
  8
レイヤー_2
 62
     7
100
AcDbLine
 10
60.769762
 20
221.032503
 30
0.0
 11
61.181106
 21
221.032503
 31
0.0
  0
LINE
  5
420
100
AcDbEntity
  8
レイヤー_2
 62
     7
100
AcDbLine
 10
59.716941
 20
221.032503
 30
0.0
 11
60.252653
 21
221.032503
 31
0.0
  0
LINE
  5
41F
100
AcDbEntity
  8
レイヤー_2
 62
     7
100
AcDbLine
 10
64.483919
 20
221.032503
 30
0.0
 11
64.895608
 21
221.032503
 31
0.0
  0
LINE
  5
41E
100
AcDbEntity
  8
レイヤー_2
 62
     7
100
AcDbLine
 10
62.162269
 20
221.032503
 30
0.0
 11
62.574647
 21
221.032503
 31
0.0
  0
LINE
  5
41D
100
AcDbEntity
  8
レイヤー_2
 62
     7
100
AcDbLine
 10
59.716941
 20
220.760341
 30
0.0
 11
60.252653
 21
220.760341
 31
0.0
  0
LINE
  5
41C
100
AcDbEntity
  8
レイヤー_2
 62
     7
100
AcDbLine
 10
66.805225
 20
220.760341
 30
0.0
 11
67.34197
 21
220.760341
 31
0.0
  0
LINE
  5
41B
100
AcDbEntity
  8
レイヤー_2
 62
     7
100
AcDbLine
 10
60.769762
 20
220.760341
 30
0.0
 11
61.181106
 21
220.760341
 31
0.0
  0
LINE
  5
41A
100
AcDbEntity
  8
レイヤー_2
 62
     7
100
AcDbLine
 10
61.697871
 20
220.760341
 30
0.0
 11
62.110248
 21
220.760341
 31
0.0
  0
LINE
  5
419
100
AcDbEntity
  8
レイヤー_2
 62
     7
100
AcDbLine
 10
64.947974
 20
220.760341
 30
0.0
 11
65.360007
 21
220.760341
 31
0.0
  0
LINE
  5
418
100
AcDbEntity
  8
レイヤー_2
 62
     7
100
AcDbLine
 10
66.340826
 20
220.760341
 30
0.0
 11
66.752515
 21
220.760341
 31
0.0
  0
LINE
  5
417
100
AcDbEntity
  8
レイヤー_2
 62
     7
100
AcDbLine
 10
63.555466
 20
220.760341
 30
0.0
 11
63.967499
 21
220.760341
 31
0.0
  0
LINE
  5
416
100
AcDbEntity
  8
レイヤー_2
 62
     7
100
AcDbLine
 10
60.305363
 20
220.760341
 30
0.0
 11
60.717052
 21
220.760341
 31
0.0
  0
LINE
  5
415
100
AcDbEntity
  8
レイヤー_2
 62
     7
100
AcDbLine
 10
63.091067
 20
220.760341
 30
0.0
 11
63.503101
 21
220.760341
 31
0.0
  0
LINE
  5
414
100
AcDbEntity
  8
レイヤー_2
 62
     7
100
AcDbLine
 10
62.626324
 20
220.760341
 30
0.0
 11
63.039046
 21
220.760341
 31
0.0
  0
LINE
  5
413
100
AcDbEntity
  8
レイヤー_2
 62
     7
100
AcDbLine
 10
64.483919
 20
220.760341
 30
0.0
 11
64.895608
 21
220.760341
 31
0.0
  0
LINE
  5
412
100
AcDbEntity
  8
レイヤー_2
 62
     7
100
AcDbLine
 10
64.01952
 20
220.760341
 30
0.0
 11
64.431898
 21
220.760341
 31
0.0
  0
LINE
  5
411
100
AcDbEntity
  8
レイヤー_2
 62
     7
100
AcDbLine
 10
65.412373
 20
220.760341
 30
0.0
 11
65.824406
 21
220.760341
 31
0.0
  0
LINE
  5
410
100
AcDbEntity
  8
レイヤー_2
 62
     7
100
AcDbLine
 10
62.162269
 20
220.760341
 30
0.0
 11
62.574647
 21
220.760341
 31
0.0
  0
LINE
  5
40F
100
AcDbEntity
  8
レイヤー_2
 62
     7
100
AcDbLine
 10
61.233127
 20
220.760341
 30
0.0
 11
61.64585
 21
220.760341
 31
0.0
  0
LINE
  5
40E
100
AcDbEntity
  8
レイヤー_2
 62
     7
100
AcDbLine
 10
65.876427
 20
220.760341
 30
0.0
 11
66.288116
 21
220.760341
 31
0.0
  0
SPLINE
  5
40D
100
AcDbEntity
  8
レイヤー_2
 62
     7
100
AcDbSpline
210
0.0
220
0.0
230
1.0
 70
     8
 71
     3
 72
    14
 73
    10
 74
     0
 42
0.00000001
 43
0.00000001
 40
0.0
 40
0.0
 40
0.0
 40
0.0
 40
1.0
 40
1.0
 40
1.0
 40
2.0
 40
2.0
 40
2.0
 40
3.0
 40
3.0
 40
3.0
 40
3.0
 10
58.975900607638884
 20
219.45947265624997
 30
0.0
 10
59.755870225694437
 20
219.4505154079861
 30
0.0
 10
60.535495334201386
 20
219.44155815972221
 30
0.0
 10
61.315464952256939
 20
219.43570149739583
 30
0.0
 10
62.795822482638883
 20
219.42364366319441
 30
0.0
 10
64.277558051215266
 20
219.42364366319441
 30
0.0
 10
65.75860460069444
 20
219.43570149739583
 30
0.0
 10
66.533406575520829
 20
219.44155815972221
 30
0.0
 10
67.307519531249994
 20
219.4505154079861
 30
0.0
 10
68.081287977430549
 20
219.45947265624997
 30
0.0
  0
SPLINE
  5
40C
100
AcDbEntity
  8
レイヤー_2
 62
     7
100
AcDbSpline
210
0.0
220
0.0
230
1.0
 70
     8
 71
     3
 72
     8
 73
     4
 74
     0
 42
0.00000001
 43
0.00000001
 40
0.0
 40
0.0
 40
0.0
 40
0.0
 40
1.0
 40
1.0
 40
1.0
 40
1.0
 10
68.081287977430549
 20
219.45947265624997
 30
0.0
 10
68.191531032986106
 20
219.46153971354164
 30
0.0
 10
68.278691948784711
 20
219.5504231770833
 30
0.0
 10
68.278691948784711
 20
219.65963270399303
 30
0.0
  0
SPLINE
  5
40B
100
AcDbEntity
  8
レイヤー_2
 62
     7
100
AcDbSpline
210
0.0
220
0.0
230
1.0
 70
     8
 71
     3
 72
     8
 73
     4
 74
     0
 42
0.00000001
 43
0.00000001
 40
0.0
 40
0.0
 40
0.0
 40
0.0
 40
1.0
 40
1.0
 40
1.0
 40
1.0
 10
58.778841145833326
 20
219.65963270399303
 30
0.0
 10
58.778841145833326
 20
219.5504231770833
 30
0.0
 10
58.867035590277773
 20
219.46153971354164
 30
0.0
 10
58.975900607638884
 20
219.45947265624997
 30
0.0
  0
LINE
  5
40A
100
AcDbEntity
  8
レイヤー_2
 62
     7
100
AcDbLine
 10
69.379055
 20
201.50708
 30
0.0
 11
69.379055
 21
227.682227
 31
0.0
  0
LINE
  5
409
100
AcDbEntity
  8
レイヤー_2
 62
     7
100
AcDbLine
 10
57.678822
 20
227.682227
 30
0.0
 11
57.678822
 21
201.50708
 31
0.0
  0
SPLINE
  5
408
100
AcDbEntity
  8
レイヤー_2
 62
     7
100
AcDbSpline
210
0.0
220
0.0
230
1.0
 70
     8
 71
     3
 72
     8
 73
     4
 74
     0
 42
0.00000001
 43
0.00000001
 40
0.0
 40
0.0
 40
0.0
 40
0.0
 40
1.0
 40
1.0
 40
1.0
 40
1.0
 10
57.753925238715276
 20
227.75767415364581
 30
0.0
 10
57.712239583333329
 20
227.75767415364581
 30
0.0
 10
57.678822157118049
 20
227.72322319878469
 30
0.0
 10
57.678822157118049
 20
227.68222656249998
 30
0.0
  0
SPLINE
  5
407
100
AcDbEntity
  8
レイヤー_2
 62
     7
100
AcDbSpline
210
0.0
220
0.0
230
1.0
 70
     8
 71
     3
 72
     8
 73
     4
 74
     0
 42
0.00000001
 43
0.00000001
 40
0.0
 40
0.0
 40
0.0
 40
0.0
 40
1.0
 40
1.0
 40
1.0
 40
1.0
 10
69.3790554470486
 20
227.68222656249998
 30
0.0
 10
69.3790554470486
 20
227.72322319878469
 30
0.0
 10
69.344949001736111
 20
227.75767415364581
 30
0.0
 10
69.30395236545138
 20
227.75767415364581
 30
0.0
  0
LINE
  5
406
100
AcDbEntity
  8
レイヤー_2
 62
     7
100
AcDbLine
 10
63.528939
 20
159.007349
 30
0.0
 11
69.379055
 21
159.007349
 31
0.0
  0
LINE
  5
405
100
AcDbEntity
  8
レイヤー_2
 62
     7
100
AcDbLine
 10
57.678822
 20
159.007349
 30
0.0
 11
63.528939
 21
159.007349
 31
0.0
  0
LINE
  5
404
100
AcDbEntity
  8
レイヤー_2
 62
     7
100
AcDbLine
 10
67.412939
 20
158.257007
 30
0.0
 11
67.741602
 21
158.257007
 31
0.0
  0
LINE
  5
403
100
AcDbEntity
  8
レイヤー_2
 62
     7
100
AcDbLine
 10
59.316276
 20
158.257007
 30
0.0
 11
67.412939
 21
158.257007
 31
0.0
  0
SPLINE
  5
402
100
AcDbEntity
  8
レイヤー_2
 62
     7
100
AcDbSpline
210
0.0
220
0.0
230
1.0
 70
     8
 71
     3
 72
     8
 73
     4
 74
     0
 42
0.00000001
 43
0.00000001
 40
0.0
 40
0.0
 40
0.0
 40
0.0
 40
1.0
 40
1.0
 40
1.0
 40
1.0
 10
62.89469672309027
 20
240.03151584201387
 30
0.0
 10
62.785142686631936
 20
240.03082682291665
 30
0.0
 10
62.696603732638884
 20
239.94332139756943
 30
0.0
 10
62.694881184895827
 20
239.83445638020831
 30
0.0
  0
LINE
  5
401
100
AcDbEntity
  8
レイヤー_2
 62
     7
100
AcDbLine
 10
64.250686
 20
240.031516
 30
0.0
 11
62.894697
 21
240.031516
 31
0.0
  0
LINE
  5
400
100
AcDbEntity
  8
レイヤー_2
 62
     7
100
AcDbLine
 10
64.450157
 20
239.834456
 30
0.0
 11
64.507346
 21
235.734793
 31
0.0
  0
LINE
  5
3FF
100
AcDbEntity
  8
レイヤー_2
 62
     7
100
AcDbLine
 10
62.638382
 20
235.734793
 30
0.0
 11
62.694881
 21
239.834456
 31
0.0
  0
SPLINE
  5
3FE
100
AcDbEntity
  8
レイヤー_2
 62
     7
100
AcDbSpline
210
0.0
220
0.0
230
1.0
 70
     8
 71
     3
 72
    11
 73
     7
 74
     0
 42
0.00000001
 43
0.00000001
 40
0.0
 40
0.0
 40
0.0
 40
0.0
 40
1.0
 40
1.0
 40
1.0
 40
2.0
 40
2.0
 40
2.0
 40
2.0
 10
62.638381618923603
 20
235.73479275173608
 30
0.0
 10
62.638381618923603
 20
235.73410373263886
 30
0.0
 10
62.63769259982638
 20
235.73307020399304
 30
0.0
 10
62.63769259982638
 20
235.73238118489581
 30
0.0
 10
62.63769259982638
 20
235.62213812934024
 30
0.0
 10
62.727265082465273
 20
235.53222113715276
 30
0.0
 10
62.838197157118053
 20
235.53222113715276
 30
0.0
  0
SPLINE
  5
3FD
100
AcDbEntity
  8
レイヤー_2
 62
     7
100
AcDbSpline
210
0.0
220
0.0
230
1.0
 70
     8
 71
     3
 72
     8
 73
     4
 74
     0
 42
0.00000001
 43
0.00000001
 40
0.0
 40
0.0
 40
0.0
 40
0.0
 40
1.0
 40
1.0
 40
1.0
 40
1.0
 10
64.450157335069434
 20
239.83445638020831
 30
0.0
 10
64.448434787326377
 20
239.94366590711803
 30
0.0
 10
64.359895833333326
 20
240.03082682291665
 30
0.0
 10
64.250686306423603
 20
240.03151584201387
 30
0.0
  0
SPLINE
  5
3FC
100
AcDbEntity
  8
レイヤー_2
 62
     7
100
AcDbSpline
210
0.0
220
0.0
230
1.0
 70
     8
 71
     3
 72
     8
 73
     4
 74
     0
 42
0.00000001
 43
0.00000001
 40
0.0
 40
0.0
 40
0.0
 40
0.0
 40
1.0
 40
1.0
 40
1.0
 40
1.0
 10
64.507345920138889
 20
235.73238118489581
 30
0.0
 10
64.507345920138889
 20
235.73307020399304
 30
0.0
 10
64.507345920138889
 20
235.73479275173608
 30
0.0
 10
64.507345920138889
 20
235.73479275173608
 30
0.0
  0
SPLINE
  5
3FB
100
AcDbEntity
  8
レイヤー_2
 62
     7
100
AcDbSpline
210
0.0
220
0.0
230
1.0
 70
     8
 71
     3
 72
     8
 73
     4
 74
     0
 42
0.00000001
 43
0.00000001
 40
0.0
 40
0.0
 40
0.0
 40
0.0
 40
1.0
 40
1.0
 40
1.0
 40
1.0
 10
64.307530381944431
 20
235.53222113715276
 30
0.0
 10
64.417428927951377
 20
235.53222113715276
 30
0.0
 10
64.507345920138889
 20
235.62213812934024
 30
0.0
 10
64.507345920138889
 20
235.73238118489581
 30
0.0
  0
LINE
  5
3FA
100
AcDbEntity
  8
レイヤー_2
 62
     7
100
AcDbLine
 10
64.30753
 20
235.532221
 30
0.0
 11
62.838197
 21
235.532221
 31
0.0
  0
SPLINE
  5
3F9
100
AcDbEntity
  8
レイヤー_2
 62
     7
100
AcDbSpline
210
0.0
220
0.0
230
1.0
 70
     8
 71
     3
 72
     8
 73
     4
 74
     0
 42
0.00000001
 43
0.00000001
 40
0.0
 40
0.0
 40
0.0
 40
0.0
 40
1.0
 40
1.0
 40
1.0
 40
1.0
 10
57.987158203124991
 20
239.96984863281247
 30
0.0
 10
57.880015733506937
 20
239.96743706597221
 30
0.0
 10
57.793543836805547
 20
239.87958713107636
 30
0.0
 10
57.791821289062497
 20
239.77313368055553
 30
0.0
  0
SPLINE
  5
3F8
100
AcDbEntity
  8
レイヤー_2
 62
     7
100
AcDbSpline
210
0.0
220
0.0
230
1.0
 70
     8
 71
     3
 72
    32
 73
    28
 74
     0
 42
0.00000001
 43
0.00000001
 40
0.0
 40
0.0
 40
0.0
 40
0.0
 40
1.0
 40
1.0
 40
1.0
 40
2.0
 40
2.0
 40
2.0
 40
3.0
 40
3.0
 40
3.0
 40
4.0
 40
4.0
 40
4.0
 40
5.0
 40
5.0
 40
5.0
 40
6.0
 40
6.0
 40
6.0
 40
7.0
 40
7.0
 40
7.0
 40
8.0
 40
8.0
 40
8.0
 40
9.0
 40
9.0
 40
9.0
 40
9.0
 10
57.987158203124991
 20
239.96984863281247
 30
0.0
 10
58.003694661458326
 20
239.97053765190969
 30
0.0
 10
58.018508572048603
 20
239.97053765190969
 30
0.0
 10
58.067428927951383
 20
239.97157118055554
 30
0.0
 10
58.11566026475694
 20
239.97226019965277
 30
0.0
 10
58.196964518229159
 20
239.97467176649303
 30
0.0
 10
58.302384440104163
 20
239.9767388237847
 30
0.0
 10
58.407115342881937
 20
239.97915039062497
 30
0.0
 10
58.535617404513886
 20
239.98156195746526
 30
0.0
 10
58.687546115451383
 20
239.98466254340275
 30
0.0
 10
58.839819335937491
 20
239.98776312934027
 30
0.0
 10
59.014485677083329
 20
239.99086371527775
 30
0.0
 10
59.210511610243053
 20
239.99430881076387
 30
0.0
 10
59.406882052951381
 20
239.99775390624998
 30
0.0
 10
59.62357855902777
 20
240.0011990017361
 30
0.0
 10
59.858189561631939
 20
240.00464409722221
 30
0.0
 10
60.092800564236107
 20
240.00843370225692
 30
0.0
 10
60.344981553819437
 20
240.01118977864581
 30
0.0
 10
60.610598415798606
 20
240.01463487413193
 30
0.0
 10
60.876904296874997
 20
240.01807996961804
 30
0.0
 10
61.157679578993047
 20
240.02049153645831
 30
0.0
 10
61.447756618923606
 20
240.0235921223958
 30
0.0
 10
61.738178168402769
 20
240.02565917968747
 30
0.0
 10
62.038245985243051
 20
240.02738172743054
 30
0.0
 10
62.344859483506937
 20
240.02910427517358
 30
0.0
 10
62.418584526909719
 20
240.02944878472221
 30
0.0
 10
62.492309570312493
 20
240.03013780381943
 30
0.0
 10
62.566723632812497
 20
240.03013780381943
 30
0.0
  0
SPLINE
  5
3F7
100
AcDbEntity
  8
レイヤー_2
 62
     7
100
AcDbSpline
210
0.0
220
0.0
230
1.0
 70
     8
 71
     3
 72
     8
 73
     4
 74
     0
 42
0.00000001
 43
0.00000001
 40
0.0
 40
0.0
 40
0.0
 40
0.0
 40
1.0
 40
1.0
 40
1.0
 40
1.0
 10
69.353217230902771
 20
239.77313368055553
 30
0.0
 10
69.351494683159714
 20
239.88096516927081
 30
0.0
 10
69.265022786458331
 20
239.96743706597221
 30
0.0
 10
69.157880316840277
 20
239.96984863281247
 30
0.0
  0
SPLINE
  5
3F6
100
AcDbEntity
  8
レイヤー_2
 62
     7
100
AcDbSpline
210
0.0
220
0.0
230
1.0
 70
     8
 71
     3
 72
    32
 73
    28
 74
     0
 42
0.00000001
 43
0.00000001
 40
0.0
 40
0.0
 40
0.0
 40
0.0
 40
1.0
 40
1.0
 40
1.0
 40
2.0
 40
2.0
 40
2.0
 40
3.0
 40
3.0
 40
3.0
 40
4.0
 40
4.0
 40
4.0
 40
5.0
 40
5.0
 40
5.0
 40
6.0
 40
6.0
 40
6.0
 40
7.0
 40
7.0
 40
7.0
 40
8.0
 40
8.0
 40
8.0
 40
9.0
 40
9.0
 40
9.0
 40
9.0
 10
64.578314887152771
 20
240.03013780381943
 30
0.0
 10
64.652384440104157
 20
240.03013780381943
 30
0.0
 10
64.726109483506931
 20
240.02944878472221
 30
0.0
 10
64.79983452690972
 20
240.02910427517358
 30
0.0
 10
65.106103515624994
 20
240.02738172743054
 30
0.0
 10
65.406515842013889
 20
240.02565917968747
 30
0.0
 10
65.697281901041663
 20
240.0235921223958
 30
0.0
 10
65.987703450520826
 20
240.02049153645831
 30
0.0
 10
66.268478732638883
 20
240.01807996961804
 30
0.0
 10
66.534095594618051
 20
240.01463487413193
 30
0.0
 10
66.800056966145831
 20
240.01118977864581
 30
0.0
 10
67.052237955729154
 20
240.00843370225692
 30
0.0
 10
67.286848958333323
 20
240.00464409722221
 30
0.0
 10
67.52111545138888
 20
240.0011990017361
 30
0.0
 10
67.73815646701388
 20
239.99775390624998
 30
0.0
 10
67.934182400173611
 20
239.99430881076387
 30
0.0
 10
68.130208333333329
 20
239.99086371527775
 30
0.0
 10
68.305908203125
 20
239.98776312934027
 30
0.0
 10
68.457492404513886
 20
239.98466254340275
 30
0.0
 10
68.609076605902771
 20
239.98156195746526
 30
0.0
 10
68.737923177083331
 20
239.97915039062497
 30
0.0
 10
68.842998589409717
 20
239.9767388237847
 30
0.0
 10
68.948074001736103
 20
239.97467176649303
 30
0.0
 10
69.029378255208329
 20
239.97226019965277
 30
0.0
 10
69.077954101562497
 20
239.97157118055554
 30
0.0
 10
69.126529947916666
 20
239.97053765190969
 30
0.0
 10
69.141343858506943
 20
239.97053765190969
 30
0.0
 10
69.157880316840277
 20
239.96984863281247
 30
0.0
  0
LINE
  5
3F5
100
AcDbEntity
  8
レイヤー_2
 62
     7
100
AcDbLine
 10
69.434177
 20
228.532132
 30
0.0
 11
57.711551
 21
228.532132
 31
0.0
  0
SPLINE
  5
3F4
100
AcDbEntity
  8
レイヤー_2
 62
     7
100
AcDbSpline
210
0.0
220
0.0
230
1.0
 70
     8
 71
     3
 72
    20
 73
    16
 74
     0
 42
0.00000001
 43
0.00000001
 40
0.0
 40
0.0
 40
0.0
 40
0.0
 40
1.0
 40
1.0
 40
1.0
 40
2.0
 40
2.0
 40
2.0
 40
3.0
 40
3.0
 40
3.0
 40
4.0
 40
4.0
 40
4.0
 40
5.0
 40
5.0
 40
5.0
 40
5.0
 10
64.578314887152771
 20
240.03013780381943
 30
0.0
 10
64.578314887152771
 20
240.03013780381943
 30
0.0
 10
64.562811957465271
 20
240.03013780381943
 30
0.0
 10
64.562811957465271
 20
240.03013780381943
 30
0.0
 10
64.519059244791663
 20
240.03082682291665
 30
0.0
 10
64.476340060763889
 20
240.03082682291665
 30
0.0
 10
64.438788519965271
 20
240.03082682291665
 30
0.0
 10
64.400203450520834
 20
240.03082682291665
 30
0.0
 10
64.366441514756943
 20
240.03082682291665
 30
0.0
 10
64.337847222222223
 20
240.03151584201387
 30
0.0
 10
64.3095974392361
 20
240.03151584201387
 30
0.0
 10
64.286859809027774
 20
240.03151584201387
 30
0.0
 10
64.273079427083331
 20
240.03151584201387
 30
0.0
 10
64.2596435546875
 20
240.03151584201387
 30
0.0
 10
64.250686306423603
 20
240.03151584201387
 30
0.0
 10
64.250686306423603
 20
240.03151584201387
 30
0.0
  0
SPLINE
  5
3F3
100
AcDbEntity
  8
レイヤー_2
 62
     7
100
AcDbSpline
210
0.0
220
0.0
230
1.0
 70
     8
 71
     3
 72
    20
 73
    16
 74
     0
 42
0.00000001
 43
0.00000001
 40
0.0
 40
0.0
 40
0.0
 40
0.0
 40
1.0
 40
1.0
 40
1.0
 40
2.0
 40
2.0
 40
2.0
 40
3.0
 40
3.0
 40
3.0
 40
4.0
 40
4.0
 40
4.0
 40
5.0
 40
5.0
 40
5.0
 40
5.0
 10
62.89469672309027
 20
240.03151584201387
 30
0.0
 10
62.89469672309027
 20
240.03151584201387
 30
0.0
 10
62.894352213541659
 20
240.03151584201387
 30
0.0
 10
62.894352213541659
 20
240.03151584201387
 30
0.0
 10
62.894352213541659
 20
240.03151584201387
 30
0.0
 10
62.882983398437496
 20
240.03151584201387
 30
0.0
 10
62.866446940104161
 20
240.03151584201387
 30
0.0
 10
62.849910481770827
 20
240.03151584201387
 30
0.0
 10
62.825794813368049
 20
240.03151584201387
 30
0.0
 10
62.796166992187494
 20
240.03151584201387
 30
0.0
 10
62.766883680555551
 20
240.03082682291665
 30
0.0
 10
62.732088216145826
 20
240.03082682291665
 30
0.0
 10
62.692814127604159
 20
240.03082682291665
 30
0.0
 10
62.65319552951388
 20
240.03082682291665
 30
0.0
 10
62.609442816840271
 20
240.03082682291665
 30
0.0
 10
62.566723632812497
 20
240.03013780381943
 30
0.0
  0
LINE
  5
3F2
100
AcDbEntity
  8
レイヤー_2
 62
     7
100
AcDbLine
 10
60.32879
 20
220.298009
 30
0.0
 11
60.278836
 21
220.298009
 31
0.0
  0
LINE
  5
3F1
100
AcDbEntity
  8
レイヤー_2
 62
     7
100
AcDbLine
 10
60.32879
 20
220.450971
 30
0.0
 11
60.32879
 21
220.298009
 31
0.0
  0
LINE
  5
3F0
100
AcDbEntity
  8
レイヤー_2
 62
     7
100
AcDbLine
 10
66.728743
 20
220.450971
 30
0.0
 11
60.32879
 21
220.450971
 31
0.0
  0
LINE
  5
3EF
100
AcDbEntity
  8
レイヤー_2
 62
     7
100
AcDbLine
 10
66.728743
 20
220.450971
 30
0.0
 11
66.728743
 21
220.298009
 31
0.0
  0
LINE
  5
3EE
100
AcDbEntity
  8
レイヤー_2
 62
     7
100
AcDbLine
 10
66.778697
 20
220.298009
 30
0.0
 11
66.728743
 21
220.298009
 31
0.0
  0
SPLINE
  5
3ED
100
AcDbEntity
  8
レイヤー_2
 62
     7
100
AcDbSpline
210
0.0
220
0.0
230
1.0
 70
     8
 71
     3
 72
     8
 73
     4
 74
     0
 42
0.00000001
 43
0.00000001
 40
0.0
 40
0.0
 40
0.0
 40
0.0
 40
1.0
 40
1.0
 40
1.0
 40
1.0
 10
66.778697374131937
 20
220.29800889756942
 30
0.0
 10
67.052926974826377
 20
220.26665852864582
 30
0.0
 10
67.300284830729154
 20
220.45751681857638
 30
0.0
 10
67.341970486111109
 20
220.72899034288193
 30
0.0
  0
LINE
  5
3EC
100
AcDbEntity
  8
レイヤー_2
 62
     7
100
AcDbLine
 10
67.34197
 20
221.11174
 30
0.0
 11
67.34197
 21
220.72899
 31
0.0
  0
SPLINE
  5
3EB
100
AcDbEntity
  8
レイヤー_2
 62
     7
100
AcDbSpline
210
0.0
220
0.0
230
1.0
 70
     8
 71
     3
 72
     8
 73
     4
 74
     0
 42
0.00000001
 43
0.00000001
 40
0.0
 40
0.0
 40
0.0
 40
0.0
 40
1.0
 40
1.0
 40
1.0
 40
1.0
 10
67.341970486111109
 20
221.11174045138887
 30
0.0
 10
67.338525390624994
 20
221.21750488281248
 30
0.0
 10
67.293050130208329
 20
221.31155598958333
 30
0.0
 10
67.221736653645834
 20
221.37839084201386
 30
0.0
  0
SPLINE
  5
3EA
100
AcDbEntity
  8
レイヤー_2
 62
     7
100
AcDbSpline
210
0.0
220
0.0
230
1.0
 70
     8
 71
     3
 72
     8
 73
     4
 74
     0
 42
0.00000001
 43
0.00000001
 40
0.0
 40
0.0
 40
0.0
 40
0.0
 40
1.0
 40
1.0
 40
1.0
 40
1.0
 10
59.837174479166663
 20
221.37839084201386
 30
0.0
 10
59.759659830729163
 20
221.30638834635414
 30
0.0
 10
59.719352213541661
 20
221.20992567274303
 30
0.0
 10
59.716940646701381
 20
221.11174045138887
 30
0.0
  0
LINE
  5
3E9
100
AcDbEntity
  8
レイヤー_2
 62
     7
100
AcDbLine
 10
59.716941
 20
220.72899
 30
0.0
 11
59.716941
 21
221.11174
 31
0.0
  0
SPLINE
  5
3E8
100
AcDbEntity
  8
レイヤー_2
 62
     7
100
AcDbSpline
210
0.0
220
0.0
230
1.0
 70
     8
 71
     3
 72
     8
 73
     4
 74
     0
 42
0.00000001
 43
0.00000001
 40
0.0
 40
0.0
 40
0.0
 40
0.0
 40
1.0
 40
1.0
 40
1.0
 40
1.0
 10
59.716940646701381
 20
220.72899034288193
 30
0.0
 10
59.757592773437494
 20
220.45613878038193
 30
0.0
 10
60.006673177083329
 20
220.26665852864582
 30
0.0
 10
60.278835720486107
 20
220.29800889756942
 30
0.0
  0
LINE
  5
3E7
100
AcDbEntity
  8
レイヤー_2
 62
     7
100
AcDbLine
 10
66.591629
 20
220.336249
 30
0.0
 11
66.591629
 21
220.154004
 31
0.0
  0
LINE
  5
3E6
100
AcDbEntity
  8
レイヤー_2
 62
     7
100
AcDbLine
 10
66.591629
 20
220.336249
 30
0.0
 11
65.541908
 21
220.336249
 31
0.0
  0
LINE
  5
3E5
100
AcDbEntity
  8
レイヤー_2
 62
     7
100
AcDbLine
 10
65.541908
 20
220.154004
 30
0.0
 11
65.541908
 21
220.336249
 31
0.0
  0
LINE
  5
3E4
100
AcDbEntity
  8
レイヤー_2
 62
     7
100
AcDbLine
 10
65.541908
 20
220.154004
 30
0.0
 11
65.416162
 21
220.154004
 31
0.0
  0
LINE
  5
3E3
100
AcDbEntity
  8
レイヤー_2
 62
     7
100
AcDbLine
 10
65.416162
 20
220.336249
 30
0.0
 11
65.416162
 21
220.154004
 31
0.0
  0
LINE
  5
3E2
100
AcDbEntity
  8
レイヤー_2
 62
     7
100
AcDbLine
 10
65.416162
 20
220.336249
 30
0.0
 11
63.891707
 21
220.336249
 31
0.0
  0
LINE
  5
3E1
100
AcDbEntity
  8
レイヤー_2
 62
     7
100
AcDbLine
 10
63.891707
 20
220.154004
 30
0.0
 11
63.891707
 21
220.336249
 31
0.0
  0
LINE
  5
3E0
100
AcDbEntity
  8
レイヤー_2
 62
     7
100
AcDbLine
 10
63.891707
 20
220.154004
 30
0.0
 11
63.766306
 21
220.154004
 31
0.0
  0
LINE
  5
3DF
100
AcDbEntity
  8
レイヤー_2
 62
     7
100
AcDbLine
 10
63.766306
 20
220.336249
 30
0.0
 11
63.766306
 21
220.154004
 31
0.0
  0
LINE
  5
3DE
100
AcDbEntity
  8
レイヤー_2
 62
     7
100
AcDbLine
 10
63.766306
 20
220.336249
 30
0.0
 11
63.291572
 21
220.336249
 31
0.0
  0
LINE
  5
3DD
100
AcDbEntity
  8
レイヤー_2
 62
     7
100
AcDbLine
 10
63.291572
 20
220.154004
 30
0.0
 11
63.291572
 21
220.336249
 31
0.0
  0
LINE
  5
3DC
100
AcDbEntity
  8
レイヤー_2
 62
     7
100
AcDbLine
 10
63.291572
 20
220.154004
 30
0.0
 11
63.166515
 21
220.154004
 31
0.0
  0
LINE
  5
3DB
100
AcDbEntity
  8
レイヤー_2
 62
     7
100
AcDbLine
 10
63.166515
 20
220.336249
 30
0.0
 11
63.166515
 21
220.154004
 31
0.0
  0
LINE
  5
3DA
100
AcDbEntity
  8
レイヤー_2
 62
     7
100
AcDbLine
 10
63.166515
 20
220.336249
 30
0.0
 11
61.641371
 21
220.336249
 31
0.0
  0
LINE
  5
3D9
100
AcDbEntity
  8
レイヤー_2
 62
     7
100
AcDbLine
 10
61.641371
 20
220.154004
 30
0.0
 11
61.641371
 21
220.336249
 31
0.0
  0
LINE
  5
3D8
100
AcDbEntity
  8
レイヤー_2
 62
     7
100
AcDbLine
 10
61.641371
 20
220.154004
 30
0.0
 11
61.516659
 21
220.154004
 31
0.0
  0
LINE
  5
3D7
100
AcDbEntity
  8
レイヤー_2
 62
     7
100
AcDbLine
 10
61.516659
 20
220.336249
 30
0.0
 11
61.516659
 21
220.154004
 31
0.0
  0
LINE
  5
3D6
100
AcDbEntity
  8
レイヤー_2
 62
     7
100
AcDbLine
 10
61.516659
 20
220.336249
 30
0.0
 11
60.466938
 21
220.336249
 31
0.0
  0
LINE
  5
3D5
100
AcDbEntity
  8
レイヤー_2
 62
     7
100
AcDbLine
 10
60.466938
 20
220.154004
 30
0.0
 11
60.466938
 21
220.336249
 31
0.0
  0
LINE
  5
3D4
100
AcDbEntity
  8
レイヤー_2
 62
     7
100
AcDbLine
 10
60.466938
 20
220.154004
 30
0.0
 11
60.291238
 21
220.154004
 31
0.0
  0
LINE
  5
3D3
100
AcDbEntity
  8
レイヤー_2
 62
     7
100
AcDbLine
 10
60.291238
 20
220.182943
 30
0.0
 11
60.291238
 21
220.154004
 31
0.0
  0
SPLINE
  5
3D2
100
AcDbEntity
  8
レイヤー_2
 62
     7
100
AcDbSpline
210
0.0
220
0.0
230
1.0
 70
     8
 71
     3
 72
     8
 73
     4
 74
     0
 42
0.00000001
 43
0.00000001
 40
0.0
 40
0.0
 40
0.0
 40
0.0
 40
1.0
 40
1.0
 40
1.0
 40
1.0
 10
59.56638997395833
 20
220.72899034288193
 30
0.0
 10
59.620133463541663
 20
220.37965766059025
 30
0.0
 10
59.941905381944437
 20
220.13781195746526
 30
0.0
 10
60.291238064236104
 20
220.18294270833331
 30
0.0
  0
LINE
  5
3D1
100
AcDbEntity
  8
レイヤー_2
 62
     7
100
AcDbLine
 10
59.56639
 20
220.72899
 30
0.0
 11
59.56639
 21
221.091759
 31
0.0
  0
LINE
  5
3D0
100
AcDbEntity
  8
レイヤー_2
 62
     7
100
AcDbLine
 10
67.491488
 20
221.091759
 30
0.0
 11
67.491488
 21
220.72899
 31
0.0
  0
SPLINE
  5
3CF
100
AcDbEntity
  8
レイヤー_2
 62
     7
100
AcDbSpline
210
0.0
220
0.0
230
1.0
 70
     8
 71
     3
 72
     8
 73
     4
 74
     0
 42
0.00000001
 43
0.00000001
 40
0.0
 40
0.0
 40
0.0
 40
0.0
 40
1.0
 40
1.0
 40
1.0
 40
1.0
 10
66.766984049479163
 20
220.18294270833331
 30
0.0
 10
67.117005750868046
 20
220.13781195746526
 30
0.0
 10
67.438088650173611
 20
220.3810356987847
 30
0.0
 10
67.491487630208326
 20
220.72899034288193
 30
0.0
  0
LINE
  5
3CE
100
AcDbEntity
  8
レイヤー_2
 62
     7
100
AcDbLine
 10
66.766984
 20
220.154004
 30
0.0
 11
66.766984
 21
220.182943
 31
0.0
  0
LINE
  5
3CD
100
AcDbEntity
  8
レイヤー_2
 62
     7
100
AcDbLine
 10
66.766984
 20
220.154004
 30
0.0
 11
66.591629
 21
220.154004
 31
0.0
  0
LINE
  5
3CC
100
AcDbEntity
  8
レイヤー_2
 62
     7
100
AcDbLine
 10
62.600486
 20
221.317757
 30
0.0
 11
62.566724
 21
221.365988
 31
0.0
  0
LINE
  5
3CB
100
AcDbEntity
  8
レイヤー_2
 62
     7
100
AcDbLine
 10
62.566724
 20
221.365988
 30
0.0
 11
62.566724
 21
221.487256
 31
0.0
  0
LINE
  5
3CA
100
AcDbEntity
  8
レイヤー_2
 62
     7
100
AcDbLine
 10
62.634592
 20
221.365988
 30
0.0
 11
62.634592
 21
221.487256
 31
0.0
  0
LINE
  5
3C9
100
AcDbEntity
  8
レイヤー_2
 62
     7
100
AcDbLine
 10
62.634592
 20
221.365988
 30
0.0
 11
62.600486
 21
221.317757
 31
0.0
  0
LINE
  5
3C8
100
AcDbEntity
  8
レイヤー_2
 62
     7
100
AcDbLine
 10
61.672032
 20
221.317757
 30
0.0
 11
61.637926
 21
221.365988
 31
0.0
  0
LINE
  5
3C7
100
AcDbEntity
  8
レイヤー_2
 62
     7
100
AcDbLine
 10
61.637926
 20
221.365988
 30
0.0
 11
61.637926
 21
221.487256
 31
0.0
  0
LINE
  5
3C6
100
AcDbEntity
  8
レイヤー_2
 62
     7
100
AcDbLine
 10
61.706139
 20
221.365988
 30
0.0
 11
61.706139
 21
221.487256
 31
0.0
  0
LINE
  5
3C5
100
AcDbEntity
  8
レイヤー_2
 62
     7
100
AcDbLine
 10
61.706139
 20
221.365988
 30
0.0
 11
61.672032
 21
221.317757
 31
0.0
  0
LINE
  5
3C4
100
AcDbEntity
  8
レイヤー_2
 62
     7
100
AcDbLine
 10
63.528939
 20
221.317757
 30
0.0
 11
63.495177
 21
221.365988
 31
0.0
  0
LINE
  5
3C3
100
AcDbEntity
  8
レイヤー_2
 62
     7
100
AcDbLine
 10
63.495177
 20
221.365988
 30
0.0
 11
63.495177
 21
221.487256
 31
0.0
  0
LINE
  5
3C2
100
AcDbEntity
  8
レイヤー_2
 62
     7
100
AcDbLine
 10
63.563734
 20
221.365988
 30
0.0
 11
63.563734
 21
221.487256
 31
0.0
  0
LINE
  5
3C1
100
AcDbEntity
  8
レイヤー_2
 62
     7
100
AcDbLine
 10
63.563734
 20
221.365988
 30
0.0
 11
63.528939
 21
221.317757
 31
0.0
  0
LINE
  5
3C0
100
AcDbEntity
  8
レイヤー_2
 62
     7
100
AcDbLine
 10
61.207633
 20
221.317757
 30
0.0
 11
61.173527
 21
221.365988
 31
0.0
  0
LINE
  5
3BF
100
AcDbEntity
  8
レイヤー_2
 62
     7
100
AcDbLine
 10
61.173527
 20
221.365988
 30
0.0
 11
61.173527
 21
221.487256
 31
0.0
  0
LINE
  5
3BE
100
AcDbEntity
  8
レイヤー_2
 62
     7
100
AcDbLine
 10
61.242084
 20
221.365988
 30
0.0
 11
61.242084
 21
221.487256
 31
0.0
  0
LINE
  5
3BD
100
AcDbEntity
  8
レイヤー_2
 62
     7
100
AcDbLine
 10
61.242084
 20
221.365988
 30
0.0
 11
61.207633
 21
221.317757
 31
0.0
  0
LINE
  5
3BC
100
AcDbEntity
  8
レイヤー_2
 62
     7
100
AcDbLine
 10
63.993338
 20
221.317757
 30
0.0
 11
63.958887
 21
221.365988
 31
0.0
  0
LINE
  5
3BB
100
AcDbEntity
  8
レイヤー_2
 62
     7
100
AcDbLine
 10
63.958887
 20
221.365988
 30
0.0
 11
63.958887
 21
221.487256
 31
0.0
  0
LINE
  5
3BA
100
AcDbEntity
  8
レイヤー_2
 62
     7
100
AcDbLine
 10
64.028133
 20
221.365988
 30
0.0
 11
64.028133
 21
221.487256
 31
0.0
  0
LINE
  5
3B9
100
AcDbEntity
  8
レイヤー_2
 62
     7
100
AcDbLine
 10
64.028133
 20
221.365988
 30
0.0
 11
63.993338
 21
221.317757
 31
0.0
  0
LINE
  5
3B8
100
AcDbEntity
  8
レイヤー_2
 62
     7
100
AcDbLine
 10
66.314988
 20
221.317757
 30
0.0
 11
66.280881
 21
221.365988
 31
0.0
  0
LINE
  5
3B7
100
AcDbEntity
  8
レイヤー_2
 62
     7
100
AcDbLine
 10
66.280881
 20
221.365988
 30
0.0
 11
66.280881
 21
221.487256
 31
0.0
  0
LINE
  5
3B6
100
AcDbEntity
  8
レイヤー_2
 62
     7
100
AcDbLine
 10
66.348749
 20
221.365988
 30
0.0
 11
66.348749
 21
221.487256
 31
0.0
  0
LINE
  5
3B5
100
AcDbEntity
  8
レイヤー_2
 62
     7
100
AcDbLine
 10
66.348749
 20
221.365988
 30
0.0
 11
66.314988
 21
221.317757
 31
0.0
  0
LINE
  5
3B4
100
AcDbEntity
  8
レイヤー_2
 62
     7
100
AcDbLine
 10
65.850589
 20
221.317757
 30
0.0
 11
65.816482
 21
221.365988
 31
0.0
  0
LINE
  5
3B3
100
AcDbEntity
  8
レイヤー_2
 62
     7
100
AcDbLine
 10
65.816482
 20
221.365988
 30
0.0
 11
65.816482
 21
221.487256
 31
0.0
  0
LINE
  5
3B2
100
AcDbEntity
  8
レイヤー_2
 62
     7
100
AcDbLine
 10
65.884695
 20
221.365988
 30
0.0
 11
65.884695
 21
221.487256
 31
0.0
  0
LINE
  5
3B1
100
AcDbEntity
  8
レイヤー_2
 62
     7
100
AcDbLine
 10
65.884695
 20
221.365988
 30
0.0
 11
65.850589
 21
221.317757
 31
0.0
  0
LINE
  5
3B0
100
AcDbEntity
  8
レイヤー_2
 62
     7
100
AcDbLine
 10
65.386534
 20
221.317757
 30
0.0
 11
65.352083
 21
221.365988
 31
0.0
  0
LINE
  5
3AF
100
AcDbEntity
  8
レイヤー_2
 62
     7
100
AcDbLine
 10
65.352083
 20
221.365988
 30
0.0
 11
65.352083
 21
221.487256
 31
0.0
  0
LINE
  5
3AE
100
AcDbEntity
  8
レイヤー_2
 62
     7
100
AcDbLine
 10
65.420296
 20
221.365988
 30
0.0
 11
65.420296
 21
221.487256
 31
0.0
  0
LINE
  5
3AD
100
AcDbEntity
  8
レイヤー_2
 62
     7
100
AcDbLine
 10
65.420296
 20
221.365988
 30
0.0
 11
65.386534
 21
221.317757
 31
0.0
  0
LINE
  5
3AC
100
AcDbEntity
  8
レイヤー_2
 62
     7
100
AcDbLine
 10
66.778697
 20
221.317757
 30
0.0
 11
66.74528
 21
221.365988
 31
0.0
  0
LINE
  5
3AB
100
AcDbEntity
  8
レイヤー_2
 62
     7
100
AcDbLine
 10
66.74528
 20
221.365988
 30
0.0
 11
66.74528
 21
221.487256
 31
0.0
  0
LINE
  5
3AA
100
AcDbEntity
  8
レイヤー_2
 62
     7
100
AcDbLine
 10
66.813148
 20
221.365988
 30
0.0
 11
66.813148
 21
221.487256
 31
0.0
  0
LINE
  5
3A9
100
AcDbEntity
  8
レイヤー_2
 62
     7
100
AcDbLine
 10
66.813148
 20
221.365988
 30
0.0
 11
66.778697
 21
221.317757
 31
0.0
  0
LINE
  5
3A8
100
AcDbEntity
  8
レイヤー_2
 62
     7
100
AcDbLine
 10
64.457392
 20
221.317757
 30
0.0
 11
64.423286
 21
221.365988
 31
0.0
  0
LINE
  5
3A7
100
AcDbEntity
  8
レイヤー_2
 62
     7
100
AcDbLine
 10
64.423286
 20
221.365988
 30
0.0
 11
64.423286
 21
221.487256
 31
0.0
  0
LINE
  5
3A6
100
AcDbEntity
  8
レイヤー_2
 62
     7
100
AcDbLine
 10
64.491843
 20
221.365988
 30
0.0
 11
64.491843
 21
221.487256
 31
0.0
  0
LINE
  5
3A5
100
AcDbEntity
  8
レイヤー_2
 62
     7
100
AcDbLine
 10
64.491843
 20
221.365988
 30
0.0
 11
64.457392
 21
221.317757
 31
0.0
  0
LINE
  5
3A4
100
AcDbEntity
  8
レイヤー_2
 62
     7
100
AcDbLine
 10
60.278836
 20
221.317757
 30
0.0
 11
60.245074
 21
221.365988
 31
0.0
  0
LINE
  5
3A3
100
AcDbEntity
  8
レイヤー_2
 62
     7
100
AcDbLine
 10
60.245074
 20
221.365988
 30
0.0
 11
60.245074
 21
221.487256
 31
0.0
  0
LINE
  5
3A2
100
AcDbEntity
  8
レイヤー_2
 62
     7
100
AcDbLine
 10
60.313287
 20
221.365988
 30
0.0
 11
60.313287
 21
221.487256
 31
0.0
  0
LINE
  5
3A1
100
AcDbEntity
  8
レイヤー_2
 62
     7
100
AcDbLine
 10
60.313287
 20
221.365988
 30
0.0
 11
60.278836
 21
221.317757
 31
0.0
  0
LINE
  5
3A0
100
AcDbEntity
  8
レイヤー_2
 62
     7
100
AcDbLine
 10
60.743235
 20
221.317757
 30
0.0
 11
60.709128
 21
221.365988
 31
0.0
  0
LINE
  5
39F
100
AcDbEntity
  8
レイヤー_2
 62
     7
100
AcDbLine
 10
60.709128
 20
221.365988
 30
0.0
 11
60.709128
 21
221.487256
 31
0.0
  0
LINE
  5
39E
100
AcDbEntity
  8
レイヤー_2
 62
     7
100
AcDbLine
 10
60.777686
 20
221.365988
 30
0.0
 11
60.777686
 21
221.487256
 31
0.0
  0
LINE
  5
39D
100
AcDbEntity
  8
レイヤー_2
 62
     7
100
AcDbLine
 10
60.777686
 20
221.365988
 30
0.0
 11
60.743235
 21
221.317757
 31
0.0
  0
LINE
  5
39C
100
AcDbEntity
  8
レイヤー_2
 62
     7
100
AcDbLine
 10
62.136431
 20
221.317757
 30
0.0
 11
62.102325
 21
221.365988
 31
0.0
  0
LINE
  5
39B
100
AcDbEntity
  8
レイヤー_2
 62
     7
100
AcDbLine
 10
62.102325
 20
221.365988
 30
0.0
 11
62.102325
 21
221.487256
 31
0.0
  0
LINE
  5
39A
100
AcDbEntity
  8
レイヤー_2
 62
     7
100
AcDbLine
 10
62.170193
 20
221.365988
 30
0.0
 11
62.170193
 21
221.487256
 31
0.0
  0
LINE
  5
399
100
AcDbEntity
  8
レイヤー_2
 62
     7
100
AcDbLine
 10
62.170193
 20
221.365988
 30
0.0
 11
62.136431
 21
221.317757
 31
0.0
  0
LINE
  5
398
100
AcDbEntity
  8
レイヤー_2
 62
     7
100
AcDbLine
 10
64.921791
 20
221.317757
 30
0.0
 11
64.887684
 21
221.365988
 31
0.0
  0
LINE
  5
397
100
AcDbEntity
  8
レイヤー_2
 62
     7
100
AcDbLine
 10
64.887684
 20
221.365988
 30
0.0
 11
64.887684
 21
221.487256
 31
0.0
  0
LINE
  5
396
100
AcDbEntity
  8
レイヤー_2
 62
     7
100
AcDbLine
 10
64.956242
 20
221.365988
 30
0.0
 11
64.956242
 21
221.487256
 31
0.0
  0
LINE
  5
395
100
AcDbEntity
  8
レイヤー_2
 62
     7
100
AcDbLine
 10
64.956242
 20
221.365988
 30
0.0
 11
64.921791
 21
221.317757
 31
0.0
  0
LINE
  5
394
100
AcDbEntity
  8
レイヤー_2
 62
     7
100
AcDbLine
 10
63.064884
 20
221.317757
 30
0.0
 11
63.031123
 21
221.365988
 31
0.0
  0
LINE
  5
393
100
AcDbEntity
  8
レイヤー_2
 62
     7
100
AcDbLine
 10
63.031123
 20
221.365988
 30
0.0
 11
63.031123
 21
221.487256
 31
0.0
  0
LINE
  5
392
100
AcDbEntity
  8
レイヤー_2
 62
     7
100
AcDbLine
 10
63.098302
 20
221.365988
 30
0.0
 11
63.098302
 21
221.487256
 31
0.0
  0
LINE
  5
391
100
AcDbEntity
  8
レイヤー_2
 62
     7
100
AcDbLine
 10
63.098302
 20
221.365988
 30
0.0
 11
63.064884
 21
221.317757
 31
0.0
  0
LINE
  5
390
100
AcDbEntity
  8
レイヤー_2
 62
     7
100
AcDbLine
 10
62.17226
 20
221.487256
 30
0.0
 11
62.170193
 21
221.365988
 31
0.0
  0
LINE
  5
38F
100
AcDbEntity
  8
レイヤー_2
 62
     7
100
AcDbLine
 10
65.422019
 20
221.487256
 30
0.0
 11
65.420296
 21
221.365988
 31
0.0
  0
LINE
  5
38E
100
AcDbEntity
  8
レイヤー_2
 62
     7
100
AcDbLine
 10
65.886418
 20
221.487256
 30
0.0
 11
65.884695
 21
221.365988
 31
0.0
  0
LINE
  5
38D
100
AcDbEntity
  8
レイヤー_2
 62
     7
100
AcDbLine
 10
66.74528
 20
221.365988
 30
0.0
 11
66.743213
 21
221.487256
 31
0.0
  0
LINE
  5
38C
100
AcDbEntity
  8
レイヤー_2
 62
     7
100
AcDbLine
 10
64.957275
 20
221.487256
 30
0.0
 11
64.956242
 21
221.365988
 31
0.0
  0
LINE
  5
38B
100
AcDbEntity
  8
レイヤー_2
 62
     7
100
AcDbLine
 10
60.779408
 20
221.487256
 30
0.0
 11
60.777686
 21
221.365988
 31
0.0
  0
LINE
  5
38A
100
AcDbEntity
  8
レイヤー_2
 62
     7
100
AcDbLine
 10
61.708206
 20
221.487256
 30
0.0
 11
61.706139
 21
221.365988
 31
0.0
  0
LINE
  5
389
100
AcDbEntity
  8
レイヤー_2
 62
     7
100
AcDbLine
 10
64.492877
 20
221.487256
 30
0.0
 11
64.491843
 21
221.365988
 31
0.0
  0
LINE
  5
388
100
AcDbEntity
  8
レイヤー_2
 62
     7
100
AcDbLine
 10
63.100369
 20
221.487256
 30
0.0
 11
63.098302
 21
221.365988
 31
0.0
  0
LINE
  5
387
100
AcDbEntity
  8
レイヤー_2
 62
     7
100
AcDbLine
 10
66.350817
 20
221.487256
 30
0.0
 11
66.348749
 21
221.365988
 31
0.0
  0
LINE
  5
386
100
AcDbEntity
  8
レイヤー_2
 62
     7
100
AcDbLine
 10
62.63597
 20
221.487256
 30
0.0
 11
62.634592
 21
221.365988
 31
0.0
  0
LINE
  5
385
100
AcDbEntity
  8
レイヤー_2
 62
     7
100
AcDbLine
 10
64.028822
 20
221.487256
 30
0.0
 11
64.028133
 21
221.365988
 31
0.0
  0
LINE
  5
384
100
AcDbEntity
  8
レイヤー_2
 62
     7
100
AcDbLine
 10
61.243807
 20
221.487256
 30
0.0
 11
61.242084
 21
221.365988
 31
0.0
  0
LINE
  5
383
100
AcDbEntity
  8
レイヤー_2
 62
     7
100
AcDbLine
 10
63.564423
 20
221.487256
 30
0.0
 11
63.563734
 21
221.365988
 31
0.0
  0
LINE
  5
382
100
AcDbEntity
  8
レイヤー_2
 62
     7
100
AcDbLine
 10
62.566724
 20
221.365988
 30
0.0
 11
62.565001
 21
221.487256
 31
0.0
  0
LINE
  5
381
100
AcDbEntity
  8
レイヤー_2
 62
     7
100
AcDbLine
 10
61.637926
 20
221.365988
 30
0.0
 11
61.636203
 21
221.487256
 31
0.0
  0
LINE
  5
380
100
AcDbEntity
  8
レイヤー_2
 62
     7
100
AcDbLine
 10
62.102325
 20
221.365988
 30
0.0
 11
62.100602
 21
221.487256
 31
0.0
  0
LINE
  5
37F
100
AcDbEntity
  8
レイヤー_2
 62
     7
100
AcDbLine
 10
65.816482
 20
221.365988
 30
0.0
 11
65.81476
 21
221.487256
 31
0.0
  0
LINE
  5
37E
100
AcDbEntity
  8
レイヤー_2
 62
     7
100
AcDbLine
 10
65.352083
 20
221.365988
 30
0.0
 11
65.35105
 21
221.487256
 31
0.0
  0
LINE
  5
37D
100
AcDbEntity
  8
レイヤー_2
 62
     7
100
AcDbLine
 10
63.958887
 20
221.365988
 30
0.0
 11
63.957853
 21
221.487256
 31
0.0
  0
LINE
  5
37C
100
AcDbEntity
  8
レイヤー_2
 62
     7
100
AcDbLine
 10
60.315009
 20
221.487256
 30
0.0
 11
60.313287
 21
221.365988
 31
0.0
  0
LINE
  5
37B
100
AcDbEntity
  8
レイヤー_2
 62
     7
100
AcDbLine
 10
60.709128
 20
221.365988
 30
0.0
 11
60.70775
 21
221.487256
 31
0.0
  0
LINE
  5
37A
100
AcDbEntity
  8
レイヤー_2
 62
     7
100
AcDbLine
 10
64.887684
 20
221.365988
 30
0.0
 11
64.886651
 21
221.487256
 31
0.0
  0
LINE
  5
379
100
AcDbEntity
  8
レイヤー_2
 62
     7
100
AcDbLine
 10
66.280881
 20
221.365988
 30
0.0
 11
66.279159
 21
221.487256
 31
0.0
  0
LINE
  5
378
100
AcDbEntity
  8
レイヤー_2
 62
     7
100
AcDbLine
 10
63.031123
 20
221.365988
 30
0.0
 11
63.029055
 21
221.487256
 31
0.0
  0
LINE
  5
377
100
AcDbEntity
  8
レイヤー_2
 62
     7
100
AcDbLine
 10
64.423286
 20
221.365988
 30
0.0
 11
64.421908
 21
221.487256
 31
0.0
  0
LINE
  5
376
100
AcDbEntity
  8
レイヤー_2
 62
     7
100
AcDbLine
 10
61.173527
 20
221.365988
 30
0.0
 11
61.172149
 21
221.487256
 31
0.0
  0
LINE
  5
375
100
AcDbEntity
  8
レイヤー_2
 62
     7
100
AcDbLine
 10
63.495177
 20
221.365988
 30
0.0
 11
63.493454
 21
221.487256
 31
0.0
  0
LINE
  5
374
100
AcDbEntity
  8
レイヤー_2
 62
     7
100
AcDbLine
 10
66.815215
 20
221.487256
 30
0.0
 11
66.813148
 21
221.365988
 31
0.0
  0
LINE
  5
373
100
AcDbEntity
  8
レイヤー_2
 62
     7
100
AcDbLine
 10
60.245074
 20
221.365988
 30
0.0
 11
60.243007
 21
221.487256
 31
0.0
  0
LINE
  5
372
100
AcDbEntity
  8
レイヤー_2
 62
     7
100
AcDbLine
 10
66.778697
 20
221.317757
 30
0.0
 11
66.805225
 21
221.305355
 31
0.0
  0
LINE
  5
371
100
AcDbEntity
  8
レイヤー_2
 62
     7
100
AcDbLine
 10
60.252653
 20
221.305355
 30
0.0
 11
60.278836
 21
221.317757
 31
0.0
  0
LINE
  5
370
100
AcDbEntity
  8
レイヤー_2
 62
     7
100
AcDbLine
 10
65.850589
 20
221.317757
 30
0.0
 11
65.876427
 21
221.305355
 31
0.0
  0
LINE
  5
36F
100
AcDbEntity
  8
レイヤー_2
 62
     7
100
AcDbLine
 10
66.280881
 20
221.365988
 30
0.0
 11
65.884695
 21
221.365988
 31
0.0
  0
LINE
  5
36E
100
AcDbEntity
  8
レイヤー_2
 62
     7
100
AcDbLine
 10
66.288116
 20
221.305355
 30
0.0
 11
66.314988
 21
221.317757
 31
0.0
  0
LINE
  5
36D
100
AcDbEntity
  8
レイヤー_2
 62
     7
100
AcDbLine
 10
64.457392
 20
221.317757
 30
0.0
 11
64.483919
 21
221.305355
 31
0.0
  0
LINE
  5
36C
100
AcDbEntity
  8
レイヤー_2
 62
     7
100
AcDbLine
 10
64.887684
 20
221.365988
 30
0.0
 11
64.491843
 21
221.365988
 31
0.0
  0
LINE
  5
36B
100
AcDbEntity
  8
レイヤー_2
 62
     7
100
AcDbLine
 10
64.895608
 20
221.305355
 30
0.0
 11
64.921791
 21
221.317757
 31
0.0
  0
LINE
  5
36A
100
AcDbEntity
  8
レイヤー_2
 62
     7
100
AcDbLine
 10
60.743235
 20
221.317757
 30
0.0
 11
60.769762
 21
221.305355
 31
0.0
  0
LINE
  5
369
100
AcDbEntity
  8
レイヤー_2
 62
     7
100
AcDbLine
 10
61.173527
 20
221.365988
 30
0.0
 11
60.777686
 21
221.365988
 31
0.0
  0
LINE
  5
368
100
AcDbEntity
  8
レイヤー_2
 62
     7
100
AcDbLine
 10
61.181106
 20
221.305355
 30
0.0
 11
61.207633
 21
221.317757
 31
0.0
  0
LINE
  5
367
100
AcDbEntity
  8
レイヤー_2
 62
     7
100
AcDbLine
 10
63.064884
 20
221.317757
 30
0.0
 11
63.091067
 21
221.305355
 31
0.0
  0
LINE
  5
366
100
AcDbEntity
  8
レイヤー_2
 62
     7
100
AcDbLine
 10
63.495177
 20
221.365988
 30
0.0
 11
63.098302
 21
221.365988
 31
0.0
  0
LINE
  5
365
100
AcDbEntity
  8
レイヤー_2
 62
     7
100
AcDbLine
 10
63.503101
 20
221.305355
 30
0.0
 11
63.528939
 21
221.317757
 31
0.0
  0
LINE
  5
364
100
AcDbEntity
  8
レイヤー_2
 62
     7
100
AcDbLine
 10
61.672032
 20
221.317757
 30
0.0
 11
61.697871
 21
221.305355
 31
0.0
  0
LINE
  5
363
100
AcDbEntity
  8
レイヤー_2
 62
     7
100
AcDbLine
 10
62.102325
 20
221.365988
 30
0.0
 11
61.706139
 21
221.365988
 31
0.0
  0
LINE
  5
362
100
AcDbEntity
  8
レイヤー_2
 62
     7
100
AcDbLine
 10
62.110248
 20
221.305355
 30
0.0
 11
62.136431
 21
221.317757
 31
0.0
  0
LINE
  5
361
100
AcDbEntity
  8
レイヤー_2
 62
     7
100
AcDbLine
 10
60.717052
 20
221.305355
 30
0.0
 11
60.743235
 21
221.317757
 31
0.0
  0
LINE
  5
360
100
AcDbEntity
  8
レイヤー_2
 62
     7
100
AcDbLine
 10
60.278836
 20
221.317757
 30
0.0
 11
60.305363
 21
221.305355
 31
0.0
  0
LINE
  5
35F
100
AcDbEntity
  8
レイヤー_2
 62
     7
100
AcDbLine
 10
60.709128
 20
221.365988
 30
0.0
 11
60.313287
 21
221.365988
 31
0.0
  0
LINE
  5
35E
100
AcDbEntity
  8
レイヤー_2
 62
     7
100
AcDbLine
 10
63.528939
 20
221.317757
 30
0.0
 11
63.555466
 21
221.305355
 31
0.0
  0
LINE
  5
35D
100
AcDbEntity
  8
レイヤー_2
 62
     7
100
AcDbLine
 10
63.958887
 20
221.365988
 30
0.0
 11
63.563734
 21
221.365988
 31
0.0
  0
LINE
  5
35C
100
AcDbEntity
  8
レイヤー_2
 62
     7
100
AcDbLine
 10
63.967499
 20
221.305355
 30
0.0
 11
63.993338
 21
221.317757
 31
0.0
  0
LINE
  5
35B
100
AcDbEntity
  8
レイヤー_2
 62
     7
100
AcDbLine
 10
66.314988
 20
221.317757
 30
0.0
 11
66.340826
 21
221.305355
 31
0.0
  0
LINE
  5
35A
100
AcDbEntity
  8
レイヤー_2
 62
     7
100
AcDbLine
 10
66.74528
 20
221.365988
 30
0.0
 11
66.348749
 21
221.365988
 31
0.0
  0
LINE
  5
359
100
AcDbEntity
  8
レイヤー_2
 62
     7
100
AcDbLine
 10
66.752515
 20
221.305355
 30
0.0
 11
66.778697
 21
221.317757
 31
0.0
  0
LINE
  5
358
100
AcDbEntity
  8
レイヤー_2
 62
     7
100
AcDbLine
 10
61.207633
 20
221.317757
 30
0.0
 11
61.233127
 21
221.305355
 31
0.0
  0
LINE
  5
357
100
AcDbEntity
  8
レイヤー_2
 62
     7
100
AcDbLine
 10
61.637926
 20
221.365988
 30
0.0
 11
61.242084
 21
221.365988
 31
0.0
  0
LINE
  5
356
100
AcDbEntity
  8
レイヤー_2
 62
     7
100
AcDbLine
 10
61.64585
 20
221.305355
 30
0.0
 11
61.672032
 21
221.317757
 31
0.0
  0
LINE
  5
355
100
AcDbEntity
  8
レイヤー_2
 62
     7
100
AcDbLine
 10
63.993338
 20
221.317757
 30
0.0
 11
64.01952
 21
221.305355
 31
0.0
  0
LINE
  5
354
100
AcDbEntity
  8
レイヤー_2
 62
     7
100
AcDbLine
 10
64.423286
 20
221.365988
 30
0.0
 11
64.028133
 21
221.365988
 31
0.0
  0
LINE
  5
353
100
AcDbEntity
  8
レイヤー_2
 62
     7
100
AcDbLine
 10
64.431898
 20
221.305355
 30
0.0
 11
64.457392
 21
221.317757
 31
0.0
  0
LINE
  5
352
100
AcDbEntity
  8
レイヤー_2
 62
     7
100
AcDbLine
 10
62.600486
 20
221.317757
 30
0.0
 11
62.626324
 21
221.305355
 31
0.0
  0
LINE
  5
351
100
AcDbEntity
  8
レイヤー_2
 62
     7
100
AcDbLine
 10
63.031123
 20
221.365988
 30
0.0
 11
62.634592
 21
221.365988
 31
0.0
  0
LINE
  5
350
100
AcDbEntity
  8
レイヤー_2
 62
     7
100
AcDbLine
 10
63.039046
 20
221.305355
 30
0.0
 11
63.064884
 21
221.317757
 31
0.0
  0
LINE
  5
34F
100
AcDbEntity
  8
レイヤー_2
 62
     7
100
AcDbLine
 10
62.136431
 20
221.317757
 30
0.0
 11
62.162269
 21
221.305355
 31
0.0
  0
LINE
  5
34E
100
AcDbEntity
  8
レイヤー_2
 62
     7
100
AcDbLine
 10
62.566724
 20
221.365988
 30
0.0
 11
62.170193
 21
221.365988
 31
0.0
  0
LINE
  5
34D
100
AcDbEntity
  8
レイヤー_2
 62
     7
100
AcDbLine
 10
62.574647
 20
221.305355
 30
0.0
 11
62.600486
 21
221.317757
 31
0.0
  0
LINE
  5
34C
100
AcDbEntity
  8
レイヤー_2
 62
     7
100
AcDbLine
 10
64.921791
 20
221.317757
 30
0.0
 11
64.947974
 21
221.305355
 31
0.0
  0
LINE
  5
34B
100
AcDbEntity
  8
レイヤー_2
 62
     7
100
AcDbLine
 10
65.352083
 20
221.365988
 30
0.0
 11
64.956242
 21
221.365988
 31
0.0
  0
LINE
  5
34A
100
AcDbEntity
  8
レイヤー_2
 62
     7
100
AcDbLine
 10
65.360007
 20
221.305355
 30
0.0
 11
65.386534
 21
221.317757
 31
0.0
  0
LINE
  5
349
100
AcDbEntity
  8
レイヤー_2
 62
     7
100
AcDbLine
 10
65.386534
 20
221.317757
 30
0.0
 11
65.412373
 21
221.305355
 31
0.0
  0
LINE
  5
348
100
AcDbEntity
  8
レイヤー_2
 62
     7
100
AcDbLine
 10
65.816482
 20
221.365988
 30
0.0
 11
65.420296
 21
221.365988
 31
0.0
  0
LINE
  5
347
100
AcDbEntity
  8
レイヤー_2
 62
     7
100
AcDbLine
 10
65.824406
 20
221.305355
 30
0.0
 11
65.850589
 21
221.317757
 31
0.0
  0
LINE
  5
346
100
AcDbEntity
  8
レイヤー_2
 62
     7
100
AcDbLine
 10
64.956242
 20
221.093137
 30
0.0
 11
64.956242
 21
221.305355
 31
0.0
  0
LINE
  5
345
100
AcDbEntity
  8
レイヤー_2
 62
     7
100
AcDbLine
 10
64.956242
 20
221.093137
 30
0.0
 11
64.921791
 21
221.04525
 31
0.0
  0
LINE
  5
344
100
AcDbEntity
  8
レイヤー_2
 62
     7
100
AcDbLine
 10
64.921791
 20
221.04525
 30
0.0
 11
64.887684
 21
221.093137
 31
0.0
  0
LINE
  5
343
100
AcDbEntity
  8
レイヤー_2
 62
     7
100
AcDbLine
 10
64.887684
 20
221.093137
 30
0.0
 11
64.887684
 21
221.305355
 31
0.0
  0
LINE
  5
342
100
AcDbEntity
  8
レイヤー_2
 62
     7
100
AcDbLine
 10
64.028133
 20
221.093137
 30
0.0
 11
64.028133
 21
221.305355
 31
0.0
  0
LINE
  5
341
100
AcDbEntity
  8
レイヤー_2
 62
     7
100
AcDbLine
 10
64.028133
 20
221.093137
 30
0.0
 11
63.993338
 21
221.04525
 31
0.0
  0
LINE
  5
340
100
AcDbEntity
  8
レイヤー_2
 62
     7
100
AcDbLine
 10
63.993338
 20
221.04525
 30
0.0
 11
63.958887
 21
221.093137
 31
0.0
  0
LINE
  5
33F
100
AcDbEntity
  8
レイヤー_2
 62
     7
100
AcDbLine
 10
63.958887
 20
221.093137
 30
0.0
 11
63.958887
 21
221.305355
 31
0.0
  0
LINE
  5
33E
100
AcDbEntity
  8
レイヤー_2
 62
     7
100
AcDbLine
 10
65.884695
 20
221.093137
 30
0.0
 11
65.884695
 21
221.305355
 31
0.0
  0
LINE
  5
33D
100
AcDbEntity
  8
レイヤー_2
 62
     7
100
AcDbLine
 10
65.884695
 20
221.093137
 30
0.0
 11
65.850589
 21
221.04525
 31
0.0
  0
LINE
  5
33C
100
AcDbEntity
  8
レイヤー_2
 62
     7
100
AcDbLine
 10
65.850589
 20
221.04525
 30
0.0
 11
65.816482
 21
221.093137
 31
0.0
  0
LINE
  5
33B
100
AcDbEntity
  8
レイヤー_2
 62
     7
100
AcDbLine
 10
65.816482
 20
221.093137
 30
0.0
 11
65.816482
 21
221.305355
 31
0.0
  0
LINE
  5
33A
100
AcDbEntity
  8
レイヤー_2
 62
     7
100
AcDbLine
 10
66.813148
 20
221.093137
 30
0.0
 11
66.813148
 21
221.305355
 31
0.0
  0
LINE
  5
339
100
AcDbEntity
  8
レイヤー_2
 62
     7
100
AcDbLine
 10
66.813148
 20
221.093137
 30
0.0
 11
66.778697
 21
221.04525
 31
0.0
  0
LINE
  5
338
100
AcDbEntity
  8
レイヤー_2
 62
     7
100
AcDbLine
 10
66.778697
 20
221.04525
 30
0.0
 11
66.74528
 21
221.093137
 31
0.0
  0
LINE
  5
337
100
AcDbEntity
  8
レイヤー_2
 62
     7
100
AcDbLine
 10
66.74528
 20
221.093137
 30
0.0
 11
66.74528
 21
221.305355
 31
0.0
  0
LINE
  5
336
100
AcDbEntity
  8
レイヤー_2
 62
     7
100
AcDbLine
 10
61.242084
 20
221.093137
 30
0.0
 11
61.242084
 21
221.305355
 31
0.0
  0
LINE
  5
335
100
AcDbEntity
  8
レイヤー_2
 62
     7
100
AcDbLine
 10
61.242084
 20
221.093137
 30
0.0
 11
61.207633
 21
221.04525
 31
0.0
  0
LINE
  5
334
100
AcDbEntity
  8
レイヤー_2
 62
     7
100
AcDbLine
 10
61.207633
 20
221.04525
 30
0.0
 11
61.173527
 21
221.093137
 31
0.0
  0
LINE
  5
333
100
AcDbEntity
  8
レイヤー_2
 62
     7
100
AcDbLine
 10
61.173527
 20
221.093137
 30
0.0
 11
61.173527
 21
221.305355
 31
0.0
  0
LINE
  5
332
100
AcDbEntity
  8
レイヤー_2
 62
     7
100
AcDbLine
 10
60.313287
 20
221.093137
 30
0.0
 11
60.313287
 21
221.305355
 31
0.0
  0
LINE
  5
331
100
AcDbEntity
  8
レイヤー_2
 62
     7
100
AcDbLine
 10
60.313287
 20
221.093137
 30
0.0
 11
60.278836
 21
221.04525
 31
0.0
  0
LINE
  5
330
100
AcDbEntity
  8
レイヤー_2
 62
     7
100
AcDbLine
 10
60.278836
 20
221.04525
 30
0.0
 11
60.245074
 21
221.093137
 31
0.0
  0
LINE
  5
32F
100
AcDbEntity
  8
レイヤー_2
 62
     7
100
AcDbLine
 10
60.245074
 20
221.093137
 30
0.0
 11
60.245074
 21
221.305355
 31
0.0
  0
LINE
  5
32E
100
AcDbEntity
  8
レイヤー_2
 62
     7
100
AcDbLine
 10
64.491843
 20
221.093137
 30
0.0
 11
64.491843
 21
221.305355
 31
0.0
  0
LINE
  5
32D
100
AcDbEntity
  8
レイヤー_2
 62
     7
100
AcDbLine
 10
64.491843
 20
221.093137
 30
0.0
 11
64.457392
 21
221.04525
 31
0.0
  0
LINE
  5
32C
100
AcDbEntity
  8
レイヤー_2
 62
     7
100
AcDbLine
 10
64.457392
 20
221.04525
 30
0.0
 11
64.423286
 21
221.093137
 31
0.0
  0
LINE
  5
32B
100
AcDbEntity
  8
レイヤー_2
 62
     7
100
AcDbLine
 10
64.423286
 20
221.093137
 30
0.0
 11
64.423286
 21
221.305355
 31
0.0
  0
LINE
  5
32A
100
AcDbEntity
  8
レイヤー_2
 62
     7
100
AcDbLine
 10
61.706139
 20
221.093137
 30
0.0
 11
61.706139
 21
221.305355
 31
0.0
  0
LINE
  5
329
100
AcDbEntity
  8
レイヤー_2
 62
     7
100
AcDbLine
 10
61.706139
 20
221.093137
 30
0.0
 11
61.672032
 21
221.04525
 31
0.0
  0
LINE
  5
328
100
AcDbEntity
  8
レイヤー_2
 62
     7
100
AcDbLine
 10
61.672032
 20
221.04525
 30
0.0
 11
61.637926
 21
221.093137
 31
0.0
  0
LINE
  5
327
100
AcDbEntity
  8
レイヤー_2
 62
     7
100
AcDbLine
 10
61.637926
 20
221.093137
 30
0.0
 11
61.637926
 21
221.305355
 31
0.0
  0
LINE
  5
326
100
AcDbEntity
  8
レイヤー_2
 62
     7
100
AcDbLine
 10
60.777686
 20
221.093137
 30
0.0
 11
60.777686
 21
221.305355
 31
0.0
  0
LINE
  5
325
100
AcDbEntity
  8
レイヤー_2
 62
     7
100
AcDbLine
 10
60.777686
 20
221.093137
 30
0.0
 11
60.743235
 21
221.04525
 31
0.0
  0
LINE
  5
324
100
AcDbEntity
  8
レイヤー_2
 62
     7
100
AcDbLine
 10
60.743235
 20
221.04525
 30
0.0
 11
60.709128
 21
221.093137
 31
0.0
  0
LINE
  5
323
100
AcDbEntity
  8
レイヤー_2
 62
     7
100
AcDbLine
 10
60.709128
 20
221.093137
 30
0.0
 11
60.709128
 21
221.305355
 31
0.0
  0
LINE
  5
322
100
AcDbEntity
  8
レイヤー_2
 62
     7
100
AcDbLine
 10
62.634592
 20
221.093137
 30
0.0
 11
62.634592
 21
221.305355
 31
0.0
  0
LINE
  5
321
100
AcDbEntity
  8
レイヤー_2
 62
     7
100
AcDbLine
 10
62.634592
 20
221.093137
 30
0.0
 11
62.600486
 21
221.04525
 31
0.0
  0
LINE
  5
320
100
AcDbEntity
  8
レイヤー_2
 62
     7
100
AcDbLine
 10
62.600486
 20
221.04525
 30
0.0
 11
62.566724
 21
221.093137
 31
0.0
  0
LINE
  5
31F
100
AcDbEntity
  8
レイヤー_2
 62
     7
100
AcDbLine
 10
62.566724
 20
221.093137
 30
0.0
 11
62.566724
 21
221.305355
 31
0.0
  0
LINE
  5
31E
100
AcDbEntity
  8
レイヤー_2
 62
     7
100
AcDbLine
 10
62.170193
 20
221.093137
 30
0.0
 11
62.170193
 21
221.305355
 31
0.0
  0
LINE
  5
31D
100
AcDbEntity
  8
レイヤー_2
 62
     7
100
AcDbLine
 10
62.170193
 20
221.093137
 30
0.0
 11
62.136431
 21
221.04525
 31
0.0
  0
LINE
  5
31C
100
AcDbEntity
  8
レイヤー_2
 62
     7
100
AcDbLine
 10
62.136431
 20
221.04525
 30
0.0
 11
62.102325
 21
221.093137
 31
0.0
  0
LINE
  5
31B
100
AcDbEntity
  8
レイヤー_2
 62
     7
100
AcDbLine
 10
62.102325
 20
221.093137
 30
0.0
 11
62.102325
 21
221.305355
 31
0.0
  0
LINE
  5
31A
100
AcDbEntity
  8
レイヤー_2
 62
     7
100
AcDbLine
 10
63.563734
 20
221.093137
 30
0.0
 11
63.563734
 21
221.305355
 31
0.0
  0
LINE
  5
319
100
AcDbEntity
  8
レイヤー_2
 62
     7
100
AcDbLine
 10
63.563734
 20
221.093137
 30
0.0
 11
63.528939
 21
221.04525
 31
0.0
  0
LINE
  5
318
100
AcDbEntity
  8
レイヤー_2
 62
     7
100
AcDbLine
 10
63.528939
 20
221.04525
 30
0.0
 11
63.495177
 21
221.093137
 31
0.0
  0
LINE
  5
317
100
AcDbEntity
  8
レイヤー_2
 62
     7
100
AcDbLine
 10
63.495177
 20
221.093137
 30
0.0
 11
63.495177
 21
221.305355
 31
0.0
  0
LINE
  5
316
100
AcDbEntity
  8
レイヤー_2
 62
     7
100
AcDbLine
 10
66.348749
 20
221.093137
 30
0.0
 11
66.348749
 21
221.305355
 31
0.0
  0
LINE
  5
315
100
AcDbEntity
  8
レイヤー_2
 62
     7
100
AcDbLine
 10
66.348749
 20
221.093137
 30
0.0
 11
66.314988
 21
221.04525
 31
0.0
  0
LINE
  5
314
100
AcDbEntity
  8
レイヤー_2
 62
     7
100
AcDbLine
 10
66.314988
 20
221.04525
 30
0.0
 11
66.280881
 21
221.093137
 31
0.0
  0
LINE
  5
313
100
AcDbEntity
  8
レイヤー_2
 62
     7
100
AcDbLine
 10
66.280881
 20
221.093137
 30
0.0
 11
66.280881
 21
221.305355
 31
0.0
  0
LINE
  5
312
100
AcDbEntity
  8
レイヤー_2
 62
     7
100
AcDbLine
 10
65.420296
 20
221.093137
 30
0.0
 11
65.420296
 21
221.305355
 31
0.0
  0
LINE
  5
311
100
AcDbEntity
  8
レイヤー_2
 62
     7
100
AcDbLine
 10
65.420296
 20
221.093137
 30
0.0
 11
65.386534
 21
221.04525
 31
0.0
  0
LINE
  5
310
100
AcDbEntity
  8
レイヤー_2
 62
     7
100
AcDbLine
 10
65.386534
 20
221.04525
 30
0.0
 11
65.352083
 21
221.093137
 31
0.0
  0
LINE
  5
30F
100
AcDbEntity
  8
レイヤー_2
 62
     7
100
AcDbLine
 10
65.352083
 20
221.093137
 30
0.0
 11
65.352083
 21
221.305355
 31
0.0
  0
LINE
  5
30E
100
AcDbEntity
  8
レイヤー_2
 62
     7
100
AcDbLine
 10
63.098302
 20
221.093137
 30
0.0
 11
63.098302
 21
221.305355
 31
0.0
  0
LINE
  5
30D
100
AcDbEntity
  8
レイヤー_2
 62
     7
100
AcDbLine
 10
63.098302
 20
221.093137
 30
0.0
 11
63.064884
 21
221.04525
 31
0.0
  0
LINE
  5
30C
100
AcDbEntity
  8
レイヤー_2
 62
     7
100
AcDbLine
 10
63.064884
 20
221.04525
 30
0.0
 11
63.031123
 21
221.093137
 31
0.0
  0
LINE
  5
30B
100
AcDbEntity
  8
レイヤー_2
 62
     7
100
AcDbLine
 10
63.031123
 20
221.093137
 30
0.0
 11
63.031123
 21
221.305355
 31
0.0
  0
LINE
  5
30A
100
AcDbEntity
  8
レイヤー_2
 62
     7
100
AcDbLine
 10
61.637926
 20
221.093137
 30
0.0
 11
61.634825
 21
221.305355
 31
0.0
  0
LINE
  5
309
100
AcDbEntity
  8
レイヤー_2
 62
     7
100
AcDbLine
 10
63.031123
 20
221.093137
 30
0.0
 11
63.027677
 21
221.305355
 31
0.0
  0
LINE
  5
308
100
AcDbEntity
  8
レイヤー_2
 62
     7
100
AcDbLine
 10
61.173527
 20
221.093137
 30
0.0
 11
61.170426
 21
221.305355
 31
0.0
  0
LINE
  5
307
100
AcDbEntity
  8
レイヤー_2
 62
     7
100
AcDbLine
 10
66.74528
 20
221.093137
 30
0.0
 11
66.742179
 21
221.305355
 31
0.0
  0
LINE
  5
306
100
AcDbEntity
  8
レイヤー_2
 62
     7
100
AcDbLine
 10
64.887684
 20
221.093137
 30
0.0
 11
64.884928
 21
221.305355
 31
0.0
  0
LINE
  5
305
100
AcDbEntity
  8
レイヤー_2
 62
     7
100
AcDbLine
 10
64.423286
 20
221.093137
 30
0.0
 11
64.420874
 21
221.305355
 31
0.0
  0
LINE
  5
304
100
AcDbEntity
  8
レイヤー_2
 62
     7
100
AcDbLine
 10
62.566724
 20
221.093137
 30
0.0
 11
62.563279
 21
221.305355
 31
0.0
  0
LINE
  5
303
100
AcDbEntity
  8
レイヤー_2
 62
     7
100
AcDbLine
 10
63.958887
 20
221.093137
 30
0.0
 11
63.956475
 21
221.305355
 31
0.0
  0
LINE
  5
302
100
AcDbEntity
  8
レイヤー_2
 62
     7
100
AcDbLine
 10
62.102325
 20
221.093137
 30
0.0
 11
62.099224
 21
221.305355
 31
0.0
  0
LINE
  5
301
100
AcDbEntity
  8
レイヤー_2
 62
     7
100
AcDbLine
 10
65.352083
 20
221.093137
 30
0.0
 11
65.349327
 21
221.305355
 31
0.0
  0
LINE
  5
300
100
AcDbEntity
  8
レイヤー_2
 62
     7
100
AcDbLine
 10
65.816482
 20
221.093137
 30
0.0
 11
65.813726
 21
221.305355
 31
0.0
  0
LINE
  5
2FF
100
AcDbEntity
  8
レイヤー_2
 62
     7
100
AcDbLine
 10
66.280881
 20
221.093137
 30
0.0
 11
66.27778
 21
221.305355
 31
0.0
  0
LINE
  5
2FE
100
AcDbEntity
  8
レイヤー_2
 62
     7
100
AcDbLine
 10
63.495177
 20
221.093137
 30
0.0
 11
63.492076
 21
221.305355
 31
0.0
  0
LINE
  5
2FD
100
AcDbEntity
  8
レイヤー_2
 62
     7
100
AcDbLine
 10
60.709128
 20
221.093137
 30
0.0
 11
60.706717
 21
221.305355
 31
0.0
  0
LINE
  5
2FC
100
AcDbEntity
  8
レイヤー_2
 62
     7
100
AcDbLine
 10
60.245074
 20
221.093137
 30
0.0
 11
60.242662
 21
221.305355
 31
0.0
  0
LINE
  5
2FB
100
AcDbEntity
  8
レイヤー_2
 62
     7
100
AcDbLine
 10
65.423052
 20
221.305355
 30
0.0
 11
65.420296
 21
221.093137
 31
0.0
  0
LINE
  5
2FA
100
AcDbEntity
  8
レイヤー_2
 62
     7
100
AcDbLine
 10
61.244496
 20
221.305355
 30
0.0
 11
61.242084
 21
221.093137
 31
0.0
  0
LINE
  5
2F9
100
AcDbEntity
  8
レイヤー_2
 62
     7
100
AcDbLine
 10
63.102091
 20
221.305355
 30
0.0
 11
63.098302
 21
221.093137
 31
0.0
  0
LINE
  5
2F8
100
AcDbEntity
  8
レイヤー_2
 62
     7
100
AcDbLine
 10
64.494599
 20
221.305355
 30
0.0
 11
64.491843
 21
221.093137
 31
0.0
  0
LINE
  5
2F7
100
AcDbEntity
  8
レイヤー_2
 62
     7
100
AcDbLine
 10
62.637348
 20
221.305355
 30
0.0
 11
62.634592
 21
221.093137
 31
0.0
  0
LINE
  5
2F6
100
AcDbEntity
  8
レイヤー_2
 62
     7
100
AcDbLine
 10
65.887451
 20
221.305355
 30
0.0
 11
65.884695
 21
221.093137
 31
0.0
  0
LINE
  5
2F5
100
AcDbEntity
  8
レイヤー_2
 62
     7
100
AcDbLine
 10
60.315698
 20
221.305355
 30
0.0
 11
60.313287
 21
221.093137
 31
0.0
  0
LINE
  5
2F4
100
AcDbEntity
  8
レイヤー_2
 62
     7
100
AcDbLine
 10
62.172949
 20
221.305355
 30
0.0
 11
62.170193
 21
221.093137
 31
0.0
  0
LINE
  5
2F3
100
AcDbEntity
  8
レイヤー_2
 62
     7
100
AcDbLine
 10
64.030545
 20
221.305355
 30
0.0
 11
64.028133
 21
221.093137
 31
0.0
  0
LINE
  5
2F2
100
AcDbEntity
  8
レイヤー_2
 62
     7
100
AcDbLine
 10
66.35185
 20
221.305355
 30
0.0
 11
66.348749
 21
221.093137
 31
0.0
  0
LINE
  5
2F1
100
AcDbEntity
  8
レイヤー_2
 62
     7
100
AcDbLine
 10
60.780097
 20
221.305355
 30
0.0
 11
60.777686
 21
221.093137
 31
0.0
  0
LINE
  5
2F0
100
AcDbEntity
  8
レイヤー_2
 62
     7
100
AcDbLine
 10
64.958653
 20
221.305355
 30
0.0
 11
64.956242
 21
221.093137
 31
0.0
  0
LINE
  5
2EF
100
AcDbEntity
  8
レイヤー_2
 62
     7
100
AcDbLine
 10
66.81556
 20
221.305355
 30
0.0
 11
66.813148
 21
221.093137
 31
0.0
  0
LINE
  5
2EE
100
AcDbEntity
  8
レイヤー_2
 62
     7
100
AcDbLine
 10
63.566146
 20
221.305355
 30
0.0
 11
63.563734
 21
221.093137
 31
0.0
  0
LINE
  5
2ED
100
AcDbEntity
  8
レイヤー_2
 62
     7
100
AcDbLine
 10
61.70855
 20
221.305355
 30
0.0
 11
61.706139
 21
221.093137
 31
0.0
  0
LINE
  5
2EC
100
AcDbEntity
  8
レイヤー_2
 62
     7
100
AcDbLine
 10
66.314988
 20
221.04525
 30
0.0
 11
66.340826
 21
221.032503
 31
0.0
  0
LINE
  5
2EB
100
AcDbEntity
  8
レイヤー_2
 62
     7
100
AcDbLine
 10
66.74528
 20
221.093137
 30
0.0
 11
66.348749
 21
221.093137
 31
0.0
  0
LINE
  5
2EA
100
AcDbEntity
  8
レイヤー_2
 62
     7
100
AcDbLine
 10
66.752515
 20
221.032503
 30
0.0
 11
66.778697
 21
221.04525
 31
0.0
  0
LINE
  5
2E9
100
AcDbEntity
  8
レイヤー_2
 62
     7
100
AcDbLine
 10
63.993338
 20
221.04525
 30
0.0
 11
64.01952
 21
221.032503
 31
0.0
  0
LINE
  5
2E8
100
AcDbEntity
  8
レイヤー_2
 62
     7
100
AcDbLine
 10
64.423286
 20
221.093137
 30
0.0
 11
64.028133
 21
221.093137
 31
0.0
  0
LINE
  5
2E7
100
AcDbEntity
  8
レイヤー_2
 62
     7
100
AcDbLine
 10
64.431898
 20
221.032503
 30
0.0
 11
64.457392
 21
221.04525
 31
0.0
  0
LINE
  5
2E6
100
AcDbEntity
  8
レイヤー_2
 62
     7
100
AcDbLine
 10
65.850589
 20
221.04525
 30
0.0
 11
65.876427
 21
221.032503
 31
0.0
  0
LINE
  5
2E5
100
AcDbEntity
  8
レイヤー_2
 62
     7
100
AcDbLine
 10
66.280881
 20
221.093137
 30
0.0
 11
65.884695
 21
221.093137
 31
0.0
  0
LINE
  5
2E4
100
AcDbEntity
  8
レイヤー_2
 62
     7
100
AcDbLine
 10
66.288116
 20
221.032503
 30
0.0
 11
66.314988
 21
221.04525
 31
0.0
  0
LINE
  5
2E3
100
AcDbEntity
  8
レイヤー_2
 62
     7
100
AcDbLine
 10
63.528939
 20
221.04525
 30
0.0
 11
63.555466
 21
221.032503
 31
0.0
  0
LINE
  5
2E2
100
AcDbEntity
  8
レイヤー_2
 62
     7
100
AcDbLine
 10
63.958887
 20
221.093137
 30
0.0
 11
63.563734
 21
221.093137
 31
0.0
  0
LINE
  5
2E1
100
AcDbEntity
  8
レイヤー_2
 62
     7
100
AcDbLine
 10
63.967499
 20
221.032503
 30
0.0
 11
63.993338
 21
221.04525
 31
0.0
  0
LINE
  5
2E0
100
AcDbEntity
  8
レイヤー_2
 62
     7
100
AcDbLine
 10
63.064884
 20
221.04525
 30
0.0
 11
63.091067
 21
221.032503
 31
0.0
  0
LINE
  5
2DF
100
AcDbEntity
  8
レイヤー_2
 62
     7
100
AcDbLine
 10
63.495177
 20
221.093137
 30
0.0
 11
63.098302
 21
221.093137
 31
0.0
  0
LINE
  5
2DE
100
AcDbEntity
  8
レイヤー_2
 62
     7
100
AcDbLine
 10
63.503101
 20
221.032503
 30
0.0
 11
63.528939
 21
221.04525
 31
0.0
  0
LINE
  5
2DD
100
AcDbEntity
  8
レイヤー_2
 62
     7
100
AcDbLine
 10
60.717052
 20
221.032503
 30
0.0
 11
60.743235
 21
221.04525
 31
0.0
  0
LINE
  5
2DC
100
AcDbEntity
  8
レイヤー_2
 62
     7
100
AcDbLine
 10
60.278836
 20
221.04525
 30
0.0
 11
60.305363
 21
221.032503
 31
0.0
  0
LINE
  5
2DB
100
AcDbEntity
  8
レイヤー_2
 62
     7
100
AcDbLine
 10
60.709128
 20
221.093137
 30
0.0
 11
60.313287
 21
221.093137
 31
0.0
  0
LINE
  5
2DA
100
AcDbEntity
  8
レイヤー_2
 62
     7
100
AcDbLine
 10
64.921791
 20
221.04525
 30
0.0
 11
64.947974
 21
221.032503
 31
0.0
  0
LINE
  5
2D9
100
AcDbEntity
  8
レイヤー_2
 62
     7
100
AcDbLine
 10
65.352083
 20
221.093137
 30
0.0
 11
64.956242
 21
221.093137
 31
0.0
  0
LINE
  5
2D8
100
AcDbEntity
  8
レイヤー_2
 62
     7
100
AcDbLine
 10
65.360007
 20
221.032503
 30
0.0
 11
65.386534
 21
221.04525
 31
0.0
  0
LINE
  5
2D7
100
AcDbEntity
  8
レイヤー_2
 62
     7
100
AcDbLine
 10
61.672032
 20
221.04525
 30
0.0
 11
61.697871
 21
221.032503
 31
0.0
  0
LINE
  5
2D6
100
AcDbEntity
  8
レイヤー_2
 62
     7
100
AcDbLine
 10
62.102325
 20
221.093137
 30
0.0
 11
61.706139
 21
221.093137
 31
0.0
  0
LINE
  5
2D5
100
AcDbEntity
  8
レイヤー_2
 62
     7
100
AcDbLine
 10
62.110248
 20
221.032503
 30
0.0
 11
62.136431
 21
221.04525
 31
0.0
  0
LINE
  5
2D4
100
AcDbEntity
  8
レイヤー_2
 62
     7
100
AcDbLine
 10
61.207633
 20
221.04525
 30
0.0
 11
61.233127
 21
221.032503
 31
0.0
  0
LINE
  5
2D3
100
AcDbEntity
  8
レイヤー_2
 62
     7
100
AcDbLine
 10
61.637926
 20
221.093137
 30
0.0
 11
61.242084
 21
221.093137
 31
0.0
  0
LINE
  5
2D2
100
AcDbEntity
  8
レイヤー_2
 62
     7
100
AcDbLine
 10
61.64585
 20
221.032503
 30
0.0
 11
61.672032
 21
221.04525
 31
0.0
  0
LINE
  5
2D1
100
AcDbEntity
  8
レイヤー_2
 62
     7
100
AcDbLine
 10
65.386534
 20
221.04525
 30
0.0
 11
65.412373
 21
221.032503
 31
0.0
  0
LINE
  5
2D0
100
AcDbEntity
  8
レイヤー_2
 62
     7
100
AcDbLine
 10
65.816482
 20
221.093137
 30
0.0
 11
65.420296
 21
221.093137
 31
0.0
  0
LINE
  5
2CF
100
AcDbEntity
  8
レイヤー_2
 62
     7
100
AcDbLine
 10
65.824406
 20
221.032503
 30
0.0
 11
65.850589
 21
221.04525
 31
0.0
  0
LINE
  5
2CE
100
AcDbEntity
  8
レイヤー_2
 62
     7
100
AcDbLine
 10
62.600486
 20
221.04525
 30
0.0
 11
62.626324
 21
221.032503
 31
0.0
  0
LINE
  5
2CD
100
AcDbEntity
  8
レイヤー_2
 62
     7
100
AcDbLine
 10
63.031123
 20
221.093137
 30
0.0
 11
62.634592
 21
221.093137
 31
0.0
  0
LINE
  5
2CC
100
AcDbEntity
  8
レイヤー_2
 62
     7
100
AcDbLine
 10
63.039046
 20
221.032503
 30
0.0
 11
63.064884
 21
221.04525
 31
0.0
  0
LINE
  5
2CB
100
AcDbEntity
  8
レイヤー_2
 62
     7
100
AcDbLine
 10
66.778697
 20
221.04525
 30
0.0
 11
66.805225
 21
221.032503
 31
0.0
  0
LINE
  5
2CA
100
AcDbEntity
  8
レイヤー_2
 62
     7
100
AcDbLine
 10
67.34197
 20
221.093137
 30
0.0
 11
66.813148
 21
221.093137
 31
0.0
  0
LINE
  5
2C9
100
AcDbEntity
  8
レイヤー_2
 62
     7
100
AcDbLine
 10
60.743235
 20
221.04525
 30
0.0
 11
60.769762
 21
221.032503
 31
0.0
  0
LINE
  5
2C8
100
AcDbEntity
  8
レイヤー_2
 62
     7
100
AcDbLine
 10
61.173527
 20
221.093137
 30
0.0
 11
60.777686
 21
221.093137
 31
0.0
  0
LINE
  5
2C7
100
AcDbEntity
  8
レイヤー_2
 62
     7
100
AcDbLine
 10
61.181106
 20
221.032503
 30
0.0
 11
61.207633
 21
221.04525
 31
0.0
  0
LINE
  5
2C6
100
AcDbEntity
  8
レイヤー_2
 62
     7
100
AcDbLine
 10
60.245074
 20
221.093137
 30
0.0
 11
59.716941
 21
221.093137
 31
0.0
  0
LINE
  5
2C5
100
AcDbEntity
  8
レイヤー_2
 62
     7
100
AcDbLine
 10
60.252653
 20
221.032503
 30
0.0
 11
60.278836
 21
221.04525
 31
0.0
  0
LINE
  5
2C4
100
AcDbEntity
  8
レイヤー_2
 62
     7
100
AcDbLine
 10
64.457392
 20
221.04525
 30
0.0
 11
64.483919
 21
221.032503
 31
0.0
  0
LINE
  5
2C3
100
AcDbEntity
  8
レイヤー_2
 62
     7
100
AcDbLine
 10
64.887684
 20
221.093137
 30
0.0
 11
64.491843
 21
221.093137
 31
0.0
  0
LINE
  5
2C2
100
AcDbEntity
  8
レイヤー_2
 62
     7
100
AcDbLine
 10
64.895608
 20
221.032503
 30
0.0
 11
64.921791
 21
221.04525
 31
0.0
  0
LINE
  5
2C1
100
AcDbEntity
  8
レイヤー_2
 62
     7
100
AcDbLine
 10
62.136431
 20
221.04525
 30
0.0
 11
62.162269
 21
221.032503
 31
0.0
  0
LINE
  5
2C0
100
AcDbEntity
  8
レイヤー_2
 62
     7
100
AcDbLine
 10
62.566724
 20
221.093137
 30
0.0
 11
62.170193
 21
221.093137
 31
0.0
  0
LINE
  5
2BF
100
AcDbEntity
  8
レイヤー_2
 62
     7
100
AcDbLine
 10
62.574647
 20
221.032503
 30
0.0
 11
62.600486
 21
221.04525
 31
0.0
  0
LINE
  5
2BE
100
AcDbEntity
  8
レイヤー_2
 62
     7
100
AcDbLine
 10
65.386534
 20
220.772399
 30
0.0
 11
65.352083
 21
220.819941
 31
0.0
  0
LINE
  5
2BD
100
AcDbEntity
  8
レイヤー_2
 62
     7
100
AcDbLine
 10
65.352083
 20
220.819941
 30
0.0
 11
65.352083
 21
221.032503
 31
0.0
  0
LINE
  5
2BC
100
AcDbEntity
  8
レイヤー_2
 62
     7
100
AcDbLine
 10
65.420296
 20
220.819941
 30
0.0
 11
65.420296
 21
221.032503
 31
0.0
  0
LINE
  5
2BB
100
AcDbEntity
  8
レイヤー_2
 62
     7
100
AcDbLine
 10
65.420296
 20
220.819941
 30
0.0
 11
65.386534
 21
220.772399
 31
0.0
  0
LINE
  5
2BA
100
AcDbEntity
  8
レイヤー_2
 62
     7
100
AcDbLine
 10
66.314988
 20
220.772399
 30
0.0
 11
66.280881
 21
220.819941
 31
0.0
  0
LINE
  5
2B9
100
AcDbEntity
  8
レイヤー_2
 62
     7
100
AcDbLine
 10
66.280881
 20
220.819941
 30
0.0
 11
66.280881
 21
221.032503
 31
0.0
  0
LINE
  5
2B8
100
AcDbEntity
  8
レイヤー_2
 62
     7
100
AcDbLine
 10
66.348749
 20
220.819941
 30
0.0
 11
66.348749
 21
221.032503
 31
0.0
  0
LINE
  5
2B7
100
AcDbEntity
  8
レイヤー_2
 62
     7
100
AcDbLine
 10
66.348749
 20
220.819941
 30
0.0
 11
66.314988
 21
220.772399
 31
0.0
  0
LINE
  5
2B6
100
AcDbEntity
  8
レイヤー_2
 62
     7
100
AcDbLine
 10
61.207633
 20
220.772399
 30
0.0
 11
61.173527
 21
220.819941
 31
0.0
  0
LINE
  5
2B5
100
AcDbEntity
  8
レイヤー_2
 62
     7
100
AcDbLine
 10
61.173527
 20
220.819941
 30
0.0
 11
61.173527
 21
221.032503
 31
0.0
  0
LINE
  5
2B4
100
AcDbEntity
  8
レイヤー_2
 62
     7
100
AcDbLine
 10
61.242084
 20
220.819941
 30
0.0
 11
61.242084
 21
221.032503
 31
0.0
  0
LINE
  5
2B3
100
AcDbEntity
  8
レイヤー_2
 62
     7
100
AcDbLine
 10
61.242084
 20
220.819941
 30
0.0
 11
61.207633
 21
220.772399
 31
0.0
  0
LINE
  5
2B2
100
AcDbEntity
  8
レイヤー_2
 62
     7
100
AcDbLine
 10
66.778697
 20
220.772399
 30
0.0
 11
66.74528
 21
220.819941
 31
0.0
  0
LINE
  5
2B1
100
AcDbEntity
  8
レイヤー_2
 62
     7
100
AcDbLine
 10
66.74528
 20
220.819941
 30
0.0
 11
66.74528
 21
221.032503
 31
0.0
  0
LINE
  5
2B0
100
AcDbEntity
  8
レイヤー_2
 62
     7
100
AcDbLine
 10
66.813148
 20
220.819941
 30
0.0
 11
66.813148
 21
221.032503
 31
0.0
  0
LINE
  5
2AF
100
AcDbEntity
  8
レイヤー_2
 62
     7
100
AcDbLine
 10
66.813148
 20
220.819941
 30
0.0
 11
66.778697
 21
220.772399
 31
0.0
  0
LINE
  5
2AE
100
AcDbEntity
  8
レイヤー_2
 62
     7
100
AcDbLine
 10
62.600486
 20
220.772399
 30
0.0
 11
62.566724
 21
220.819941
 31
0.0
  0
LINE
  5
2AD
100
AcDbEntity
  8
レイヤー_2
 62
     7
100
AcDbLine
 10
62.566724
 20
220.819941
 30
0.0
 11
62.566724
 21
221.032503
 31
0.0
  0
LINE
  5
2AC
100
AcDbEntity
  8
レイヤー_2
 62
     7
100
AcDbLine
 10
62.634592
 20
220.819941
 30
0.0
 11
62.634592
 21
221.032503
 31
0.0
  0
LINE
  5
2AB
100
AcDbEntity
  8
レイヤー_2
 62
     7
100
AcDbLine
 10
62.634592
 20
220.819941
 30
0.0
 11
62.600486
 21
220.772399
 31
0.0
  0
LINE
  5
2AA
100
AcDbEntity
  8
レイヤー_2
 62
     7
100
AcDbLine
 10
65.850589
 20
220.772399
 30
0.0
 11
65.816482
 21
220.819941
 31
0.0
  0
LINE
  5
2A9
100
AcDbEntity
  8
レイヤー_2
 62
     7
100
AcDbLine
 10
65.816482
 20
220.819941
 30
0.0
 11
65.816482
 21
221.032503
 31
0.0
  0
LINE
  5
2A8
100
AcDbEntity
  8
レイヤー_2
 62
     7
100
AcDbLine
 10
65.884695
 20
220.819941
 30
0.0
 11
65.884695
 21
221.032503
 31
0.0
  0
LINE
  5
2A7
100
AcDbEntity
  8
レイヤー_2
 62
     7
100
AcDbLine
 10
65.884695
 20
220.819941
 30
0.0
 11
65.850589
 21
220.772399
 31
0.0
  0
LINE
  5
2A6
100
AcDbEntity
  8
レイヤー_2
 62
     7
100
AcDbLine
 10
64.457392
 20
220.772399
 30
0.0
 11
64.423286
 21
220.819941
 31
0.0
  0
LINE
  5
2A5
100
AcDbEntity
  8
レイヤー_2
 62
     7
100
AcDbLine
 10
64.423286
 20
220.819941
 30
0.0
 11
64.423286
 21
221.032503
 31
0.0
  0
LINE
  5
2A4
100
AcDbEntity
  8
レイヤー_2
 62
     7
100
AcDbLine
 10
64.491843
 20
220.819941
 30
0.0
 11
64.491843
 21
221.032503
 31
0.0
  0
LINE
  5
2A3
100
AcDbEntity
  8
レイヤー_2
 62
     7
100
AcDbLine
 10
64.491843
 20
220.819941
 30
0.0
 11
64.457392
 21
220.772399
 31
0.0
  0
LINE
  5
2A2
100
AcDbEntity
  8
レイヤー_2
 62
     7
100
AcDbLine
 10
63.528939
 20
220.772399
 30
0.0
 11
63.495177
 21
220.819941
 31
0.0
  0
LINE
  5
2A1
100
AcDbEntity
  8
レイヤー_2
 62
     7
100
AcDbLine
 10
63.495177
 20
220.819941
 30
0.0
 11
63.495177
 21
221.032503
 31
0.0
  0
LINE
  5
2A0
100
AcDbEntity
  8
レイヤー_2
 62
     7
100
AcDbLine
 10
63.563734
 20
220.819941
 30
0.0
 11
63.563734
 21
221.032503
 31
0.0
  0
LINE
  5
29F
100
AcDbEntity
  8
レイヤー_2
 62
     7
100
AcDbLine
 10
63.563734
 20
220.819941
 30
0.0
 11
63.528939
 21
220.772399
 31
0.0
  0
LINE
  5
29E
100
AcDbEntity
  8
レイヤー_2
 62
     7
100
AcDbLine
 10
60.278836
 20
220.772399
 30
0.0
 11
60.245074
 21
220.819941
 31
0.0
  0
LINE
  5
29D
100
AcDbEntity
  8
レイヤー_2
 62
     7
100
AcDbLine
 10
60.245074
 20
220.819941
 30
0.0
 11
60.245074
 21
221.032503
 31
0.0
  0
LINE
  5
29C
100
AcDbEntity
  8
レイヤー_2
 62
     7
100
AcDbLine
 10
60.313287
 20
220.819941
 30
0.0
 11
60.313287
 21
221.032503
 31
0.0
  0
LINE
  5
29B
100
AcDbEntity
  8
レイヤー_2
 62
     7
100
AcDbLine
 10
60.313287
 20
220.819941
 30
0.0
 11
60.278836
 21
220.772399
 31
0.0
  0
LINE
  5
29A
100
AcDbEntity
  8
レイヤー_2
 62
     7
100
AcDbLine
 10
60.743235
 20
220.772399
 30
0.0
 11
60.709128
 21
220.819941
 31
0.0
  0
LINE
  5
299
100
AcDbEntity
  8
レイヤー_2
 62
     7
100
AcDbLine
 10
60.709128
 20
220.819941
 30
0.0
 11
60.709128
 21
221.032503
 31
0.0
  0
LINE
  5
298
100
AcDbEntity
  8
レイヤー_2
 62
     7
100
AcDbLine
 10
60.777686
 20
220.819941
 30
0.0
 11
60.777686
 21
221.032503
 31
0.0
  0
LINE
  5
297
100
AcDbEntity
  8
レイヤー_2
 62
     7
100
AcDbLine
 10
60.777686
 20
220.819941
 30
0.0
 11
60.743235
 21
220.772399
 31
0.0
  0
LINE
  5
296
100
AcDbEntity
  8
レイヤー_2
 62
     7
100
AcDbLine
 10
63.993338
 20
220.772399
 30
0.0
 11
63.958887
 21
220.819941
 31
0.0
  0
LINE
  5
295
100
AcDbEntity
  8
レイヤー_2
 62
     7
100
AcDbLine
 10
63.958887
 20
220.819941
 30
0.0
 11
63.958887
 21
221.032503
 31
0.0
  0
LINE
  5
294
100
AcDbEntity
  8
レイヤー_2
 62
     7
100
AcDbLine
 10
64.028133
 20
220.819941
 30
0.0
 11
64.028133
 21
221.032503
 31
0.0
  0
LINE
  5
293
100
AcDbEntity
  8
レイヤー_2
 62
     7
100
AcDbLine
 10
64.028133
 20
220.819941
 30
0.0
 11
63.993338
 21
220.772399
 31
0.0
  0
LINE
  5
292
100
AcDbEntity
  8
レイヤー_2
 62
     7
100
AcDbLine
 10
62.136431
 20
220.772399
 30
0.0
 11
62.102325
 21
220.819941
 31
0.0
  0
LINE
  5
291
100
AcDbEntity
  8
レイヤー_2
 62
     7
100
AcDbLine
 10
62.102325
 20
220.819941
 30
0.0
 11
62.102325
 21
221.032503
 31
0.0
  0
LINE
  5
290
100
AcDbEntity
  8
レイヤー_2
 62
     7
100
AcDbLine
 10
62.170193
 20
220.819941
 30
0.0
 11
62.170193
 21
221.032503
 31
0.0
  0
LINE
  5
28F
100
AcDbEntity
  8
レイヤー_2
 62
     7
100
AcDbLine
 10
62.170193
 20
220.819941
 30
0.0
 11
62.136431
 21
220.772399
 31
0.0
  0
LINE
  5
28E
100
AcDbEntity
  8
レイヤー_2
 62
     7
100
AcDbLine
 10
63.064884
 20
220.772399
 30
0.0
 11
63.031123
 21
220.819941
 31
0.0
  0
LINE
  5
28D
100
AcDbEntity
  8
レイヤー_2
 62
     7
100
AcDbLine
 10
63.031123
 20
220.819941
 30
0.0
 11
63.031123
 21
221.032503
 31
0.0
  0
LINE
  5
28C
100
AcDbEntity
  8
レイヤー_2
 62
     7
100
AcDbLine
 10
63.098302
 20
220.819941
 30
0.0
 11
63.098302
 21
221.032503
 31
0.0
  0
LINE
  5
28B
100
AcDbEntity
  8
レイヤー_2
 62
     7
100
AcDbLine
 10
63.098302
 20
220.819941
 30
0.0
 11
63.064884
 21
220.772399
 31
0.0
  0
LINE
  5
28A
100
AcDbEntity
  8
レイヤー_2
 62
     7
100
AcDbLine
 10
61.672032
 20
220.772399
 30
0.0
 11
61.637926
 21
220.819941
 31
0.0
  0
LINE
  5
289
100
AcDbEntity
  8
レイヤー_2
 62
     7
100
AcDbLine
 10
61.637926
 20
220.819941
 30
0.0
 11
61.637926
 21
221.032503
 31
0.0
  0
LINE
  5
288
100
AcDbEntity
  8
レイヤー_2
 62
     7
100
AcDbLine
 10
61.706139
 20
220.819941
 30
0.0
 11
61.706139
 21
221.032503
 31
0.0
  0
LINE
  5
287
100
AcDbEntity
  8
レイヤー_2
 62
     7
100
AcDbLine
 10
61.706139
 20
220.819941
 30
0.0
 11
61.672032
 21
220.772399
 31
0.0
  0
LINE
  5
286
100
AcDbEntity
  8
レイヤー_2
 62
     7
100
AcDbLine
 10
64.921791
 20
220.772399
 30
0.0
 11
64.887684
 21
220.819941
 31
0.0
  0
LINE
  5
285
100
AcDbEntity
  8
レイヤー_2
 62
     7
100
AcDbLine
 10
64.887684
 20
220.819941
 30
0.0
 11
64.887684
 21
221.032503
 31
0.0
  0
LINE
  5
284
100
AcDbEntity
  8
レイヤー_2
 62
     7
100
AcDbLine
 10
64.956242
 20
220.819941
 30
0.0
 11
64.956242
 21
221.032503
 31
0.0
  0
LINE
  5
283
100
AcDbEntity
  8
レイヤー_2
 62
     7
100
AcDbLine
 10
64.956242
 20
220.819941
 30
0.0
 11
64.921791
 21
220.772399
 31
0.0
  0
LINE
  5
282
100
AcDbEntity
  8
レイヤー_2
 62
     7
100
AcDbLine
 10
67.50768
 20
221.047662
 30
0.0
 11
67.491488
 21
221.024924
 31
0.0
  0
LINE
  5
281
100
AcDbEntity
  8
レイヤー_2
 62
     7
100
AcDbLine
 10
59.549854
 20
221.047662
 30
0.0
 11
59.56639
 21
221.024924
 31
0.0
  0
LINE
  5
280
100
AcDbEntity
  8
レイヤー_2
 62
     7
100
AcDbLine
 10
63.958887
 20
220.819941
 30
0.0
 11
63.956475
 21
221.032503
 31
0.0
  0
LINE
  5
27F
100
AcDbEntity
  8
レイヤー_2
 62
     7
100
AcDbLine
 10
66.280881
 20
220.819941
 30
0.0
 11
66.27778
 21
221.032503
 31
0.0
  0
LINE
  5
27E
100
AcDbEntity
  8
レイヤー_2
 62
     7
100
AcDbLine
 10
66.74528
 20
220.819941
 30
0.0
 11
66.742179
 21
221.032503
 31
0.0
  0
LINE
  5
27D
100
AcDbEntity
  8
レイヤー_2
 62
     7
100
AcDbLine
 10
63.031123
 20
220.819941
 30
0.0
 11
63.027677
 21
221.032503
 31
0.0
  0
LINE
  5
27C
100
AcDbEntity
  8
レイヤー_2
 62
     7
100
AcDbLine
 10
64.887684
 20
220.819941
 30
0.0
 11
64.884928
 21
221.032503
 31
0.0
  0
LINE
  5
27B
100
AcDbEntity
  8
レイヤー_2
 62
     7
100
AcDbLine
 10
61.637926
 20
220.819941
 30
0.0
 11
61.634825
 21
221.032503
 31
0.0
  0
LINE
  5
27A
100
AcDbEntity
  8
レイヤー_2
 62
     7
100
AcDbLine
 10
65.816482
 20
220.819941
 30
0.0
 11
65.813726
 21
221.032503
 31
0.0
  0
LINE
  5
279
100
AcDbEntity
  8
レイヤー_2
 62
     7
100
AcDbLine
 10
60.709128
 20
220.819941
 30
0.0
 11
60.706717
 21
221.032503
 31
0.0
  0
LINE
  5
278
100
AcDbEntity
  8
レイヤー_2
 62
     7
100
AcDbLine
 10
63.495177
 20
220.819941
 30
0.0
 11
63.492076
 21
221.032503
 31
0.0
  0
LINE
  5
277
100
AcDbEntity
  8
レイヤー_2
 62
     7
100
AcDbLine
 10
62.566724
 20
220.819941
 30
0.0
 11
62.563279
 21
221.032503
 31
0.0
  0
LINE
  5
276
100
AcDbEntity
  8
レイヤー_2
 62
     7
100
AcDbLine
 10
61.173527
 20
220.819941
 30
0.0
 11
61.170426
 21
221.032503
 31
0.0
  0
LINE
  5
275
100
AcDbEntity
  8
レイヤー_2
 62
     7
100
AcDbLine
 10
62.102325
 20
220.819941
 30
0.0
 11
62.099224
 21
221.032503
 31
0.0
  0
LINE
  5
274
100
AcDbEntity
  8
レイヤー_2
 62
     7
100
AcDbLine
 10
64.423286
 20
220.819941
 30
0.0
 11
64.420874
 21
221.032503
 31
0.0
  0
LINE
  5
273
100
AcDbEntity
  8
レイヤー_2
 62
     7
100
AcDbLine
 10
65.352083
 20
220.819941
 30
0.0
 11
65.349327
 21
221.032503
 31
0.0
  0
LINE
  5
272
100
AcDbEntity
  8
レイヤー_2
 62
     7
100
AcDbLine
 10
60.315698
 20
221.032503
 30
0.0
 11
60.313287
 21
220.819941
 31
0.0
  0
LINE
  5
271
100
AcDbEntity
  8
レイヤー_2
 62
     7
100
AcDbLine
 10
66.81556
 20
221.032503
 30
0.0
 11
66.813148
 21
220.819941
 31
0.0
  0
LINE
  5
270
100
AcDbEntity
  8
レイヤー_2
 62
     7
100
AcDbLine
 10
65.423052
 20
221.032503
 30
0.0
 11
65.420296
 21
220.819941
 31
0.0
  0
LINE
  5
26F
100
AcDbEntity
  8
レイヤー_2
 62
     7
100
AcDbLine
 10
63.102091
 20
221.032503
 30
0.0
 11
63.098302
 21
220.819941
 31
0.0
  0
LINE
  5
26E
100
AcDbEntity
  8
レイヤー_2
 62
     7
100
AcDbLine
 10
66.35185
 20
221.032503
 30
0.0
 11
66.348749
 21
220.819941
 31
0.0
  0
LINE
  5
26D
100
AcDbEntity
  8
レイヤー_2
 62
     7
100
AcDbLine
 10
65.887451
 20
221.032503
 30
0.0
 11
65.884695
 21
220.819941
 31
0.0
  0
LINE
  5
26C
100
AcDbEntity
  8
レイヤー_2
 62
     7
100
AcDbLine
 10
62.172949
 20
221.032503
 30
0.0
 11
62.170193
 21
220.819941
 31
0.0
  0
LINE
  5
26B
100
AcDbEntity
  8
レイヤー_2
 62
     7
100
AcDbLine
 10
60.780097
 20
221.032503
 30
0.0
 11
60.777686
 21
220.819941
 31
0.0
  0
LINE
  5
26A
100
AcDbEntity
  8
レイヤー_2
 62
     7
100
AcDbLine
 10
64.030545
 20
221.032503
 30
0.0
 11
64.028133
 21
220.819941
 31
0.0
  0
LINE
  5
269
100
AcDbEntity
  8
レイヤー_2
 62
     7
100
AcDbLine
 10
62.637348
 20
221.032503
 30
0.0
 11
62.634592
 21
220.819941
 31
0.0
  0
LINE
  5
268
100
AcDbEntity
  8
レイヤー_2
 62
     7
100
AcDbLine
 10
63.566146
 20
221.032503
 30
0.0
 11
63.563734
 21
220.819941
 31
0.0
  0
LINE
  5
267
100
AcDbEntity
  8
レイヤー_2
 62
     7
100
AcDbLine
 10
64.494599
 20
221.032503
 30
0.0
 11
64.491843
 21
220.819941
 31
0.0
  0
LINE
  5
266
100
AcDbEntity
  8
レイヤー_2
 62
     7
100
AcDbLine
 10
61.244496
 20
221.032503
 30
0.0
 11
61.242084
 21
220.819941
 31
0.0
  0
LINE
  5
265
100
AcDbEntity
  8
レイヤー_2
 62
     7
100
AcDbLine
 10
61.70855
 20
221.032503
 30
0.0
 11
61.706139
 21
220.819941
 31
0.0
  0
LINE
  5
264
100
AcDbEntity
  8
レイヤー_2
 62
     7
100
AcDbLine
 10
64.958653
 20
221.032503
 30
0.0
 11
64.956242
 21
220.819941
 31
0.0
  0
LINE
  5
263
100
AcDbEntity
  8
レイヤー_2
 62
     7
100
AcDbLine
 10
60.245074
 20
220.819941
 30
0.0
 11
60.242662
 21
221.032503
 31
0.0
  0
LINE
  5
262
100
AcDbEntity
  8
レイヤー_2
 62
     7
100
AcDbLine
 10
66.778697
 20
220.298009
 30
0.0
 11
66.778697
 21
220.345896
 31
0.0
  0
POLYLINE
  5
259
100
AcDbEntity
  8
レイヤー_2
 62
     7
100
AcDb2dPolyline
 66
     1
 10
0.0
 20
0.0
 30
0.0
  0
VERTEX
  5
25A
100
AcDbEntity
  8
レイヤー_2
 62
     7
100
AcDbVertex
100
AcDb2dVertex
 10
66.778697
 20
220.345896
 30
0.0
  0
VERTEX
  5
25B
100
AcDbEntity
  8
レイヤー_2
 62
     7
100
AcDbVertex
100
AcDb2dVertex
 10
66.783521
 20
220.346585
 30
0.0
  0
VERTEX
  5
25C
100
AcDbEntity
  8
レイヤー_2
 62
     7
100
AcDbVertex
100
AcDb2dVertex
 10
66.7942
 20
220.348307
 30
0.0
  0
VERTEX
  5
25D
100
AcDbEntity
  8
レイヤー_2
 62
     7
100
AcDbVertex
100
AcDb2dVertex
 10
66.803158
 20
220.35313
 30
0.0
  0
VERTEX
  5
25E
100
AcDbEntity
  8
レイヤー_2
 62
     7
100
AcDbVertex
100
AcDb2dVertex
 10
66.810048
 20
220.358987
 30
0.0
  0
VERTEX
  5
25F
100
AcDbEntity
  8
レイヤー_2
 62
     7
100
AcDbVertex
100
AcDb2dVertex
 10
66.813148
 20
220.366222
 30
0.0
  0
VERTEX
  5
260
100
AcDbEntity
  8
レイヤー_2
 62
     7
100
AcDbVertex
100
AcDb2dVertex
 10
66.813148
 20
220.368633
 30
0.0
  0
SEQEND
  5
261
100
AcDbEntity
  8
レイヤー_2
 62
     7
  0
POLYLINE
  5
251
100
AcDbEntity
  8
レイヤー_2
 62
     7
100
AcDb2dPolyline
 66
     1
 10
0.0
 20
0.0
 30
0.0
  0
VERTEX
  5
252
100
AcDbEntity
  8
レイヤー_2
 62
     7
100
AcDbVertex
100
AcDb2dVertex
 10
60.245074
 20
220.368633
 30
0.0
  0
VERTEX
  5
253
100
AcDbEntity
  8
レイヤー_2
 62
     7
100
AcDbVertex
100
AcDb2dVertex
 10
60.246796
 20
220.361399
 30
0.0
  0
VERTEX
  5
254
100
AcDbEntity
  8
レイヤー_2
 62
     7
100
AcDbVertex
100
AcDb2dVertex
 10
60.252653
 20
220.355197
 30
0.0
  0
VERTEX
  5
255
100
AcDbEntity
  8
レイヤー_2
 62
     7
100
AcDbVertex
100
AcDb2dVertex
 10
60.261266
 20
220.349341
 30
0.0
  0
VERTEX
  5
256
100
AcDbEntity
  8
レイヤー_2
 62
     7
100
AcDbVertex
100
AcDb2dVertex
 10
60.271946
 20
220.346585
 30
0.0
  0
VERTEX
  5
257
100
AcDbEntity
  8
レイヤー_2
 62
     7
100
AcDbVertex
100
AcDb2dVertex
 10
60.278836
 20
220.345896
 30
0.0
  0
SEQEND
  5
258
100
AcDbEntity
  8
レイヤー_2
 62
     7
  0
LINE
  5
250
100
AcDbEntity
  8
レイヤー_2
 62
     7
100
AcDbLine
 10
60.278836
 20
220.298009
 30
0.0
 11
60.278836
 21
220.345896
 31
0.0
  0
LINE
  5
24F
100
AcDbEntity
  8
レイヤー_2
 62
     7
100
AcDbLine
 10
60.245074
 20
220.819941
 30
0.0
 11
59.716941
 21
220.819941
 31
0.0
  0
LINE
  5
24E
100
AcDbEntity
  8
レイヤー_2
 62
     7
100
AcDbLine
 10
60.252653
 20
220.760341
 30
0.0
 11
60.278836
 21
220.772399
 31
0.0
  0
LINE
  5
24D
100
AcDbEntity
  8
レイヤー_2
 62
     7
100
AcDbLine
 10
66.778697
 20
220.772399
 30
0.0
 11
66.805225
 21
220.760341
 31
0.0
  0
LINE
  5
24C
100
AcDbEntity
  8
レイヤー_2
 62
     7
100
AcDbLine
 10
67.34197
 20
220.819941
 30
0.0
 11
66.813148
 21
220.819941
 31
0.0
  0
LINE
  5
24B
100
AcDbEntity
  8
レイヤー_2
 62
     7
100
AcDbLine
 10
60.743235
 20
220.772399
 30
0.0
 11
60.769762
 21
220.760341
 31
0.0
  0
LINE
  5
24A
100
AcDbEntity
  8
レイヤー_2
 62
     7
100
AcDbLine
 10
61.173527
 20
220.819941
 30
0.0
 11
60.777686
 21
220.819941
 31
0.0
  0
LINE
  5
249
100
AcDbEntity
  8
レイヤー_2
 62
     7
100
AcDbLine
 10
61.181106
 20
220.760341
 30
0.0
 11
61.207633
 21
220.772399
 31
0.0
  0
LINE
  5
248
100
AcDbEntity
  8
レイヤー_2
 62
     7
100
AcDbLine
 10
61.672032
 20
220.772399
 30
0.0
 11
61.697871
 21
220.760341
 31
0.0
  0
LINE
  5
247
100
AcDbEntity
  8
レイヤー_2
 62
     7
100
AcDbLine
 10
62.102325
 20
220.819941
 30
0.0
 11
61.706139
 21
220.819941
 31
0.0
  0
LINE
  5
246
100
AcDbEntity
  8
レイヤー_2
 62
     7
100
AcDbLine
 10
62.110248
 20
220.760341
 30
0.0
 11
62.136431
 21
220.772399
 31
0.0
  0
LINE
  5
245
100
AcDbEntity
  8
レイヤー_2
 62
     7
100
AcDbLine
 10
64.921791
 20
220.772399
 30
0.0
 11
64.947974
 21
220.760341
 31
0.0
  0
LINE
  5
244
100
AcDbEntity
  8
レイヤー_2
 62
     7
100
AcDbLine
 10
65.352083
 20
220.819941
 30
0.0
 11
64.956242
 21
220.819941
 31
0.0
  0
LINE
  5
243
100
AcDbEntity
  8
レイヤー_2
 62
     7
100
AcDbLine
 10
65.360007
 20
220.760341
 30
0.0
 11
65.386534
 21
220.772399
 31
0.0
  0
LINE
  5
242
100
AcDbEntity
  8
レイヤー_2
 62
     7
100
AcDbLine
 10
66.314988
 20
220.772399
 30
0.0
 11
66.340826
 21
220.760341
 31
0.0
  0
LINE
  5
241
100
AcDbEntity
  8
レイヤー_2
 62
     7
100
AcDbLine
 10
66.74528
 20
220.819941
 30
0.0
 11
66.348749
 21
220.819941
 31
0.0
  0
LINE
  5
240
100
AcDbEntity
  8
レイヤー_2
 62
     7
100
AcDbLine
 10
66.752515
 20
220.760341
 30
0.0
 11
66.778697
 21
220.772399
 31
0.0
  0
LINE
  5
23F
100
AcDbEntity
  8
レイヤー_2
 62
     7
100
AcDbLine
 10
63.528939
 20
220.772399
 30
0.0
 11
63.555466
 21
220.760341
 31
0.0
  0
LINE
  5
23E
100
AcDbEntity
  8
レイヤー_2
 62
     7
100
AcDbLine
 10
63.958887
 20
220.819941
 30
0.0
 11
63.563734
 21
220.819941
 31
0.0
  0
LINE
  5
23D
100
AcDbEntity
  8
レイヤー_2
 62
     7
100
AcDbLine
 10
63.967499
 20
220.760341
 30
0.0
 11
63.993338
 21
220.772399
 31
0.0
  0
LINE
  5
23C
100
AcDbEntity
  8
レイヤー_2
 62
     7
100
AcDbLine
 10
60.717052
 20
220.760341
 30
0.0
 11
60.743235
 21
220.772399
 31
0.0
  0
LINE
  5
23B
100
AcDbEntity
  8
レイヤー_2
 62
     7
100
AcDbLine
 10
60.278836
 20
220.772399
 30
0.0
 11
60.305363
 21
220.760341
 31
0.0
  0
LINE
  5
23A
100
AcDbEntity
  8
レイヤー_2
 62
     7
100
AcDbLine
 10
60.709128
 20
220.819941
 30
0.0
 11
60.313287
 21
220.819941
 31
0.0
  0
LINE
  5
239
100
AcDbEntity
  8
レイヤー_2
 62
     7
100
AcDbLine
 10
63.064884
 20
220.772399
 30
0.0
 11
63.091067
 21
220.760341
 31
0.0
  0
LINE
  5
238
100
AcDbEntity
  8
レイヤー_2
 62
     7
100
AcDbLine
 10
63.495177
 20
220.819941
 30
0.0
 11
63.098302
 21
220.819941
 31
0.0
  0
LINE
  5
237
100
AcDbEntity
  8
レイヤー_2
 62
     7
100
AcDbLine
 10
63.503101
 20
220.760341
 30
0.0
 11
63.528939
 21
220.772399
 31
0.0
  0
LINE
  5
236
100
AcDbEntity
  8
レイヤー_2
 62
     7
100
AcDbLine
 10
62.600486
 20
220.772399
 30
0.0
 11
62.626324
 21
220.760341
 31
0.0
  0
LINE
  5
235
100
AcDbEntity
  8
レイヤー_2
 62
     7
100
AcDbLine
 10
63.031123
 20
220.819941
 30
0.0
 11
62.634592
 21
220.819941
 31
0.0
  0
LINE
  5
234
100
AcDbEntity
  8
レイヤー_2
 62
     7
100
AcDbLine
 10
63.039046
 20
220.760341
 30
0.0
 11
63.064884
 21
220.772399
 31
0.0
  0
LINE
  5
233
100
AcDbEntity
  8
レイヤー_2
 62
     7
100
AcDbLine
 10
64.457392
 20
220.772399
 30
0.0
 11
64.483919
 21
220.760341
 31
0.0
  0
LINE
  5
232
100
AcDbEntity
  8
レイヤー_2
 62
     7
100
AcDbLine
 10
64.887684
 20
220.819941
 30
0.0
 11
64.491843
 21
220.819941
 31
0.0
  0
LINE
  5
231
100
AcDbEntity
  8
レイヤー_2
 62
     7
100
AcDbLine
 10
64.895608
 20
220.760341
 30
0.0
 11
64.921791
 21
220.772399
 31
0.0
  0
LINE
  5
230
100
AcDbEntity
  8
レイヤー_2
 62
     7
100
AcDbLine
 10
63.993338
 20
220.772399
 30
0.0
 11
64.01952
 21
220.760341
 31
0.0
  0
LINE
  5
22F
100
AcDbEntity
  8
レイヤー_2
 62
     7
100
AcDbLine
 10
64.423286
 20
220.819941
 30
0.0
 11
64.028133
 21
220.819941
 31
0.0
  0
LINE
  5
22E
100
AcDbEntity
  8
レイヤー_2
 62
     7
100
AcDbLine
 10
64.431898
 20
220.760341
 30
0.0
 11
64.457392
 21
220.772399
 31
0.0
  0
LINE
  5
22D
100
AcDbEntity
  8
レイヤー_2
 62
     7
100
AcDbLine
 10
65.386534
 20
220.772399
 30
0.0
 11
65.412373
 21
220.760341
 31
0.0
  0
LINE
  5
22C
100
AcDbEntity
  8
レイヤー_2
 62
     7
100
AcDbLine
 10
65.816482
 20
220.819941
 30
0.0
 11
65.420296
 21
220.819941
 31
0.0
  0
LINE
  5
22B
100
AcDbEntity
  8
レイヤー_2
 62
     7
100
AcDbLine
 10
65.824406
 20
220.760341
 30
0.0
 11
65.850589
 21
220.772399
 31
0.0
  0
LINE
  5
22A
100
AcDbEntity
  8
レイヤー_2
 62
     7
100
AcDbLine
 10
62.136431
 20
220.772399
 30
0.0
 11
62.162269
 21
220.760341
 31
0.0
  0
LINE
  5
229
100
AcDbEntity
  8
レイヤー_2
 62
     7
100
AcDbLine
 10
62.566724
 20
220.819941
 30
0.0
 11
62.170193
 21
220.819941
 31
0.0
  0
LINE
  5
228
100
AcDbEntity
  8
レイヤー_2
 62
     7
100
AcDbLine
 10
62.574647
 20
220.760341
 30
0.0
 11
62.600486
 21
220.772399
 31
0.0
  0
LINE
  5
227
100
AcDbEntity
  8
レイヤー_2
 62
     7
100
AcDbLine
 10
61.207633
 20
220.772399
 30
0.0
 11
61.233127
 21
220.760341
 31
0.0
  0
LINE
  5
226
100
AcDbEntity
  8
レイヤー_2
 62
     7
100
AcDbLine
 10
61.637926
 20
220.819941
 30
0.0
 11
61.242084
 21
220.819941
 31
0.0
  0
LINE
  5
225
100
AcDbEntity
  8
レイヤー_2
 62
     7
100
AcDbLine
 10
61.64585
 20
220.760341
 30
0.0
 11
61.672032
 21
220.772399
 31
0.0
  0
LINE
  5
224
100
AcDbEntity
  8
レイヤー_2
 62
     7
100
AcDbLine
 10
65.850589
 20
220.772399
 30
0.0
 11
65.876427
 21
220.760341
 31
0.0
  0
LINE
  5
223
100
AcDbEntity
  8
レイヤー_2
 62
     7
100
AcDbLine
 10
66.280881
 20
220.819941
 30
0.0
 11
65.884695
 21
220.819941
 31
0.0
  0
LINE
  5
222
100
AcDbEntity
  8
レイヤー_2
 62
     7
100
AcDbLine
 10
66.288116
 20
220.760341
 30
0.0
 11
66.314988
 21
220.772399
 31
0.0
  0
LINE
  5
221
100
AcDbEntity
  8
レイヤー_2
 62
     7
100
AcDbLine
 10
66.74528
 20
220.521251
 30
0.0
 11
66.74528
 21
220.760341
 31
0.0
  0
LINE
  5
220
100
AcDbEntity
  8
レイヤー_2
 62
     7
100
AcDbLine
 10
66.813148
 20
220.368633
 30
0.0
 11
66.813148
 21
220.760341
 31
0.0
  0
LINE
  5
21F
100
AcDbEntity
  8
レイヤー_2
 62
     7
100
AcDbLine
 10
66.778697
 20
220.345896
 30
0.0
 11
66.778697
 21
220.499202
 31
0.0
  0
LINE
  5
21E
100
AcDbEntity
  8
レイヤー_2
 62
     7
100
AcDbLine
 10
66.778697
 20
220.499202
 30
0.0
 11
66.772841
 21
220.499891
 31
0.0
  0
LINE
  5
21D
100
AcDbEntity
  8
レイヤー_2
 62
     7
100
AcDbLine
 10
66.772841
 20
220.499891
 30
0.0
 11
66.76664
 21
220.500925
 31
0.0
  0
LINE
  5
21C
100
AcDbEntity
  8
レイヤー_2
 62
     7
100
AcDbLine
 10
66.76664
 20
220.500925
 30
0.0
 11
66.760094
 21
220.502992
 31
0.0
  0
LINE
  5
21B
100
AcDbEntity
  8
レイヤー_2
 62
     7
100
AcDbLine
 10
66.760094
 20
220.502992
 30
0.0
 11
66.754582
 21
220.505748
 31
0.0
  0
LINE
  5
21A
100
AcDbEntity
  8
レイヤー_2
 62
     7
100
AcDbLine
 10
66.754582
 20
220.505748
 30
0.0
 11
66.750448
 21
220.508849
 31
0.0
  0
LINE
  5
219
100
AcDbEntity
  8
レイヤー_2
 62
     7
100
AcDbLine
 10
66.750448
 20
220.508849
 30
0.0
 11
66.747692
 21
220.512638
 31
0.0
  0
LINE
  5
218
100
AcDbEntity
  8
レイヤー_2
 62
     7
100
AcDbLine
 10
66.747692
 20
220.512638
 30
0.0
 11
66.745969
 21
220.516772
 31
0.0
  0
LINE
  5
217
100
AcDbEntity
  8
レイヤー_2
 62
     7
100
AcDbLine
 10
66.745969
 20
220.516772
 30
0.0
 11
66.74528
 21
220.521251
 31
0.0
  0
LINE
  5
216
100
AcDbEntity
  8
レイヤー_2
 62
     7
100
AcDbLine
 10
65.884695
 20
220.521251
 30
0.0
 11
65.884695
 21
220.760341
 31
0.0
  0
LINE
  5
215
100
AcDbEntity
  8
レイヤー_2
 62
     7
100
AcDbLine
 10
65.816482
 20
220.521251
 30
0.0
 11
65.819238
 21
220.512638
 31
0.0
  0
LINE
  5
214
100
AcDbEntity
  8
レイヤー_2
 62
     7
100
AcDbLine
 10
65.819238
 20
220.512638
 30
0.0
 11
65.826473
 21
220.505748
 31
0.0
  0
LINE
  5
213
100
AcDbEntity
  8
レイヤー_2
 62
     7
100
AcDbLine
 10
65.826473
 20
220.505748
 30
0.0
 11
65.836808
 21
220.500925
 31
0.0
  0
LINE
  5
212
100
AcDbEntity
  8
レイヤー_2
 62
     7
100
AcDbLine
 10
65.836808
 20
220.500925
 30
0.0
 11
65.850589
 21
220.499202
 31
0.0
  0
LINE
  5
211
100
AcDbEntity
  8
レイヤー_2
 62
     7
100
AcDbLine
 10
65.850589
 20
220.499202
 30
0.0
 11
65.86368
 21
220.500925
 31
0.0
  0
LINE
  5
210
100
AcDbEntity
  8
レイヤー_2
 62
     7
100
AcDbLine
 10
65.86368
 20
220.500925
 30
0.0
 11
65.874704
 21
220.505748
 31
0.0
  0
LINE
  5
20F
100
AcDbEntity
  8
レイヤー_2
 62
     7
100
AcDbLine
 10
65.874704
 20
220.505748
 30
0.0
 11
65.882284
 21
220.512638
 31
0.0
  0
LINE
  5
20E
100
AcDbEntity
  8
レイヤー_2
 62
     7
100
AcDbLine
 10
65.882284
 20
220.512638
 30
0.0
 11
65.884695
 21
220.521251
 31
0.0
  0
LINE
  5
20D
100
AcDbEntity
  8
レイヤー_2
 62
     7
100
AcDbLine
 10
65.816482
 20
220.521251
 30
0.0
 11
65.816482
 21
220.760341
 31
0.0
  0
LINE
  5
20C
100
AcDbEntity
  8
レイヤー_2
 62
     7
100
AcDbLine
 10
60.777686
 20
220.521251
 30
0.0
 11
60.777686
 21
220.760341
 31
0.0
  0
LINE
  5
20B
100
AcDbEntity
  8
レイヤー_2
 62
     7
100
AcDbLine
 10
60.709128
 20
220.521251
 30
0.0
 11
60.712229
 21
220.512638
 31
0.0
  0
LINE
  5
20A
100
AcDbEntity
  8
レイヤー_2
 62
     7
100
AcDbLine
 10
60.712229
 20
220.512638
 30
0.0
 11
60.719119
 21
220.505748
 31
0.0
  0
LINE
  5
209
100
AcDbEntity
  8
レイヤー_2
 62
     7
100
AcDbLine
 10
60.719119
 20
220.505748
 30
0.0
 11
60.729799
 21
220.500925
 31
0.0
  0
LINE
  5
208
100
AcDbEntity
  8
レイヤー_2
 62
     7
100
AcDbLine
 10
60.729799
 20
220.500925
 30
0.0
 11
60.743235
 21
220.499202
 31
0.0
  0
LINE
  5
207
100
AcDbEntity
  8
レイヤー_2
 62
     7
100
AcDbLine
 10
60.743235
 20
220.499202
 30
0.0
 11
60.75667
 21
220.500925
 31
0.0
  0
LINE
  5
206
100
AcDbEntity
  8
レイヤー_2
 62
     7
100
AcDbLine
 10
60.75667
 20
220.500925
 30
0.0
 11
60.767695
 21
220.505748
 31
0.0
  0
LINE
  5
205
100
AcDbEntity
  8
レイヤー_2
 62
     7
100
AcDbLine
 10
60.767695
 20
220.505748
 30
0.0
 11
60.775274
 21
220.512638
 31
0.0
  0
LINE
  5
204
100
AcDbEntity
  8
レイヤー_2
 62
     7
100
AcDbLine
 10
60.775274
 20
220.512638
 30
0.0
 11
60.777686
 21
220.521251
 31
0.0
  0
LINE
  5
203
100
AcDbEntity
  8
レイヤー_2
 62
     7
100
AcDbLine
 10
60.709128
 20
220.521251
 30
0.0
 11
60.709128
 21
220.760341
 31
0.0
  0
LINE
  5
202
100
AcDbEntity
  8
レイヤー_2
 62
     7
100
AcDbLine
 10
62.634592
 20
220.521251
 30
0.0
 11
62.634592
 21
220.760341
 31
0.0
  0
LINE
  5
201
100
AcDbEntity
  8
レイヤー_2
 62
     7
100
AcDbLine
 10
62.566724
 20
220.521251
 30
0.0
 11
62.569135
 21
220.512638
 31
0.0
  0
LINE
  5
200
100
AcDbEntity
  8
レイヤー_2
 62
     7
100
AcDbLine
 10
62.569135
 20
220.512638
 30
0.0
 11
62.576025
 21
220.505748
 31
0.0
  0
LINE
  5
1FF
100
AcDbEntity
  8
レイヤー_2
 62
     7
100
AcDbLine
 10
62.576025
 20
220.505748
 30
0.0
 11
62.587739
 21
220.500925
 31
0.0
  0
LINE
  5
1FE
100
AcDbEntity
  8
レイヤー_2
 62
     7
100
AcDbLine
 10
62.587739
 20
220.500925
 30
0.0
 11
62.600486
 21
220.499202
 31
0.0
  0
LINE
  5
1FD
100
AcDbEntity
  8
レイヤー_2
 62
     7
100
AcDbLine
 10
62.600486
 20
220.499202
 30
0.0
 11
62.613577
 21
220.500925
 31
0.0
  0
LINE
  5
1FC
100
AcDbEntity
  8
レイヤー_2
 62
     7
100
AcDbLine
 10
62.613577
 20
220.500925
 30
0.0
 11
62.624257
 21
220.505748
 31
0.0
  0
LINE
  5
1FB
100
AcDbEntity
  8
レイヤー_2
 62
     7
100
AcDbLine
 10
62.624257
 20
220.505748
 30
0.0
 11
62.63218
 21
220.512638
 31
0.0
  0
LINE
  5
1FA
100
AcDbEntity
  8
レイヤー_2
 62
     7
100
AcDbLine
 10
62.63218
 20
220.512638
 30
0.0
 11
62.634592
 21
220.521251
 31
0.0
  0
LINE
  5
1F9
100
AcDbEntity
  8
レイヤー_2
 62
     7
100
AcDbLine
 10
62.566724
 20
220.521251
 30
0.0
 11
62.566724
 21
220.760341
 31
0.0
  0
LINE
  5
1F8
100
AcDbEntity
  8
レイヤー_2
 62
     7
100
AcDbLine
 10
63.563734
 20
220.521251
 30
0.0
 11
63.563734
 21
220.760341
 31
0.0
  0
LINE
  5
1F7
100
AcDbEntity
  8
レイヤー_2
 62
     7
100
AcDbLine
 10
63.495177
 20
220.521251
 30
0.0
 11
63.497588
 21
220.512638
 31
0.0
  0
LINE
  5
1F6
100
AcDbEntity
  8
レイヤー_2
 62
     7
100
AcDbLine
 10
63.497588
 20
220.512638
 30
0.0
 11
63.505168
 21
220.505748
 31
0.0
  0
LINE
  5
1F5
100
AcDbEntity
  8
レイヤー_2
 62
     7
100
AcDbLine
 10
63.505168
 20
220.505748
 30
0.0
 11
63.515847
 21
220.500925
 31
0.0
  0
LINE
  5
1F4
100
AcDbEntity
  8
レイヤー_2
 62
     7
100
AcDbLine
 10
63.515847
 20
220.500925
 30
0.0
 11
63.528939
 21
220.499202
 31
0.0
  0
LINE
  5
1F3
100
AcDbEntity
  8
レイヤー_2
 62
     7
100
AcDbLine
 10
63.528939
 20
220.499202
 30
0.0
 11
63.54203
 21
220.500925
 31
0.0
  0
LINE
  5
1F2
100
AcDbEntity
  8
レイヤー_2
 62
     7
100
AcDbLine
 10
63.54203
 20
220.500925
 30
0.0
 11
63.553399
 21
220.505748
 31
0.0
  0
LINE
  5
1F1
100
AcDbEntity
  8
レイヤー_2
 62
     7
100
AcDbLine
 10
63.553399
 20
220.505748
 30
0.0
 11
63.560289
 21
220.512638
 31
0.0
  0
LINE
  5
1F0
100
AcDbEntity
  8
レイヤー_2
 62
     7
100
AcDbLine
 10
63.560289
 20
220.512638
 30
0.0
 11
63.563734
 21
220.521251
 31
0.0
  0
LINE
  5
1EF
100
AcDbEntity
  8
レイヤー_2
 62
     7
100
AcDbLine
 10
63.495177
 20
220.521251
 30
0.0
 11
63.495177
 21
220.760341
 31
0.0
  0
LINE
  5
1EE
100
AcDbEntity
  8
レイヤー_2
 62
     7
100
AcDbLine
 10
64.028133
 20
220.521251
 30
0.0
 11
64.028133
 21
220.760341
 31
0.0
  0
LINE
  5
1ED
100
AcDbEntity
  8
レイヤー_2
 62
     7
100
AcDbLine
 10
63.958887
 20
220.521251
 30
0.0
 11
63.961987
 21
220.512638
 31
0.0
  0
LINE
  5
1EC
100
AcDbEntity
  8
レイヤー_2
 62
     7
100
AcDbLine
 10
63.961987
 20
220.512638
 30
0.0
 11
63.969567
 21
220.505748
 31
0.0
  0
LINE
  5
1EB
100
AcDbEntity
  8
レイヤー_2
 62
     7
100
AcDbLine
 10
63.969567
 20
220.505748
 30
0.0
 11
63.980246
 21
220.500925
 31
0.0
  0
LINE
  5
1EA
100
AcDbEntity
  8
レイヤー_2
 62
     7
100
AcDbLine
 10
63.980246
 20
220.500925
 30
0.0
 11
63.993338
 21
220.499202
 31
0.0
  0
LINE
  5
1E9
100
AcDbEntity
  8
レイヤー_2
 62
     7
100
AcDbLine
 10
63.993338
 20
220.499202
 30
0.0
 11
64.006774
 21
220.500925
 31
0.0
  0
LINE
  5
1E8
100
AcDbEntity
  8
レイヤー_2
 62
     7
100
AcDbLine
 10
64.006774
 20
220.500925
 30
0.0
 11
64.017453
 21
220.505748
 31
0.0
  0
LINE
  5
1E7
100
AcDbEntity
  8
レイヤー_2
 62
     7
100
AcDbLine
 10
64.017453
 20
220.505748
 30
0.0
 11
64.024688
 21
220.512638
 31
0.0
  0
LINE
  5
1E6
100
AcDbEntity
  8
レイヤー_2
 62
     7
100
AcDbLine
 10
64.024688
 20
220.512638
 30
0.0
 11
64.028133
 21
220.521251
 31
0.0
  0
LINE
  5
1E5
100
AcDbEntity
  8
レイヤー_2
 62
     7
100
AcDbLine
 10
63.958887
 20
220.521251
 30
0.0
 11
63.958887
 21
220.760341
 31
0.0
  0
LINE
  5
1E4
100
AcDbEntity
  8
レイヤー_2
 62
     7
100
AcDbLine
 10
64.491843
 20
220.521251
 30
0.0
 11
64.491843
 21
220.760341
 31
0.0
  0
LINE
  5
1E3
100
AcDbEntity
  8
レイヤー_2
 62
     7
100
AcDbLine
 10
64.423286
 20
220.521251
 30
0.0
 11
64.426042
 21
220.512638
 31
0.0
  0
LINE
  5
1E2
100
AcDbEntity
  8
レイヤー_2
 62
     7
100
AcDbLine
 10
64.426042
 20
220.512638
 30
0.0
 11
64.433965
 21
220.505748
 31
0.0
  0
LINE
  5
1E1
100
AcDbEntity
  8
レイヤー_2
 62
     7
100
AcDbLine
 10
64.433965
 20
220.505748
 30
0.0
 11
64.444645
 21
220.500925
 31
0.0
  0
LINE
  5
1E0
100
AcDbEntity
  8
レイヤー_2
 62
     7
100
AcDbLine
 10
64.444645
 20
220.500925
 30
0.0
 11
64.457392
 21
220.499202
 31
0.0
  0
LINE
  5
1DF
100
AcDbEntity
  8
レイヤー_2
 62
     7
100
AcDbLine
 10
64.457392
 20
220.499202
 30
0.0
 11
64.470828
 21
220.500925
 31
0.0
  0
LINE
  5
1DE
100
AcDbEntity
  8
レイヤー_2
 62
     7
100
AcDbLine
 10
64.470828
 20
220.500925
 30
0.0
 11
64.481852
 21
220.505748
 31
0.0
  0
LINE
  5
1DD
100
AcDbEntity
  8
レイヤー_2
 62
     7
100
AcDbLine
 10
64.481852
 20
220.505748
 30
0.0
 11
64.489087
 21
220.512638
 31
0.0
  0
LINE
  5
1DC
100
AcDbEntity
  8
レイヤー_2
 62
     7
100
AcDbLine
 10
64.489087
 20
220.512638
 30
0.0
 11
64.491843
 21
220.521251
 31
0.0
  0
LINE
  5
1DB
100
AcDbEntity
  8
レイヤー_2
 62
     7
100
AcDbLine
 10
64.423286
 20
220.521251
 30
0.0
 11
64.423286
 21
220.760341
 31
0.0
  0
LINE
  5
1DA
100
AcDbEntity
  8
レイヤー_2
 62
     7
100
AcDbLine
 10
61.242084
 20
220.521251
 30
0.0
 11
61.242084
 21
220.760341
 31
0.0
  0
LINE
  5
1D9
100
AcDbEntity
  8
レイヤー_2
 62
     7
100
AcDbLine
 10
61.173527
 20
220.521251
 30
0.0
 11
61.176628
 21
220.512638
 31
0.0
  0
LINE
  5
1D8
100
AcDbEntity
  8
レイヤー_2
 62
     7
100
AcDbLine
 10
61.176628
 20
220.512638
 30
0.0
 11
61.183173
 21
220.505748
 31
0.0
  0
LINE
  5
1D7
100
AcDbEntity
  8
レイヤー_2
 62
     7
100
AcDbLine
 10
61.183173
 20
220.505748
 30
0.0
 11
61.194198
 21
220.500925
 31
0.0
  0
LINE
  5
1D6
100
AcDbEntity
  8
レイヤー_2
 62
     7
100
AcDbLine
 10
61.194198
 20
220.500925
 30
0.0
 11
61.207633
 21
220.499202
 31
0.0
  0
LINE
  5
1D5
100
AcDbEntity
  8
レイヤー_2
 62
     7
100
AcDbLine
 10
61.207633
 20
220.499202
 30
0.0
 11
61.221069
 21
220.500925
 31
0.0
  0
LINE
  5
1D4
100
AcDbEntity
  8
レイヤー_2
 62
     7
100
AcDbLine
 10
61.221069
 20
220.500925
 30
0.0
 11
61.232094
 21
220.505748
 31
0.0
  0
LINE
  5
1D3
100
AcDbEntity
  8
レイヤー_2
 62
     7
100
AcDbLine
 10
61.232094
 20
220.505748
 30
0.0
 11
61.239673
 21
220.512638
 31
0.0
  0
LINE
  5
1D2
100
AcDbEntity
  8
レイヤー_2
 62
     7
100
AcDbLine
 10
61.239673
 20
220.512638
 30
0.0
 11
61.242084
 21
220.521251
 31
0.0
  0
LINE
  5
1D1
100
AcDbEntity
  8
レイヤー_2
 62
     7
100
AcDbLine
 10
61.173527
 20
220.521251
 30
0.0
 11
61.173527
 21
220.760341
 31
0.0
  0
LINE
  5
1D0
100
AcDbEntity
  8
レイヤー_2
 62
     7
100
AcDbLine
 10
61.706139
 20
220.521251
 30
0.0
 11
61.706139
 21
220.760341
 31
0.0
  0
LINE
  5
1CF
100
AcDbEntity
  8
レイヤー_2
 62
     7
100
AcDbLine
 10
61.637926
 20
220.521251
 30
0.0
 11
61.640337
 21
220.512638
 31
0.0
  0
LINE
  5
1CE
100
AcDbEntity
  8
レイヤー_2
 62
     7
100
AcDbLine
 10
61.640337
 20
220.512638
 30
0.0
 11
61.647572
 21
220.505748
 31
0.0
  0
LINE
  5
1CD
100
AcDbEntity
  8
レイヤー_2
 62
     7
100
AcDbLine
 10
61.647572
 20
220.505748
 30
0.0
 11
61.658941
 21
220.500925
 31
0.0
  0
LINE
  5
1CC
100
AcDbEntity
  8
レイヤー_2
 62
     7
100
AcDbLine
 10
61.658941
 20
220.500925
 30
0.0
 11
61.672032
 21
220.499202
 31
0.0
  0
LINE
  5
1CB
100
AcDbEntity
  8
レイヤー_2
 62
     7
100
AcDbLine
 10
61.672032
 20
220.499202
 30
0.0
 11
61.684779
 21
220.500925
 31
0.0
  0
LINE
  5
1CA
100
AcDbEntity
  8
レイヤー_2
 62
     7
100
AcDbLine
 10
61.684779
 20
220.500925
 30
0.0
 11
61.695803
 21
220.505748
 31
0.0
  0
LINE
  5
1C9
100
AcDbEntity
  8
レイヤー_2
 62
     7
100
AcDbLine
 10
61.695803
 20
220.505748
 30
0.0
 11
61.703383
 21
220.512638
 31
0.0
  0
LINE
  5
1C8
100
AcDbEntity
  8
レイヤー_2
 62
     7
100
AcDbLine
 10
61.703383
 20
220.512638
 30
0.0
 11
61.706139
 21
220.521251
 31
0.0
  0
LINE
  5
1C7
100
AcDbEntity
  8
レイヤー_2
 62
     7
100
AcDbLine
 10
61.637926
 20
220.521251
 30
0.0
 11
61.637926
 21
220.760341
 31
0.0
  0
LINE
  5
1C6
100
AcDbEntity
  8
レイヤー_2
 62
     7
100
AcDbLine
 10
65.420296
 20
220.521251
 30
0.0
 11
65.420296
 21
220.760341
 31
0.0
  0
LINE
  5
1C5
100
AcDbEntity
  8
レイヤー_2
 62
     7
100
AcDbLine
 10
65.352083
 20
220.521251
 30
0.0
 11
65.354839
 21
220.512638
 31
0.0
  0
LINE
  5
1C4
100
AcDbEntity
  8
レイヤー_2
 62
     7
100
AcDbLine
 10
65.354839
 20
220.512638
 30
0.0
 11
65.362074
 21
220.505748
 31
0.0
  0
LINE
  5
1C3
100
AcDbEntity
  8
レイヤー_2
 62
     7
100
AcDbLine
 10
65.362074
 20
220.505748
 30
0.0
 11
65.373098
 21
220.500925
 31
0.0
  0
LINE
  5
1C2
100
AcDbEntity
  8
レイヤー_2
 62
     7
100
AcDbLine
 10
65.373098
 20
220.500925
 30
0.0
 11
65.386534
 21
220.499202
 31
0.0
  0
LINE
  5
1C1
100
AcDbEntity
  8
レイヤー_2
 62
     7
100
AcDbLine
 10
65.386534
 20
220.499202
 30
0.0
 11
65.399281
 21
220.500925
 31
0.0
  0
LINE
  5
1C0
100
AcDbEntity
  8
レイヤー_2
 62
     7
100
AcDbLine
 10
65.399281
 20
220.500925
 30
0.0
 11
65.410305
 21
220.505748
 31
0.0
  0
LINE
  5
1BF
100
AcDbEntity
  8
レイヤー_2
 62
     7
100
AcDbLine
 10
65.410305
 20
220.505748
 30
0.0
 11
65.418229
 21
220.512638
 31
0.0
  0
LINE
  5
1BE
100
AcDbEntity
  8
レイヤー_2
 62
     7
100
AcDbLine
 10
65.418229
 20
220.512638
 30
0.0
 11
65.420296
 21
220.521251
 31
0.0
  0
LINE
  5
1BD
100
AcDbEntity
  8
レイヤー_2
 62
     7
100
AcDbLine
 10
65.352083
 20
220.521251
 30
0.0
 11
65.352083
 21
220.760341
 31
0.0
  0
LINE
  5
1BC
100
AcDbEntity
  8
レイヤー_2
 62
     7
100
AcDbLine
 10
60.278836
 20
220.345896
 30
0.0
 11
60.278836
 21
220.499202
 31
0.0
  0
LINE
  5
1BB
100
AcDbEntity
  8
レイヤー_2
 62
     7
100
AcDbLine
 10
60.245074
 20
220.368633
 30
0.0
 11
60.245074
 21
220.760341
 31
0.0
  0
LINE
  5
1BA
100
AcDbEntity
  8
レイヤー_2
 62
     7
100
AcDbLine
 10
60.313287
 20
220.521251
 30
0.0
 11
60.313287
 21
220.760341
 31
0.0
  0
LINE
  5
1B9
100
AcDbEntity
  8
レイヤー_2
 62
     7
100
AcDbLine
 10
60.313287
 20
220.521251
 30
0.0
 11
60.312598
 21
220.516772
 31
0.0
  0
LINE
  5
1B8
100
AcDbEntity
  8
レイヤー_2
 62
     7
100
AcDbLine
 10
60.312598
 20
220.516772
 30
0.0
 11
60.31122
 21
220.512638
 31
0.0
  0
LINE
  5
1B7
100
AcDbEntity
  8
レイヤー_2
 62
     7
100
AcDbLine
 10
60.31122
 20
220.512638
 30
0.0
 11
60.30743
 21
220.508849
 31
0.0
  0
LINE
  5
1B6
100
AcDbEntity
  8
レイヤー_2
 62
     7
100
AcDbLine
 10
60.30743
 20
220.508849
 30
0.0
 11
60.303296
 21
220.505748
 31
0.0
  0
LINE
  5
1B5
100
AcDbEntity
  8
レイヤー_2
 62
     7
100
AcDbLine
 10
60.303296
 20
220.505748
 30
0.0
 11
60.298128
 21
220.502992
 31
0.0
  0
LINE
  5
1B4
100
AcDbEntity
  8
レイヤー_2
 62
     7
100
AcDbLine
 10
60.298128
 20
220.502992
 30
0.0
 11
60.292272
 21
220.500925
 31
0.0
  0
LINE
  5
1B3
100
AcDbEntity
  8
レイヤー_2
 62
     7
100
AcDbLine
 10
60.292272
 20
220.500925
 30
0.0
 11
60.285726
 21
220.499891
 31
0.0
  0
LINE
  5
1B2
100
AcDbEntity
  8
レイヤー_2
 62
     7
100
AcDbLine
 10
60.285726
 20
220.499891
 30
0.0
 11
60.278836
 21
220.499202
 31
0.0
  0
LINE
  5
1B1
100
AcDbEntity
  8
レイヤー_2
 62
     7
100
AcDbLine
 10
63.098302
 20
220.521251
 30
0.0
 11
63.098302
 21
220.760341
 31
0.0
  0
LINE
  5
1B0
100
AcDbEntity
  8
レイヤー_2
 62
     7
100
AcDbLine
 10
63.031123
 20
220.521251
 30
0.0
 11
63.03319
 21
220.512638
 31
0.0
  0
LINE
  5
1AF
100
AcDbEntity
  8
レイヤー_2
 62
     7
100
AcDbLine
 10
63.03319
 20
220.512638
 30
0.0
 11
63.040769
 21
220.505748
 31
0.0
  0
LINE
  5
1AE
100
AcDbEntity
  8
レイヤー_2
 62
     7
100
AcDbLine
 10
63.040769
 20
220.505748
 30
0.0
 11
63.052138
 21
220.500925
 31
0.0
  0
LINE
  5
1AD
100
AcDbEntity
  8
レイヤー_2
 62
     7
100
AcDbLine
 10
63.052138
 20
220.500925
 30
0.0
 11
63.064884
 21
220.499202
 31
0.0
  0
LINE
  5
1AC
100
AcDbEntity
  8
レイヤー_2
 62
     7
100
AcDbLine
 10
63.064884
 20
220.499202
 30
0.0
 11
63.077631
 21
220.500925
 31
0.0
  0
LINE
  5
1AB
100
AcDbEntity
  8
レイヤー_2
 62
     7
100
AcDbLine
 10
63.077631
 20
220.500925
 30
0.0
 11
63.089
 21
220.505748
 31
0.0
  0
LINE
  5
1AA
100
AcDbEntity
  8
レイヤー_2
 62
     7
100
AcDbLine
 10
63.089
 20
220.505748
 30
0.0
 11
63.09589
 21
220.512638
 31
0.0
  0
LINE
  5
1A9
100
AcDbEntity
  8
レイヤー_2
 62
     7
100
AcDbLine
 10
63.09589
 20
220.512638
 30
0.0
 11
63.098302
 21
220.521251
 31
0.0
  0
LINE
  5
1A8
100
AcDbEntity
  8
レイヤー_2
 62
     7
100
AcDbLine
 10
63.031123
 20
220.521251
 30
0.0
 11
63.031123
 21
220.760341
 31
0.0
  0
LINE
  5
1A7
100
AcDbEntity
  8
レイヤー_2
 62
     7
100
AcDbLine
 10
64.956242
 20
220.521251
 30
0.0
 11
64.956242
 21
220.760341
 31
0.0
  0
LINE
  5
1A6
100
AcDbEntity
  8
レイヤー_2
 62
     7
100
AcDbLine
 10
64.887684
 20
220.521251
 30
0.0
 11
64.890785
 21
220.512638
 31
0.0
  0
LINE
  5
1A5
100
AcDbEntity
  8
レイヤー_2
 62
     7
100
AcDbLine
 10
64.890785
 20
220.512638
 30
0.0
 11
64.897675
 21
220.505748
 31
0.0
  0
LINE
  5
1A4
100
AcDbEntity
  8
レイヤー_2
 62
     7
100
AcDbLine
 10
64.897675
 20
220.505748
 30
0.0
 11
64.9087
 21
220.500925
 31
0.0
  0
LINE
  5
1A3
100
AcDbEntity
  8
レイヤー_2
 62
     7
100
AcDbLine
 10
64.9087
 20
220.500925
 30
0.0
 11
64.921791
 21
220.499202
 31
0.0
  0
LINE
  5
1A2
100
AcDbEntity
  8
レイヤー_2
 62
     7
100
AcDbLine
 10
64.921791
 20
220.499202
 30
0.0
 11
64.935227
 21
220.500925
 31
0.0
  0
LINE
  5
1A1
100
AcDbEntity
  8
レイヤー_2
 62
     7
100
AcDbLine
 10
64.935227
 20
220.500925
 30
0.0
 11
64.946251
 21
220.505748
 31
0.0
  0
LINE
  5
1A0
100
AcDbEntity
  8
レイヤー_2
 62
     7
100
AcDbLine
 10
64.946251
 20
220.505748
 30
0.0
 11
64.953141
 21
220.512638
 31
0.0
  0
LINE
  5
19F
100
AcDbEntity
  8
レイヤー_2
 62
     7
100
AcDbLine
 10
64.953141
 20
220.512638
 30
0.0
 11
64.956242
 21
220.521251
 31
0.0
  0
LINE
  5
19E
100
AcDbEntity
  8
レイヤー_2
 62
     7
100
AcDbLine
 10
64.887684
 20
220.521251
 30
0.0
 11
64.887684
 21
220.760341
 31
0.0
  0
LINE
  5
19D
100
AcDbEntity
  8
レイヤー_2
 62
     7
100
AcDbLine
 10
62.170193
 20
220.521251
 30
0.0
 11
62.170193
 21
220.760341
 31
0.0
  0
LINE
  5
19C
100
AcDbEntity
  8
レイヤー_2
 62
     7
100
AcDbLine
 10
62.102325
 20
220.521251
 30
0.0
 11
62.104736
 21
220.512638
 31
0.0
  0
LINE
  5
19B
100
AcDbEntity
  8
レイヤー_2
 62
     7
100
AcDbLine
 10
62.104736
 20
220.512638
 30
0.0
 11
62.111627
 21
220.505748
 31
0.0
  0
LINE
  5
19A
100
AcDbEntity
  8
レイヤー_2
 62
     7
100
AcDbLine
 10
62.111627
 20
220.505748
 30
0.0
 11
62.12334
 21
220.500925
 31
0.0
  0
LINE
  5
199
100
AcDbEntity
  8
レイヤー_2
 62
     7
100
AcDbLine
 10
62.12334
 20
220.500925
 30
0.0
 11
62.136431
 21
220.499202
 31
0.0
  0
LINE
  5
198
100
AcDbEntity
  8
レイヤー_2
 62
     7
100
AcDbLine
 10
62.136431
 20
220.499202
 30
0.0
 11
62.149178
 21
220.500925
 31
0.0
  0
LINE
  5
197
100
AcDbEntity
  8
レイヤー_2
 62
     7
100
AcDbLine
 10
62.149178
 20
220.500925
 30
0.0
 11
62.160202
 21
220.505748
 31
0.0
  0
LINE
  5
196
100
AcDbEntity
  8
レイヤー_2
 62
     7
100
AcDbLine
 10
62.160202
 20
220.505748
 30
0.0
 11
62.167782
 21
220.512638
 31
0.0
  0
LINE
  5
195
100
AcDbEntity
  8
レイヤー_2
 62
     7
100
AcDbLine
 10
62.167782
 20
220.512638
 30
0.0
 11
62.170193
 21
220.521251
 31
0.0
  0
LINE
  5
194
100
AcDbEntity
  8
レイヤー_2
 62
     7
100
AcDbLine
 10
62.102325
 20
220.521251
 30
0.0
 11
62.102325
 21
220.760341
 31
0.0
  0
LINE
  5
193
100
AcDbEntity
  8
レイヤー_2
 62
     7
100
AcDbLine
 10
66.348749
 20
220.521251
 30
0.0
 11
66.348749
 21
220.760341
 31
0.0
  0
LINE
  5
192
100
AcDbEntity
  8
レイヤー_2
 62
     7
100
AcDbLine
 10
66.280881
 20
220.521251
 30
0.0
 11
66.283637
 21
220.512638
 31
0.0
  0
LINE
  5
191
100
AcDbEntity
  8
レイヤー_2
 62
     7
100
AcDbLine
 10
66.283637
 20
220.512638
 30
0.0
 11
66.290872
 21
220.505748
 31
0.0
  0
LINE
  5
190
100
AcDbEntity
  8
レイヤー_2
 62
     7
100
AcDbLine
 10
66.290872
 20
220.505748
 30
0.0
 11
66.301896
 21
220.500925
 31
0.0
  0
LINE
  5
18F
100
AcDbEntity
  8
レイヤー_2
 62
     7
100
AcDbLine
 10
66.301896
 20
220.500925
 30
0.0
 11
66.314988
 21
220.499202
 31
0.0
  0
LINE
  5
18E
100
AcDbEntity
  8
レイヤー_2
 62
     7
100
AcDbLine
 10
66.314988
 20
220.499202
 30
0.0
 11
66.328079
 21
220.500925
 31
0.0
  0
LINE
  5
18D
100
AcDbEntity
  8
レイヤー_2
 62
     7
100
AcDbLine
 10
66.328079
 20
220.500925
 30
0.0
 11
66.339103
 21
220.505748
 31
0.0
  0
LINE
  5
18C
100
AcDbEntity
  8
レイヤー_2
 62
     7
100
AcDbLine
 10
66.339103
 20
220.505748
 30
0.0
 11
66.346682
 21
220.512638
 31
0.0
  0
LINE
  5
18B
100
AcDbEntity
  8
レイヤー_2
 62
     7
100
AcDbLine
 10
66.346682
 20
220.512638
 30
0.0
 11
66.348749
 21
220.521251
 31
0.0
  0
LINE
  5
18A
100
AcDbEntity
  8
レイヤー_2
 62
     7
100
AcDbLine
 10
66.280881
 20
220.521251
 30
0.0
 11
66.280881
 21
220.760341
 31
0.0
  0
LINE
  5
189
100
AcDbEntity
  8
レイヤー_2
 62
     7
100
AcDbLine
 10
60.241629
 20
220.620125
 30
0.0
 11
60.241629
 21
220.760341
 31
0.0
  0
LINE
  5
188
100
AcDbEntity
  8
レイヤー_2
 62
     7
100
AcDbLine
 10
65.348983
 20
220.760341
 30
0.0
 11
65.352083
 21
220.521251
 31
0.0
  0
LINE
  5
187
100
AcDbEntity
  8
レイヤー_2
 62
     7
100
AcDbLine
 10
63.956131
 20
220.760341
 30
0.0
 11
63.958887
 21
220.521251
 31
0.0
  0
LINE
  5
186
100
AcDbEntity
  8
レイヤー_2
 62
     7
100
AcDbLine
 10
60.706717
 20
220.760341
 30
0.0
 11
60.709128
 21
220.521251
 31
0.0
  0
LINE
  5
185
100
AcDbEntity
  8
レイヤー_2
 62
     7
100
AcDbLine
 10
66.74528
 20
220.521251
 30
0.0
 11
66.74149
 21
220.760341
 31
0.0
  0
LINE
  5
184
100
AcDbEntity
  8
レイヤー_2
 62
     7
100
AcDbLine
 10
66.27778
 20
220.760341
 30
0.0
 11
66.280881
 21
220.521251
 31
0.0
  0
LINE
  5
183
100
AcDbEntity
  8
レイヤー_2
 62
     7
100
AcDbLine
 10
62.562934
 20
220.760341
 30
0.0
 11
62.566724
 21
220.521251
 31
0.0
  0
LINE
  5
182
100
AcDbEntity
  8
レイヤー_2
 62
     7
100
AcDbLine
 10
61.170426
 20
220.760341
 30
0.0
 11
61.173527
 21
220.521251
 31
0.0
  0
LINE
  5
181
100
AcDbEntity
  8
レイヤー_2
 62
     7
100
AcDbLine
 10
64.884584
 20
220.760341
 30
0.0
 11
64.887684
 21
220.521251
 31
0.0
  0
LINE
  5
180
100
AcDbEntity
  8
レイヤー_2
 62
     7
100
AcDbLine
 10
62.09888
 20
220.760341
 30
0.0
 11
62.102325
 21
220.521251
 31
0.0
  0
LINE
  5
17F
100
AcDbEntity
  8
レイヤー_2
 62
     7
100
AcDbLine
 10
63.027333
 20
220.760341
 30
0.0
 11
63.031123
 21
220.521251
 31
0.0
  0
LINE
  5
17E
100
AcDbEntity
  8
レイヤー_2
 62
     7
100
AcDbLine
 10
63.491732
 20
220.760341
 30
0.0
 11
63.495177
 21
220.521251
 31
0.0
  0
LINE
  5
17D
100
AcDbEntity
  8
レイヤー_2
 62
     7
100
AcDbLine
 10
61.634481
 20
220.760341
 30
0.0
 11
61.637926
 21
220.521251
 31
0.0
  0
LINE
  5
17C
100
AcDbEntity
  8
レイヤー_2
 62
     7
100
AcDbLine
 10
64.42053
 20
220.760341
 30
0.0
 11
64.423286
 21
220.521251
 31
0.0
  0
LINE
  5
17B
100
AcDbEntity
  8
レイヤー_2
 62
     7
100
AcDbLine
 10
65.813382
 20
220.760341
 30
0.0
 11
65.816482
 21
220.521251
 31
0.0
  0
LINE
  5
17A
100
AcDbEntity
  8
レイヤー_2
 62
     7
100
AcDbLine
 10
64.028133
 20
220.521251
 30
0.0
 11
64.030545
 21
220.760341
 31
0.0
  0
LINE
  5
179
100
AcDbEntity
  8
レイヤー_2
 62
     7
100
AcDbLine
 10
66.816938
 20
220.620125
 30
0.0
 11
66.816938
 21
220.760341
 31
0.0
  0
LINE
  5
178
100
AcDbEntity
  8
レイヤー_2
 62
     7
100
AcDbLine
 10
62.634592
 20
220.521251
 30
0.0
 11
62.638382
 21
220.760341
 31
0.0
  0
LINE
  5
177
100
AcDbEntity
  8
レイヤー_2
 62
     7
100
AcDbLine
 10
62.170193
 20
220.521251
 30
0.0
 11
62.173983
 21
220.760341
 31
0.0
  0
LINE
  5
176
100
AcDbEntity
  8
レイヤー_2
 62
     7
100
AcDbLine
 10
61.242084
 20
220.521251
 30
0.0
 11
61.244496
 21
220.760341
 31
0.0
  0
LINE
  5
175
100
AcDbEntity
  8
レイヤー_2
 62
     7
100
AcDbLine
 10
63.563734
 20
220.521251
 30
0.0
 11
63.566146
 21
220.760341
 31
0.0
  0
LINE
  5
174
100
AcDbEntity
  8
レイヤー_2
 62
     7
100
AcDbLine
 10
66.348749
 20
220.521251
 30
0.0
 11
66.352195
 21
220.760341
 31
0.0
  0
LINE
  5
173
100
AcDbEntity
  8
レイヤー_2
 62
     7
100
AcDbLine
 10
60.777686
 20
220.521251
 30
0.0
 11
60.780786
 21
220.760341
 31
0.0
  0
LINE
  5
172
100
AcDbEntity
  8
レイヤー_2
 62
     7
100
AcDbLine
 10
64.491843
 20
220.521251
 30
0.0
 11
64.494944
 21
220.760341
 31
0.0
  0
LINE
  5
171
100
AcDbEntity
  8
レイヤー_2
 62
     7
100
AcDbLine
 10
61.706139
 20
220.521251
 30
0.0
 11
61.709584
 21
220.760341
 31
0.0
  0
LINE
  5
170
100
AcDbEntity
  8
レイヤー_2
 62
     7
100
AcDbLine
 10
64.956242
 20
220.521251
 30
0.0
 11
64.959342
 21
220.760341
 31
0.0
  0
LINE
  5
16F
100
AcDbEntity
  8
レイヤー_2
 62
     7
100
AcDbLine
 10
63.098302
 20
220.521251
 30
0.0
 11
63.10278
 21
220.760341
 31
0.0
  0
LINE
  5
16E
100
AcDbEntity
  8
レイヤー_2
 62
     7
100
AcDbLine
 10
65.420296
 20
220.521251
 30
0.0
 11
65.423397
 21
220.760341
 31
0.0
  0
LINE
  5
16D
100
AcDbEntity
  8
レイヤー_2
 62
     7
100
AcDbLine
 10
65.884695
 20
220.521251
 30
0.0
 11
65.887796
 21
220.760341
 31
0.0
  0
LINE
  5
16C
100
AcDbEntity
  8
レイヤー_2
 62
     7
100
AcDbLine
 10
60.316387
 20
220.760341
 30
0.0
 11
60.313287
 21
220.521251
 31
0.0
  0
LINE
  5
16B
100
AcDbEntity
  8
レイヤー_2
 62
     7
100
AcDbLine
 10
66.778697
 20
220.499202
 30
0.0
 11
66.728743
 21
220.499202
 31
0.0
  0
LINE
  5
16A
100
AcDbEntity
  8
レイヤー_2
 62
     7
100
AcDbLine
 10
66.728743
 20
220.499202
 30
0.0
 11
66.728743
 21
220.450971
 31
0.0
  0
LINE
  5
169
100
AcDbEntity
  8
レイヤー_2
 62
     7
100
AcDbLine
 10
60.32879
 20
220.450971
 30
0.0
 11
60.32879
 21
220.499202
 31
0.0
  0
LINE
  5
168
100
AcDbEntity
  8
レイヤー_2
 62
     7
100
AcDbLine
 10
60.278836
 20
220.499202
 30
0.0
 11
60.32879
 21
220.499202
 31
0.0
  0
LINE
  5
167
100
AcDbEntity
  8
レイヤー_2
 62
     7
100
AcDbLine
 10
60.278836
 20
220.345896
 30
0.0
 11
60.32879
 21
220.345896
 31
0.0
  0
LINE
  5
166
100
AcDbEntity
  8
レイヤー_2
 62
     7
100
AcDbLine
 10
66.778697
 20
220.345896
 30
0.0
 11
66.728743
 21
220.345896
 31
0.0
  0
LINE
  5
165
100
AcDbEntity
  8
レイヤー_2
 62
     7
100
AcDbLine
 10
60.47934
 20
220.171918
 30
0.0
 11
60.466938
 21
220.154004
 31
0.0
  0
LINE
  5
164
100
AcDbEntity
  8
レイヤー_2
 62
     7
100
AcDbLine
 10
60.47934
 20
220.336249
 30
0.0
 11
60.47934
 21
220.171918
 31
0.0
  0
LINE
  5
163
100
AcDbEntity
  8
レイヤー_2
 62
     7
100
AcDbLine
 10
63.30363
 20
220.336249
 30
0.0
 11
63.30363
 21
220.171918
 31
0.0
  0
LINE
  5
162
100
AcDbEntity
  8
レイヤー_2
 62
     7
100
AcDbLine
 10
63.30363
 20
220.171918
 30
0.0
 11
63.291572
 21
220.154004
 31
0.0
  0
LINE
  5
161
100
AcDbEntity
  8
レイヤー_2
 62
     7
100
AcDbLine
 10
63.766306
 20
220.154004
 30
0.0
 11
63.754248
 21
220.171918
 31
0.0
  0
LINE
  5
160
100
AcDbEntity
  8
レイヤー_2
 62
     7
100
AcDbLine
 10
63.754248
 20
220.171918
 30
0.0
 11
63.754248
 21
220.336249
 31
0.0
  0
LINE
  5
15F
100
AcDbEntity
  8
レイヤー_2
 62
     7
100
AcDbLine
 10
65.55431
 20
220.336249
 30
0.0
 11
65.55431
 21
220.171918
 31
0.0
  0
LINE
  5
15E
100
AcDbEntity
  8
レイヤー_2
 62
     7
100
AcDbLine
 10
65.55431
 20
220.171918
 30
0.0
 11
65.541908
 21
220.154004
 31
0.0
  0
LINE
  5
15D
100
AcDbEntity
  8
レイヤー_2
 62
     7
100
AcDbLine
 10
61.654118
 20
220.336249
 30
0.0
 11
61.654118
 21
220.171918
 31
0.0
  0
LINE
  5
15C
100
AcDbEntity
  8
レイヤー_2
 62
     7
100
AcDbLine
 10
61.654118
 20
220.171918
 30
0.0
 11
61.641371
 21
220.154004
 31
0.0
  0
LINE
  5
15B
100
AcDbEntity
  8
レイヤー_2
 62
     7
100
AcDbLine
 10
63.166515
 20
220.154004
 30
0.0
 11
63.154457
 21
220.171918
 31
0.0
  0
LINE
  5
15A
100
AcDbEntity
  8
レイヤー_2
 62
     7
100
AcDbLine
 10
63.154457
 20
220.171918
 30
0.0
 11
63.154457
 21
220.336249
 31
0.0
  0
LINE
  5
159
100
AcDbEntity
  8
レイヤー_2
 62
     7
100
AcDbLine
 10
63.904454
 20
220.336249
 30
0.0
 11
63.904454
 21
220.171918
 31
0.0
  0
LINE
  5
158
100
AcDbEntity
  8
レイヤー_2
 62
     7
100
AcDbLine
 10
63.904454
 20
220.171918
 30
0.0
 11
63.891707
 21
220.154004
 31
0.0
  0
LINE
  5
157
100
AcDbEntity
  8
レイヤー_2
 62
     7
100
AcDbLine
 10
61.516659
 20
220.154004
 30
0.0
 11
61.504601
 21
220.171918
 31
0.0
  0
LINE
  5
156
100
AcDbEntity
  8
レイヤー_2
 62
     7
100
AcDbLine
 10
61.504601
 20
220.171918
 30
0.0
 11
61.504601
 21
220.336249
 31
0.0
  0
LINE
  5
155
100
AcDbEntity
  8
レイヤー_2
 62
     7
100
AcDbLine
 10
66.591629
 20
220.154004
 30
0.0
 11
66.579571
 21
220.171918
 31
0.0
  0
LINE
  5
154
100
AcDbEntity
  8
レイヤー_2
 62
     7
100
AcDbLine
 10
66.579571
 20
220.171918
 30
0.0
 11
66.579571
 21
220.336249
 31
0.0
  0
LINE
  5
153
100
AcDbEntity
  8
レイヤー_2
 62
     7
100
AcDbLine
 10
65.416162
 20
220.154004
 30
0.0
 11
65.40376
 21
220.171918
 31
0.0
  0
LINE
  5
152
100
AcDbEntity
  8
レイヤー_2
 62
     7
100
AcDbLine
 10
65.40376
 20
220.171918
 30
0.0
 11
65.40376
 21
220.336249
 31
0.0
  0
LINE
  5
151
100
AcDbEntity
  8
レイヤー_2
 62
     7
100
AcDbLine
 10
66.778697
 20
220.182943
 30
0.0
 11
66.778697
 21
220.171918
 31
0.0
  0
LINE
  5
150
100
AcDbEntity
  8
レイヤー_2
 62
     7
100
AcDbLine
 10
66.778697
 20
220.171918
 30
0.0
 11
66.766984
 21
220.154004
 31
0.0
  0
LINE
  5
14F
100
AcDbEntity
  8
レイヤー_2
 62
     7
100
AcDbLine
 10
60.291238
 20
220.154004
 30
0.0
 11
60.278836
 21
220.171918
 31
0.0
  0
LINE
  5
14E
100
AcDbEntity
  8
レイヤー_2
 62
     7
100
AcDbLine
 10
60.278836
 20
220.171918
 30
0.0
 11
60.278836
 21
220.182943
 31
0.0
  0
LINE
  5
14D
100
AcDbEntity
  8
レイヤー_2
 62
     7
100
AcDbLine
 10
58.975556
 20
222.192811
 30
0.0
 11
60.113816
 21
222.207281
 31
0.0
  0
LINE
  5
14C
100
AcDbEntity
  8
レイヤー_2
 62
     7
100
AcDbLine
 10
60.113816
 20
222.207281
 30
0.0
 11
61.252764
 21
222.217272
 31
0.0
  0
LINE
  5
14B
100
AcDbEntity
  8
レイヤー_2
 62
     7
100
AcDbLine
 10
61.252764
 20
222.217272
 30
0.0
 11
62.390679
 21
222.223473
 31
0.0
  0
LINE
  5
14A
100
AcDbEntity
  8
レイヤー_2
 62
     7
100
AcDbLine
 10
62.390679
 20
222.223473
 30
0.0
 11
63.528939
 21
222.224851
 31
0.0
  0
LINE
  5
149
100
AcDbEntity
  8
レイヤー_2
 62
     7
100
AcDbLine
 10
63.528939
 20
222.224851
 30
0.0
 11
64.667198
 21
222.223473
 31
0.0
  0
LINE
  5
148
100
AcDbEntity
  8
レイヤー_2
 62
     7
100
AcDbLine
 10
64.667198
 20
222.223473
 30
0.0
 11
65.805458
 21
222.217272
 31
0.0
  0
LINE
  5
147
100
AcDbEntity
  8
レイヤー_2
 62
     7
100
AcDbLine
 10
65.805458
 20
222.217272
 30
0.0
 11
66.944406
 21
222.207281
 31
0.0
  0
LINE
  5
146
100
AcDbEntity
  8
レイヤー_2
 62
     7
100
AcDbLine
 10
66.944406
 20
222.207281
 30
0.0
 11
68.083011
 21
222.192811
 31
0.0
  0
SPLINE
  5
145
100
AcDbEntity
  8
レイヤー_2
 62
     7
100
AcDbSpline
210
0.0
220
0.0
230
1.0
 70
     8
 71
     3
 72
     8
 73
     4
 74
     0
 42
0.00000001
 43
0.00000001
 40
0.0
 40
0.0
 40
0.0
 40
0.0
 40
1.0
 40
1.0
 40
1.0
 40
1.0
 10
68.278691948784711
 20
222.0398491753472
 30
0.0
 10
68.264911566840269
 20
222.13562282986109
 30
0.0
 10
68.178439670138886
 20
222.20245768229165
 30
0.0
 10
68.083010525173606
 20
222.19281141493053
 30
0.0
  0
SPLINE
  5
144
100
AcDbEntity
  8
レイヤー_2
 62
     7
100
AcDbSpline
210
0.0
220
0.0
230
1.0
 70
     8
 71
     3
 72
     8
 73
     4
 74
     0
 42
0.00000001
 43
0.00000001
 40
0.0
 40
0.0
 40
0.0
 40
0.0
 40
1.0
 40
1.0
 40
1.0
 40
1.0
 10
58.975556098090273
 20
222.19281141493053
 30
0.0
 10
58.87943793402777
 20
222.20245768229165
 30
0.0
 10
58.79296603732638
 20
222.13527832031247
 30
0.0
 10
58.778841145833326
 20
222.0398491753472
 30
0.0
  0
LINE
  5
143
100
AcDbEntity
  8
レイヤー_2
 62
     7
100
AcDbLine
 10
59.528838
 20
220.912958
 30
0.0
 11
59.528838
 21
220.529519
 31
0.0
  0
SPLINE
  5
142
100
AcDbEntity
  8
レイヤー_2
 62
     7
100
AcDbSpline
210
0.0
220
0.0
230
1.0
 70
     8
 71
     3
 72
     8
 73
     4
 74
     0
 42
0.00000001
 43
0.00000001
 40
0.0
 40
0.0
 40
0.0
 40
0.0
 40
1.0
 40
1.0
 40
1.0
 40
1.0
 10
59.52883843315972
 20
220.5295193142361
 30
0.0
 10
59.58361545138888
 20
220.16675075954859
 30
0.0
 10
59.916067165798609
 20
219.91388075086803
 30
0.0
 10
60.278835720486107
 20
219.95522189670137
 30
0.0
  0
LINE
  5
141
100
AcDbEntity
  8
レイヤー_2
 62
     7
100
AcDbLine
 10
60.278836
 20
219.955222
 30
0.0
 11
66.778697
 21
219.955222
 31
0.0
  0
SPLINE
  5
140
100
AcDbEntity
  8
レイヤー_2
 62
     7
100
AcDbSpline
210
0.0
220
0.0
230
1.0
 70
     8
 71
     3
 72
     8
 73
     4
 74
     0
 42
0.00000001
 43
0.00000001
 40
0.0
 40
0.0
 40
0.0
 40
0.0
 40
1.0
 40
1.0
 40
1.0
 40
1.0
 10
66.778697374131937
 20
219.95522189670137
 30
0.0
 10
67.144222005208334
 20
219.91319173177081
 30
0.0
 10
67.474262152777769
 20
220.16847330729163
 30
0.0
 10
67.529039171006943
 20
220.5295193142361
 30
0.0
  0
LINE
  5
13F
100
AcDbEntity
  8
レイヤー_2
 62
     7
100
AcDbLine
 10
67.529039
 20
220.529519
 30
0.0
 11
67.529039
 21
220.912958
 31
0.0
  0
SPLINE
  5
13E
100
AcDbEntity
  8
レイヤー_2
 62
     7
100
AcDbSpline
210
0.0
220
0.0
230
1.0
 70
     8
 71
     3
 72
     8
 73
     4
 74
     0
 42
0.00000001
 43
0.00000001
 40
0.0
 40
0.0
 40
0.0
 40
0.0
 40
1.0
 40
1.0
 40
1.0
 40
1.0
 10
67.529039171006943
 20
220.91295844184026
 30
0.0
 10
67.474262152777769
 20
221.27572699652777
 30
0.0
 10
67.142499457465277
 20
221.52859700520833
 30
0.0
 10
66.778697374131937
 20
221.48725585937498
 30
0.0
  0
LINE
  5
13D
100
AcDbEntity
  8
レイヤー_2
 62
     7
100
AcDbLine
 10
66.778697
 20
221.487256
 30
0.0
 11
60.278836
 21
221.487256
 31
0.0
  0
SPLINE
  5
13C
100
AcDbEntity
  8
レイヤー_2
 62
     7
100
AcDbSpline
210
0.0
220
0.0
230
1.0
 70
     8
 71
     3
 72
     8
 73
     4
 74
     0
 42
0.00000001
 43
0.00000001
 40
0.0
 40
0.0
 40
0.0
 40
0.0
 40
1.0
 40
1.0
 40
1.0
 40
1.0
 10
60.278835720486107
 20
221.48725585937498
 30
0.0
 10
59.914344618055551
 20
221.52928602430555
 30
0.0
 10
59.58361545138888
 20
221.27434895833332
 30
0.0
 10
59.52883843315972
 20
220.91295844184026
 30
0.0
  0
LINE
  5
13B
100
AcDbEntity
  8
レイヤー_2
 62
     7
100
AcDbLine
 10
58.778841
 20
219.659633
 30
0.0
 11
58.778841
 21
222.039849
 31
0.0
  0
LINE
  5
13A
100
AcDbEntity
  8
レイヤー_2
 62
     7
100
AcDbLine
 10
68.278692
 20
222.039849
 30
0.0
 11
68.278692
 21
219.659633
 31
0.0
  0
LINE
  5
139
100
AcDbEntity
  8
レイヤー_2
 62
     7
100
AcDbLine
 10
58.778841
 20
222.039849
 30
0.0
 11
58.778841
 21
225.125277
 31
0.0
  0
LINE
  5
138
100
AcDbEntity
  8
レイヤー_2
 62
     7
100
AcDbLine
 10
68.278692
 20
225.125277
 30
0.0
 11
68.278692
 21
222.039849
 31
0.0
  0
SPLINE
  5
137
100
AcDbEntity
  8
レイヤー_2
 62
     7
100
AcDbSpline
210
0.0
220
0.0
230
1.0
 70
     8
 71
     3
 72
     8
 73
     4
 74
     0
 42
0.00000001
 43
0.00000001
 40
0.0
 40
0.0
 40
0.0
 40
0.0
 40
1.0
 40
1.0
 40
1.0
 40
1.0
 10
68.08404405381944
 20
227.73631456163193
 30
0.0
 10
64.8832058376736
 20
227.79384765624997
 30
0.0
 10
61.695114474826383
 20
227.79212510850692
 30
0.0
 10
58.977967664930553
 20
227.73631456163193
 30
0.0
  0
SPLINE
  5
136
100
AcDbEntity
  8
レイヤー_2
 62
     7
100
AcDbSpline
210
0.0
220
0.0
230
1.0
 70
     8
 71
     3
 72
     8
 73
     4
 74
     0
 42
0.00000001
 43
0.00000001
 40
0.0
 40
0.0
 40
0.0
 40
0.0
 40
1.0
 40
1.0
 40
1.0
 40
1.0
 10
68.278691948784711
 20
227.53615451388887
 30
0.0
 10
68.278691948784711
 20
227.6453640407986
 30
0.0
 10
68.191875542534717
 20
227.73390299479163
 30
0.0
 10
68.083010525173606
 20
227.73631456163193
 30
0.0
  0
LINE
  5
135
100
AcDbEntity
  8
レイヤー_2
 62
     7
100
AcDbLine
 10
68.278692
 20
227.536155
 30
0.0
 11
68.278692
 21
225.125277
 31
0.0
  0
SPLINE
  5
134
100
AcDbEntity
  8
レイヤー_2
 62
     7
100
AcDbSpline
210
0.0
220
0.0
230
1.0
 70
     8
 71
     3
 72
     8
 73
     4
 74
     0
 42
0.00000001
 43
0.00000001
 40
0.0
 40
0.0
 40
0.0
 40
0.0
 40
1.0
 40
1.0
 40
1.0
 40
1.0
 10
58.975556098090273
 20
227.73631456163193
 30
0.0
 10
58.86634657118055
 20
227.73390299479163
 30
0.0
 10
58.779185655381937
 20
227.64467502170137
 30
0.0
 10
58.778841145833326
 20
227.53615451388887
 30
0.0
  0
LINE
  5
133
100
AcDbEntity
  8
レイヤー_2
 62
     7
100
AcDbLine
 10
58.778841
 20
225.125277
 30
0.0
 11
58.778841
 21
227.536155
 31
0.0
  0
LINE
  5
132
100
AcDbEntity
  8
レイヤー_2
 62
     7
100
AcDbLine
 10
69.379055
 20
201.50708
 30
0.0
 11
57.678822
 21
201.50708
 31
0.0
  0
LINE
  5
131
100
AcDbEntity
  8
レイヤー_2
 62
     7
100
AcDbLine
 10
66.701527
 20
227.757674
 30
0.0
 11
69.303952
 21
227.757674
 31
0.0
  0
LINE
  5
130
100
AcDbEntity
  8
レイヤー_2
 62
     7
100
AcDbLine
 10
57.753925
 20
227.757674
 30
0.0
 11
60.35635
 21
227.757674
 31
0.0
  0
LINE
  5
12F
100
AcDbEntity
  8
レイヤー_2
 62
     7
100
AcDbLine
 10
67.233105
 20
221.365988
 30
0.0
 11
66.813148
 21
221.365988
 31
0.0
  0
LINE
  5
12E
100
AcDbEntity
  8
レイヤー_2
 62
     7
100
AcDbLine
 10
60.245074
 20
221.365988
 30
0.0
 11
59.824772
 21
221.365988
 31
0.0
  0
LINE
  5
12D
100
AcDbEntity
  8
レイヤー_2
 62
     7
100
AcDbLine
 10
60.278836
 20
220.171918
 30
0.0
 11
60.278836
 21
219.955222
 31
0.0
  0
LINE
  5
12C
100
AcDbEntity
  8
レイヤー_2
 62
     7
100
AcDbLine
 10
66.778697
 20
220.171918
 30
0.0
 11
66.778697
 21
219.955222
 31
0.0
  0
SPLINE
  5
12B
100
AcDbEntity
  8
レイヤー_2
 62
     7
100
AcDbSpline
210
0.0
220
0.0
230
1.0
 70
     8
 71
     3
 72
    11
 73
     7
 74
     0
 42
0.00000001
 43
0.00000001
 40
0.0
 40
0.0
 40
0.0
 40
0.0
 40
1.0
 40
1.0
 40
1.0
 40
2.0
 40
2.0
 40
2.0
 40
2.0
 10
106.92301703559026
 20
124.34176432291666
 30
0.0
 10
107.18174370659722
 20
124.27561848958332
 30
0.0
 10
107.47939995659721
 20
124.13057996961804
 30
0.0
 10
107.81701931423611
 20
123.86806369357637
 30
0.0
 10
108.41818847656249
 20
123.40159776475693
 30
0.0
 10
108.96285807291666
 20
123.18007812499999
 30
0.0
 10
109.42897949218749
 20
123.09429524739582
 30
0.0
  0
LINE
  5
12A
100
AcDbEntity
  8
レイヤー_2
  6
AI9-LType2
 62
     7
100
AcDbLine
 10
112.230187
 20
147.030819
 30
0.0
 11
112.216406
 21
147.281966
 31
0.0
  0
LINE
  5
129
100
AcDbEntity
  8
レイヤー_2
 62
     7
100
AcDbLine
 10
112.216406
 20
147.281966
 30
0.0
 11
112.164041
 21
148.280355
 31
0.0
  0
LINE
  5
128
100
AcDbEntity
  8
レイヤー_2
 62
     7
100
AcDbLine
 10
100.545112
 20
148.280355
 30
0.0
 11
100.479999
 21
147.030819
 31
0.0
  0
LINE
  5
127
100
AcDbEntity
  8
レイヤー_2
 62
     7
100
AcDbLine
 10
103.301188
 20
143.205385
 30
0.0
 11
103.676015
 21
142.555984
 31
0.0
  0
LINE
  5
126
100
AcDbEntity
  8
レイヤー_2
 62
     7
100
AcDbLine
 10
106.175776
 20
142.555984
 30
0.0
 11
106.550947
 21
143.205385
 31
0.0
  0
LINE
  5
125
100
AcDbEntity
  8
レイヤー_2
 62
     7
100
AcDbLine
 10
106.550947
 20
143.205385
 30
0.0
 11
106.550947
 21
143.570909
 31
0.0
  0
LINE
  5
124
100
AcDbEntity
  8
レイヤー_2
 62
     7
100
AcDbLine
 10
103.301188
 20
143.570909
 30
0.0
 11
103.301188
 21
143.205385
 31
0.0
  0
LINE
  5
123
100
AcDbEntity
  8
レイヤー_2
 62
     7
100
AcDbLine
 10
106.550947
 20
143.570909
 30
0.0
 11
106.47171
 21
143.58469
 31
0.0
  0
LINE
  5
122
100
AcDbEntity
  8
レイヤー_2
 62
     7
100
AcDbLine
 10
103.354932
 20
143.580556
 30
0.0
 11
103.301188
 21
143.570909
 31
0.0
  0
LINE
  5
121
100
AcDbEntity
  8
レイヤー_2
 62
     7
100
AcDbLine
 10
106.175776
 20
136.705523
 30
0.0
 11
106.175776
 21
142.555984
 31
0.0
  0
LINE
  5
120
100
AcDbEntity
  8
レイヤー_2
 62
     7
100
AcDbLine
 10
103.676015
 20
142.555984
 30
0.0
 11
103.676015
 21
136.705523
 31
0.0
  0
LINE
  5
11F
100
AcDbEntity
  8
レイヤー_2
 62
     7
100
AcDbLine
 10
103.301188
 20
136.705523
 30
0.0
 11
103.267771
 21
136.685886
 31
0.0
  0
LINE
  5
11E
100
AcDbEntity
  8
レイヤー_2
 62
     7
100
AcDbLine
 10
103.267771
 20
133.724482
 30
0.0
 11
103.301188
 21
133.705534
 31
0.0
  0
LINE
  5
11D
100
AcDbEntity
  8
レイヤー_2
 62
     7
100
AcDbLine
 10
106.550947
 20
133.705534
 30
0.0
 11
106.584364
 21
133.724482
 31
0.0
  0
LINE
  5
11C
100
AcDbEntity
  8
レイヤー_2
 62
     7
100
AcDbLine
 10
106.584364
 20
136.685886
 30
0.0
 11
106.550947
 21
136.705523
 31
0.0
  0
LINE
  5
11B
100
AcDbEntity
  8
レイヤー_2
 62
     7
100
AcDbLine
 10
104.851826
 20
146.530246
 30
0.0
 11
104.851826
 21
147.030819
 31
0.0
  0
LINE
  5
11A
100
AcDbEntity
  8
レイヤー_2
 62
     7
100
AcDbLine
 10
100.051085
 20
147.030819
 30
0.0
 11
100.051085
 21
146.530246
 31
0.0
  0
LINE
  5
119
100
AcDbEntity
  8
レイヤー_2
 62
     7
100
AcDbLine
 10
104.793604
 20
144.768769
 30
0.0
 11
104.793604
 21
146.530246
 31
0.0
  0
SPLINE
  5
118
100
AcDbEntity
  8
レイヤー_2
 62
     7
100
AcDbSpline
210
0.0
220
0.0
230
1.0
 70
     8
 71
     3
 72
     8
 73
     4
 74
     0
 42
0.00000001
 43
0.00000001
 40
0.0
 40
0.0
 40
0.0
 40
0.0
 40
1.0
 40
1.0
 40
1.0
 40
1.0
 10
100.05108506944444
 20
144.78013780381943
 30
0.0
 10
100.05108506944444
 20
144.64198947482637
 30
0.0
 10
100.16305067274304
 20
144.53002387152776
 30
0.0
 10
100.30119900173611
 20
144.53002387152776
 30
0.0
  0
LINE
  5
117
100
AcDbEntity
  8
レイヤー_2
 62
     7
100
AcDbLine
 10
100.051085
 20
146.530246
 30
0.0
 11
100.051085
 21
144.780138
 31
0.0
  0
SPLINE
  5
116
100
AcDbEntity
  8
レイヤー_2
 62
     7
100
AcDbSpline
210
0.0
220
0.0
230
1.0
 70
     8
 71
     3
 72
    26
 73
    22
 74
     0
 42
0.00000001
 43
0.00000001
 40
0.0
 40
0.0
 40
0.0
 40
0.0
 40
1.0
 40
1.0
 40
1.0
 40
2.0
 40
2.0
 40
2.0
 40
3.0
 40
3.0
 40
3.0
 40
4.0
 40
4.0
 40
4.0
 40
5.0
 40
5.0
 40
5.0
 40
6.0
 40
6.0
 40
6.0
 40
7.0
 40
7.0
 40
7.0
 40
7.0
 10
104.21930609809027
 20
144.44803059895833
 30
0.0
 10
104.25582411024304
 20
144.45182020399304
 30
0.0
 10
104.2916531032986
 20
144.45560980902778
 30
0.0
 10
104.32541503906249
 20
144.46043294270831
 30
0.0
 10
104.39293891059027
 20
144.46801215277776
 30
0.0
 10
104.45012749565971
 20
144.47800292968748
 30
0.0
 10
104.49766981336805
 20
144.4876491970486
 30
0.0
 10
104.53763292100693
 20
144.49557291666665
 30
0.0
 10
104.57105034722221
 20
144.5031521267361
 30
0.0
 10
104.60997992621527
 20
144.51796603732637
 30
0.0
 10
104.6296169704861
 20
144.52588975694442
 30
0.0
 10
104.65063205295138
 20
144.53484700520832
 30
0.0
 10
104.67336968315971
 20
144.55000542534722
 30
0.0
 10
104.6947292751736
 20
144.56413031684028
 30
0.0
 10
104.71712239583333
 20
144.58307834201386
 30
0.0
 10
104.73607042100693
 20
144.60616048177081
 30
0.0
 10
104.75398491753471
 20
144.62820909288192
 30
0.0
 10
104.77017686631943
 20
144.65404730902776
 30
0.0
 10
104.77844509548611
 20
144.68160807291665
 30
0.0
 10
104.78705783420138
 20
144.70710177951386
 30
0.0
 10
104.78946940104166
 20
144.73466254340278
 30
0.0
 10
104.79188096788194
 20
144.76153428819444
 30
0.0
  0
SPLINE
  5
115
100
AcDbEntity
  8
レイヤー_2
 62
     7
100
AcDbSpline
210
0.0
220
0.0
230
1.0
 70
     8
 71
     3
 72
    29
 73
    25
 74
     0
 42
0.00000001
 43
0.00000001
 40
0.0
 40
0.0
 40
0.0
 40
0.0
 40
1.0
 40
1.0
 40
1.0
 40
2.0
 40
2.0
 40
2.0
 40
3.0
 40
3.0
 40
3.0
 40
4.0
 40
4.0
 40
4.0
 40
5.0
 40
5.0
 40
5.0
 40
6.0
 40
6.0
 40
6.0
 40
7.0
 40
7.0
 40
7.0
 40
8.0
 40
8.0
 40
8.0
 40
8.0
 10
100.43417968749999
 20
144.16105414496528
 30
0.0
 10
100.43555772569444
 20
144.12832573784721
 30
0.0
 10
100.43590223524305
 20
144.09525282118054
 30
0.0
 10
100.44348144531249
 20
144.06562499999998
 30
0.0
 10
100.45553927951389
 20
144.02152777777778
 30
0.0
 10
100.48378906249999
 20
143.98569878472222
 30
0.0
 10
100.51031629774305
 20
143.95848253038193
 30
0.0
 10
100.53787706163193
 20
143.9295437282986
 30
0.0
 10
100.56371527777777
 20
143.90990668402776
 30
0.0
 10
100.59058702256944
 20
143.89337022569444
 30
0.0
 10
100.62607150607639
 20
143.87132161458331
 30
0.0
 10
100.6608669704861
 20
143.85478515624999
 30
0.0
 10
100.6980740017361
 20
143.84100477430553
 30
0.0
 10
100.75905219184027
 20
143.81792263454861
 30
0.0
 10
100.82485351562499
 20
143.80000813802081
 30
0.0
 10
100.90167914496527
 20
143.78347167968749
 30
0.0
 10
100.97781575520833
 20
143.76693522135415
 30
0.0
 10
101.06532118055554
 20
143.75212131076387
 30
0.0
 10
101.16281738281249
 20
143.73902994791666
 30
0.0
 10
101.25755750868055
 20
143.72593858506943
 30
0.0
 10
101.36228841145832
 20
143.71388075086804
 30
0.0
 10
101.47804361979166
 20
143.7032009548611
 30
0.0
 10
101.50629340277777
 20
143.70044487847221
 30
0.0
 10
101.53488769531249
 20
143.69837782118054
 30
0.0
 10
101.5631374782986
 20
143.69562174479165
 30
0.0
  0
SPLINE
  5
114
100
AcDbEntity
  8
レイヤー_2
 62
     7
100
AcDbSpline
210
0.0
220
0.0
230
1.0
 70
     8
 71
     3
 72
    11
 73
     7
 74
     0
 42
0.00000001
 43
0.00000001
 40
0.0
 40
0.0
 40
0.0
 40
0.0
 40
1.0
 40
1.0
 40
1.0
 40
2.0
 40
2.0
 40
2.0
 40
2.0
 10
102.24561089409721
 20
144.10696614583333
 30
0.0
 10
102.24561089409721
 20
144.10696614583333
 30
0.0
 10
102.24319932725693
 20
144.10558810763888
 30
0.0
 10
102.24319932725693
 20
144.10558810763888
 30
0.0
 10
102.24319932725693
 20
144.10558810763888
 30
0.0
 10
102.25835774739582
 20
144.11178927951389
 30
0.0
 10
102.27351616753471
 20
144.11936848958331
 30
0.0
  0
SPLINE
  5
113
100
AcDbEntity
  8
レイヤー_2
 62
     7
100
AcDbSpline
210
0.0
220
0.0
230
1.0
 70
     8
 71
     3
 72
     8
 73
     4
 74
     0
 42
0.00000001
 43
0.00000001
 40
0.0
 40
0.0
 40
0.0
 40
0.0
 40
1.0
 40
1.0
 40
1.0
 40
1.0
 10
100.42591145833332
 20
144.40565592447916
 30
0.0
 10
100.42591145833332
 20
144.47421332465277
 30
0.0
 10
100.3694118923611
 20
144.53002387152776
 30
0.0
 10
100.30119900173611
 20
144.53002387152776
 30
0.0
  0
LINE
  5
112
100
AcDbEntity
  8
レイヤー_2
 62
     7
100
AcDbLine
 10
100.425911
 20
144.405656
 30
0.0
 11
100.425911
 21
144.166566
 31
0.0
  0
SPLINE
  5
111
100
AcDbEntity
  8
レイヤー_2
 62
     7
100
AcDbSpline
210
0.0
220
0.0
230
1.0
 70
     8
 71
     3
 72
    14
 73
    10
 74
     0
 42
0.00000001
 43
0.00000001
 40
0.0
 40
0.0
 40
0.0
 40
0.0
 40
1.0
 40
1.0
 40
1.0
 40
2.0
 40
2.0
 40
2.0
 40
3.0
 40
3.0
 40
3.0
 40
3.0
 10
112.02175835503471
 20
144.33296440972222
 30
0.0
 10
112.06241048177083
 20
144.34433322482639
 30
0.0
 10
112.10444064670138
 20
144.35604654947915
 30
0.0
 10
112.14095865885416
 20
144.36707085503471
 30
0.0
 10
112.22467447916665
 20
144.39290907118055
 30
0.0
 10
112.28634168836804
 20
144.4163357204861
 30
0.0
 10
112.34559733072916
 20
144.45526529947915
 30
0.0
 10
112.36833496093749
 20
144.47007921006943
 30
0.0
 10
112.39141710069444
 20
144.48696017795137
 30
0.0
 10
112.41346571180554
 20
144.50418565538192
 30
0.0
  0
SPLINE
  5
110
100
AcDbEntity
  8
レイヤー_2
 62
     7
100
AcDbSpline
210
0.0
220
0.0
230
1.0
 70
     8
 71
     3
 72
     8
 73
     4
 74
     0
 42
0.00000001
 43
0.00000001
 40
0.0
 40
0.0
 40
0.0
 40
0.0
 40
1.0
 40
1.0
 40
1.0
 40
1.0
 10
112.4958034939236
 20
144.53002387152776
 30
0.0
 10
112.4647976345486
 20
144.53002387152776
 30
0.0
 10
112.43689236111111
 20
144.51968858506942
 30
0.0
 10
112.41587727864582
 20
144.50142957899305
 30
0.0
  0
LINE
  5
10F
100
AcDbEntity
  8
レイヤー_2
 62
     7
100
AcDbLine
 10
101.545223
 20
143.689765
 30
0.0
 11
101.56107
 21
143.66875
 31
0.0
  0
SPLINE
  5
10E
100
AcDbEntity
  8
レイヤー_2
 62
     7
100
AcDbSpline
210
0.0
220
0.0
230
1.0
 70
     8
 71
     3
 72
     8
 73
     4
 74
     0
 42
0.00000001
 43
0.00000001
 40
0.0
 40
0.0
 40
0.0
 40
0.0
 40
1.0
 40
1.0
 40
1.0
 40
1.0
 10
101.55107964409721
 20
143.68390842013886
 30
0.0
 10
101.59965549045138
 20
143.61672905815971
 30
0.0
 10
101.67544759114583
 20
143.58055555555555
 30
0.0
 10
101.75365125868055
 20
143.58055555555555
 30
0.0
  0
LINE
  5
10D
100
AcDbEntity
  8
レイヤー_2
 62
     7
100
AcDbLine
 10
100.701519
 20
201.361008
 30
0.0
 11
100.701519
 21
159.061092
 31
0.0
  0
LINE
  5
10C
100
AcDbEntity
  8
レイヤー_2
 62
     7
100
AcDbLine
 10
112.400719
 20
159.061092
 30
0.0
 11
112.400719
 21
201.361008
 31
0.0
  0
SPLINE
  5
10B
100
AcDbEntity
  8
レイヤー_2
 62
     7
100
AcDbSpline
210
0.0
220
0.0
230
1.0
 70
     8
 71
     3
 72
     8
 73
     4
 74
     0
 42
0.00000001
 43
0.00000001
 40
0.0
 40
0.0
 40
0.0
 40
0.0
 40
1.0
 40
1.0
 40
1.0
 40
1.0
 10
112.40071885850693
 20
201.36100802951387
 30
0.0
 10
112.40071885850693
 20
201.47090657552081
 30
0.0
 10
112.31114637586805
 20
201.56116807725692
 30
0.0
 10
112.20090332031249
 20
201.56116807725692
 30
0.0
  0
SPLINE
  5
10A
100
AcDbEntity
  8
レイヤー_2
 62
     7
100
AcDbSpline
210
0.0
220
0.0
230
1.0
 70
     8
 71
     3
 72
     8
 73
     4
 74
     0
 42
0.00000001
 43
0.00000001
 40
0.0
 40
0.0
 40
0.0
 40
0.0
 40
1.0
 40
1.0
 40
1.0
 40
1.0
 10
100.90133463541666
 20
201.56116807725692
 30
0.0
 10
100.79074707031249
 20
201.56116807725692
 30
0.0
 10
100.70151909722222
 20
201.47090657552081
 30
0.0
 10
100.70151909722222
 20
201.36100802951387
 30
0.0
  0
LINE
  5
109
100
AcDbEntity
  8
レイヤー_2
 62
     7
100
AcDbLine
 10
105.925662
 20
148.280355
 30
0.0
 11
105.925662
 21
158.31075
 31
0.0
  0
LINE
  5
108
100
AcDbEntity
  8
レイヤー_2
 62
     7
100
AcDbLine
 10
103.926473
 20
158.31075
 30
0.0
 11
103.926473
 21
148.280355
 31
0.0
  0
LINE
  5
107
100
AcDbEntity
  8
レイヤー_2
 62
     7
100
AcDbLine
 10
109.425879
 20
123.094295
 30
0.0
 11
109.425879
 21
147.030819
 31
0.0
  0
LINE
  5
106
100
AcDbEntity
  8
レイヤー_2
 62
     7
100
AcDbLine
 10
109.425879
 20
148.280355
 30
0.0
 11
109.425879
 21
158.31075
 31
0.0
  0
LINE
  5
105
100
AcDbEntity
  8
レイヤー_2
 62
     7
100
AcDbLine
 10
106.926118
 20
158.31075
 30
0.0
 11
106.926118
 21
148.280355
 31
0.0
  0
LINE
  5
104
100
AcDbEntity
  8
レイヤー_2
 62
     7
100
AcDbLine
 10
106.926118
 20
147.030819
 30
0.0
 11
106.926118
 21
124.34142
 31
0.0
  0
LINE
  5
103
100
AcDbEntity
  8
レイヤー_2
 62
     7
100
AcDbLine
 10
102.338973
 20
159.061092
 30
0.0
 11
102.338973
 21
158.31075
 31
0.0
  0
LINE
  5
102
100
AcDbEntity
  8
レイヤー_2
 62
     7
100
AcDbLine
 10
110.763265
 20
158.31075
 30
0.0
 11
110.763265
 21
159.061092
 31
0.0
  0
LINE
  5
101
100
AcDbEntity
  8
レイヤー_2
 62
     7
100
AcDbLine
 10
112.493736
 20
228.662356
 30
0.0
 11
112.402786
 21
235.205626
 31
0.0
  0
LINE
  5
100
100
AcDbEntity
  8
レイヤー_2
 62
     7
100
AcDbLine
 10
100.64812
 20
230.570939
 30
0.0
 11
100.620904
 21
228.662356
 31
0.0
  0
LINE
  5
FF
100
AcDbEntity
  8
レイヤー_2
 62
     7
100
AcDbLine
 10
100.776622
 20
239.826188
 30
0.0
 11
100.669135
 21
232.102284
 31
0.0
  0
SPLINE
  5
FE
100
AcDbEntity
  8
レイヤー_2
 62
     7
100
AcDbSpline
210
0.0
220
0.0
230
1.0
 70
     8
 71
     3
 72
     8
 73
     4
 74
     0
 42
0.00000001
 43
0.00000001
 40
0.0
 40
0.0
 40
0.0
 40
0.0
 40
1.0
 40
1.0
 40
1.0
 40
1.0
 10
112.49373643663193
 20
228.66063368055555
 30
0.0
 10
112.49373643663193
 20
228.66132269965274
 30
0.0
 10
112.49373643663193
 20
228.66132269965274
 30
0.0
 10
112.49373643663193
 20
228.66235622829859
 30
0.0
  0
SPLINE
  5
FD
100
AcDbEntity
  8
レイヤー_2
 62
     7
100
AcDbSpline
210
0.0
220
0.0
230
1.0
 70
     8
 71
     3
 72
     8
 73
     4
 74
     0
 42
0.00000001
 43
0.00000001
 40
0.0
 40
0.0
 40
0.0
 40
0.0
 40
1.0
 40
1.0
 40
1.0
 40
1.0
 10
112.41932237413194
 20
228.58587510850691
 30
0.0
 10
112.46066351996527
 20
228.58587510850691
 30
0.0
 10
112.49373643663193
 20
228.61998155381943
 30
0.0
 10
112.49373643663193
 20
228.66063368055555
 30
0.0
  0
SPLINE
  5
FC
100
AcDbEntity
  8
レイヤー_2
 62
     7
100
AcDbSpline
210
0.0
220
0.0
230
1.0
 70
     8
 71
     3
 72
    11
 73
     7
 74
     0
 42
0.00000001
 43
0.00000001
 40
0.0
 40
0.0
 40
0.0
 40
0.0
 40
1.0
 40
1.0
 40
1.0
 40
2.0
 40
2.0
 40
2.0
 40
2.0
 10
100.62090386284721
 20
228.66235622829859
 30
0.0
 10
100.62090386284721
 20
228.66132269965274
 30
0.0
 10
100.62090386284721
 20
228.66132269965274
 30
0.0
 10
100.62090386284721
 20
228.66063368055555
 30
0.0
 10
100.62090386284721
 20
228.61998155381943
 30
0.0
 10
100.65466579861111
 20
228.58587510850691
 30
0.0
 10
100.69635145399305
 20
228.58587510850691
 30
0.0
  0
LINE
  5
FB
100
AcDbEntity
  8
レイヤー_2
 62
     7
100
AcDbLine
 10
129.607937
 20
240.086293
 30
0.0
 11
106.557837
 21
240.086293
 31
0.0
  0
SPLINE
  5
FA
100
AcDbEntity
  8
レイヤー_2
 62
     7
100
AcDbSpline
210
0.0
220
0.0
230
1.0
 70
     8
 71
     3
 72
     8
 73
     4
 74
     0
 42
0.00000001
 43
0.00000001
 40
0.0
 40
0.0
 40
0.0
 40
0.0
 40
1.0
 40
1.0
 40
1.0
 40
1.0
 10
100.97264811197915
 20
240.0235921223958
 30
0.0
 10
100.86481662326388
 20
240.02118055555553
 30
0.0
 10
100.77834472656249
 20
239.93333062065969
 30
0.0
 10
100.77662217881944
 20
239.82618815104163
 30
0.0
  0
SPLINE
  5
F9
100
AcDbEntity
  8
レイヤー_2
 62
     7
100
AcDbSpline
210
0.0
220
0.0
230
1.0
 70
     8
 71
     3
 72
     8
 73
     4
 74
     0
 42
0.00000001
 43
0.00000001
 40
0.0
 40
0.0
 40
0.0
 40
0.0
 40
1.0
 40
1.0
 40
1.0
 40
1.0
 10
106.55783691406249
 20
240.08629286024302
 30
0.0
 10
104.59378797743055
 20
240.08629286024302
 30
0.0
 10
102.6359402126736
 20
240.06355523003469
 30
0.0
 10
100.97264811197915
 20
240.0235921223958
 30
0.0
  0
SPLINE
  5
F8
100
AcDbEntity
  8
レイヤー_2
 62
     7
100
AcDbSpline
210
0.0
220
0.0
230
1.0
 70
     8
 71
     3
 72
    11
 73
     7
 74
     0
 42
0.00000001
 43
0.00000001
 40
0.0
 40
0.0
 40
0.0
 40
0.0
 40
1.0
 40
1.0
 40
1.0
 40
2.0
 40
2.0
 40
2.0
 40
2.0
 10
112.77795681423611
 20
235.58596462673609
 30
0.0
 10
112.5702175564236
 20
235.58596462673609
 30
0.0
 10
112.4027859157986
 20
235.41784396701388
 30
0.0
 10
112.4027859157986
 20
235.2107937282986
 30
0.0
 10
112.4027859157986
 20
235.20907118055553
 30
0.0
 10
112.4027859157986
 20
235.20734863281248
 30
0.0
 10
112.4027859157986
 20
235.20562608506941
 30
0.0
  0
SPLINE
  5
F7
100
AcDbEntity
  8
レイヤー_2
 62
     7
100
AcDbSpline
210
0.0
220
0.0
230
1.0
 70
     8
 71
     3
 72
     8
 73
     4
 74
     0
 42
0.00000001
 43
0.00000001
 40
0.0
 40
0.0
 40
0.0
 40
0.0
 40
1.0
 40
1.0
 40
1.0
 40
1.0
 10
129.80809733072917
 20
239.88613281249997
 30
0.0
 10
129.80809733072917
 20
239.99603135850691
 30
0.0
 10
129.71852484809025
 20
240.08629286024302
 30
0.0
 10
129.60793728298609
 20
240.08629286024302
 30
0.0
  0
LINE
  5
F6
100
AcDbEntity
  8
レイヤー_2
 62
     7
100
AcDbLine
 10
101.050507
 20
228.435669
 30
0.0
 11
101.050507
 21
227.810729
 31
0.0
  0
LINE
  5
F5
100
AcDbEntity
  8
レイヤー_2
 62
     7
100
AcDbLine
 10
112.051386
 20
227.810729
 30
0.0
 11
112.051386
 21
228.435669
 31
0.0
  0
LINE
  5
F4
100
AcDbEntity
  8
レイヤー_2
 62
     7
100
AcDbLine
 10
101.103906
 20
228.585875
 30
0.0
 11
101.093915
 21
228.559003
 31
0.0
  0
LINE
  5
F3
100
AcDbEntity
  8
レイヤー_2
 62
     7
100
AcDbLine
 10
101.093915
 20
228.559003
 30
0.0
 11
101.050507
 21
228.435669
 31
0.0
  0
LINE
  5
F2
100
AcDbEntity
  8
レイヤー_2
 62
     7
100
AcDbLine
 10
112.051386
 20
228.435669
 30
0.0
 11
111.997987
 21
228.585875
 31
0.0
  0
LINE
  5
F1
100
AcDbEntity
  8
レイヤー_2
 62
     7
100
AcDbLine
 10
138.301636
 20
227.831744
 30
0.0
 11
112.381082
 21
227.831744
 31
0.0
  0
LINE
  5
F0
100
AcDbEntity
  8
レイヤー_2
 62
     7
100
AcDbLine
 10
114.850526
 20
224.240921
 30
0.0
 11
138.301636
 21
224.240921
 31
0.0
  0
LINE
  5
EF
100
AcDbEntity
  8
レイヤー_2
 62
     7
100
AcDbLine
 10
112.400719
 20
224.240921
 30
0.0
 11
113.254414
 21
224.240921
 31
0.0
  0
SPLINE
  5
EE
100
AcDbEntity
  8
レイヤー_2
 62
     7
100
AcDbSpline
210
0.0
220
0.0
230
1.0
 70
     8
 71
     3
 72
     8
 73
     4
 74
     0
 42
0.00000001
 43
0.00000001
 40
0.0
 40
0.0
 40
0.0
 40
0.0
 40
1.0
 40
1.0
 40
1.0
 40
1.0
 10
145.07951660156249
 20
225.36367730034721
 30
0.0
 10
143.09720865885416
 20
227.02731391059027
 30
0.0
 10
140.68150770399305
 20
227.83725585937498
 30
0.0
 10
138.3016357421875
 20
227.83174370659719
 30
0.0
  0
SPLINE
  5
ED
100
AcDbEntity
  8
レイヤー_2
 62
     7
100
AcDbSpline
210
0.0
220
0.0
230
1.0
 70
     8
 71
     3
 72
     8
 73
     4
 74
     0
 42
0.00000001
 43
0.00000001
 40
0.0
 40
0.0
 40
0.0
 40
0.0
 40
1.0
 40
1.0
 40
1.0
 40
1.0
 10
142.77164713541666
 20
222.6131130642361
 30
0.0
 10
141.46388888888887
 20
223.71140950520831
 30
0.0
 10
139.87087673611109
 20
224.24505479600691
 30
0.0
 10
138.3016357421875
 20
224.2409206814236
 30
0.0
  0
LINE
  5
EC
100
AcDbEntity
  8
レイヤー_2
 62
     7
100
AcDbLine
 10
144.567231
 20
221.106917
 30
0.0
 11
146.448598
 21
219.52803
 31
0.0
  0
LINE
  5
EB
100
AcDbEntity
  8
レイヤー_2
 62
     7
100
AcDbLine
 10
142.771647
 20
222.613113
 30
0.0
 11
143.96744
 21
221.609901
 31
0.0
  0
LINE
  5
EA
100
AcDbEntity
  8
レイヤー_2
 62
     7
100
AcDbLine
 10
148.756467
 20
222.27825
 30
0.0
 11
145.079517
 21
225.363677
 31
0.0
  0
SPLINE
  5
E9
100
AcDbEntity
  8
レイヤー_2
 62
     7
100
AcDbSpline
210
0.0
220
0.0
230
1.0
 70
     8
 71
     3
 72
     8
 73
     4
 74
     0
 42
0.00000001
 43
0.00000001
 40
0.0
 40
0.0
 40
0.0
 40
0.0
 40
1.0
 40
1.0
 40
1.0
 40
1.0
 10
146.44859754774305
 20
219.5280300564236
 30
0.0
 10
146.53334689670137
 20
219.4574055989583
 30
0.0
 10
146.65943739149304
 20
219.46808539496527
 30
0.0
 10
146.73006184895831
 20
219.5528347439236
 30
0.0
  0
SPLINE
  5
E8
100
AcDbEntity
  8
レイヤー_2
 62
     7
100
AcDbSpline
210
0.0
220
0.0
230
1.0
 70
     8
 71
     3
 72
     8
 73
     4
 74
     0
 42
0.00000001
 43
0.00000001
 40
0.0
 40
0.0
 40
0.0
 40
0.0
 40
1.0
 40
1.0
 40
1.0
 40
1.0
 10
148.82778049045137
 20
222.12563205295137
 30
0.0
 10
148.82778049045137
 20
222.18695475260415
 30
0.0
 10
148.80056423611109
 20
222.24207628038192
 30
0.0
 10
148.75646701388888
 20
222.27824978298608
 30
0.0
  0
SPLINE
  5
E7
100
AcDbEntity
  8
レイヤー_2
 62
     7
100
AcDbSpline
210
0.0
220
0.0
230
1.0
 70
     8
 71
     3
 72
     8
 73
     4
 74
     0
 42
0.00000001
 43
0.00000001
 40
0.0
 40
0.0
 40
0.0
 40
0.0
 40
1.0
 40
1.0
 40
1.0
 40
1.0
 10
148.78092719184028
 20
221.99678548177081
 30
0.0
 10
148.8126220703125
 20
222.03399251302082
 30
0.0
 10
148.82778049045137
 20
222.08015679253469
 30
0.0
 10
148.82778049045137
 20
222.12563205295137
 30
0.0
  0
SPLINE
  5
E6
100
AcDbEntity
  8
レイヤー_2
 62
     7
100
AcDbSpline
210
0.0
220
0.0
230
1.0
 70
     8
 71
     3
 72
     8
 73
     4
 74
     0
 42
0.00000001
 43
0.00000001
 40
0.0
 40
0.0
 40
0.0
 40
0.0
 40
1.0
 40
1.0
 40
1.0
 40
1.0
 10
100.77593315972221
 20
227.81072862413191
 30
0.0
 10
100.73424750434027
 20
227.81072862413191
 30
0.0
 10
100.70151909722222
 20
227.77696668836805
 30
0.0
 10
100.70151909722222
 20
227.73631456163193
 30
0.0
  0
LINE
  5
E5
100
AcDbEntity
  8
レイヤー_2
 62
     7
100
AcDbLine
 10
112.400719
 20
201.561168
 30
0.0
 11
112.400719
 21
224.240921
 31
0.0
  0
LINE
  5
E4
100
AcDbEntity
  8
レイヤー_2
 62
     7
100
AcDbLine
 10
100.701519
 20
227.736315
 30
0.0
 11
100.701519
 21
201.561168
 31
0.0
  0
LINE
  5
E3
100
AcDbEntity
  8
レイヤー_2
  6
AI9-LType2
 62
     7
100
AcDbLine
 10
102.1898
 20
148.280355
 30
0.0
 11
111.164619
 21
148.280355
 31
0.0
  0
LINE
  5
E2
100
AcDbEntity
  8
レイヤー_2
 62
     7
100
AcDbLine
 10
111.164619
 20
148.280355
 30
0.0
 11
112.164041
 21
148.280355
 31
0.0
  0
LINE
  5
E1
100
AcDbEntity
  8
レイヤー_2
  6
AI9-LType2
 62
     7
100
AcDbLine
 10
100.545112
 20
148.280355
 30
0.0
 11
101.189
 21
148.280355
 31
0.0
  0
LINE
  5
DF
100
AcDbEntity
  8
レイヤー_2
 62
     7
100
AcDbLine
 10
101.189
 20
148.280355
 30
0.0
 11
102.1898
 21
148.280355
 31
0.0
  0
LINE
  5
DE
100
AcDbEntity
  8
レイヤー_2
 62
     7
100
AcDbLine
 10
104.615837
 20
147.030819
 30
0.0
 11
112.119599
 21
147.030819
 31
0.0
  0
LINE
  5
DD
100
AcDbEntity
  8
レイヤー_2
 62
     7
100
AcDbLine
 10
106.33115
 20
133.850228
 30
0.0
 11
105.44197
 21
133.705534
 31
0.0
  0
SPLINE
  5
DC
100
AcDbEntity
  8
レイヤー_2
 62
     7
100
AcDbSpline
210
0.0
220
0.0
230
1.0
 70
     8
 71
     3
 72
    11
 73
     7
 74
     0
 42
0.00000001
 43
0.00000001
 40
0.0
 40
0.0
 40
0.0
 40
0.0
 40
1.0
 40
1.0
 40
1.0
 40
2.0
 40
2.0
 40
2.0
 40
2.0
 10
105.4419704861111
 20
133.70553385416665
 30
0.0
 10
105.42061089409721
 20
133.70553385416665
 30
0.0
 10
105.39959581163194
 20
133.70587836371527
 30
0.0
 10
105.37823621961805
 20
133.70587836371527
 30
0.0
 10
105.09952799479166
 20
133.7127685546875
 30
0.0
 10
104.82598741319444
 20
133.7816704644097
 30
0.0
 10
104.55244683159721
 20
133.85022786458333
 30
0.0
  0
LINE
  5
DB
100
AcDbEntity
  8
レイヤー_2
 62
     7
100
AcDbLine
 10
104.552447
 20
133.850228
 30
0.0
 11
104.552447
 21
136.56014
 31
0.0
  0
SPLINE
  5
DA
100
AcDbEntity
  8
レイヤー_2
 62
     7
100
AcDbSpline
210
0.0
220
0.0
230
1.0
 70
     8
 71
     3
 72
    11
 73
     7
 74
     0
 42
0.00000001
 43
0.00000001
 40
0.0
 40
0.0
 40
0.0
 40
0.0
 40
1.0
 40
1.0
 40
1.0
 40
2.0
 40
2.0
 40
2.0
 40
2.0
 10
105.4419704861111
 20
136.70552300347222
 30
0.0
 10
105.42061089409721
 20
136.70552300347222
 30
0.0
 10
105.39959581163194
 20
136.704833984375
 30
0.0
 10
105.37823621961805
 20
136.70448947482637
 30
0.0
 10
105.09952799479166
 20
136.69863281249999
 30
0.0
 10
104.82598741319444
 20
136.62904188368054
 30
0.0
 10
104.55244683159721
 20
136.56013997395831
 30
0.0
  0
LINE
  5
D9
100
AcDbEntity
  8
レイヤー_2
 62
     7
100
AcDbLine
 10
106.33115
 20
136.56014
 30
0.0
 11
105.44197
 21
136.705523
 31
0.0
  0
LINE
  5
D8
100
AcDbEntity
  8
レイヤー_2
 62
     7
100
AcDbLine
 10
106.33115
 20
133.850228
 30
0.0
 11
106.33115
 21
136.56014
 31
0.0
  0
LINE
  5
D7
100
AcDbEntity
  8
レイヤー_2
 62
     7
100
AcDbLine
 10
104.552447
 20
136.56014
 30
0.0
 11
103.849303
 21
136.705523
 31
0.0
  0
LINE
  5
D6
100
AcDbEntity
  8
レイヤー_2
 62
     7
100
AcDbLine
 10
103.849303
 20
136.705523
 30
0.0
 11
105.44197
 21
136.705523
 31
0.0
  0
LINE
  5
D5
100
AcDbEntity
  8
レイヤー_2
 62
     7
100
AcDbLine
 10
105.44197
 20
133.705534
 30
0.0
 11
103.849303
 21
133.705534
 31
0.0
  0
LINE
  5
D4
100
AcDbEntity
  8
レイヤー_2
 62
     7
100
AcDbLine
 10
104.552447
 20
133.850228
 30
0.0
 11
103.849303
 21
133.705534
 31
0.0
  0
LINE
  5
D3
100
AcDbEntity
  8
レイヤー_2
 62
     7
100
AcDbLine
 10
106.550947
 20
143.205385
 30
0.0
 11
103.301188
 21
143.205385
 31
0.0
  0
LINE
  5
D2
100
AcDbEntity
  8
レイヤー_2
 62
     7
100
AcDbLine
 10
106.175776
 20
142.555984
 30
0.0
 11
103.676015
 21
142.555984
 31
0.0
  0
LINE
  5
D1
100
AcDbEntity
  8
レイヤー_2
 62
     7
100
AcDbLine
 10
106.550947
 20
143.570909
 30
0.0
 11
103.301188
 21
143.570909
 31
0.0
  0
SPLINE
  5
D0
100
AcDbEntity
  8
レイヤー_2
 62
     7
100
AcDbSpline
210
0.0
220
0.0
230
1.0
 70
     8
 71
     3
 72
    11
 73
     7
 74
     0
 42
0.00000001
 43
0.00000001
 40
0.0
 40
0.0
 40
0.0
 40
0.0
 40
1.0
 40
1.0
 40
1.0
 40
2.0
 40
2.0
 40
2.0
 40
2.0
 10
103.84930284288194
 20
133.70553385416665
 30
0.0
 10
103.83276638454861
 20
133.70553385416665
 30
0.0
 10
103.81588541666666
 20
133.70587836371527
 30
0.0
 10
103.79934895833333
 20
133.70587836371527
 30
0.0
 10
103.57886284722221
 20
133.7127685546875
 30
0.0
 10
103.36251085069443
 20
133.7816704644097
 30
0.0
 10
103.14615885416666
 20
133.85022786458333
 30
0.0
  0
LINE
  5
CF
100
AcDbEntity
  8
レイヤー_2
 62
     7
100
AcDbLine
 10
103.146159
 20
133.850228
 30
0.0
 11
103.146159
 21
136.56014
 31
0.0
  0
SPLINE
  5
CE
100
AcDbEntity
  8
レイヤー_2
 62
     7
100
AcDbSpline
210
0.0
220
0.0
230
1.0
 70
     8
 71
     3
 72
    11
 73
     7
 74
     0
 42
0.00000001
 43
0.00000001
 40
0.0
 40
0.0
 40
0.0
 40
0.0
 40
1.0
 40
1.0
 40
1.0
 40
2.0
 40
2.0
 40
2.0
 40
2.0
 10
103.84930284288194
 20
136.70552300347222
 30
0.0
 10
103.83276638454861
 20
136.70552300347222
 30
0.0
 10
103.81588541666666
 20
136.704833984375
 30
0.0
 10
103.79934895833333
 20
136.70448947482637
 30
0.0
 10
103.57886284722221
 20
136.69863281249999
 30
0.0
 10
103.36251085069443
 20
136.62904188368054
 30
0.0
 10
103.14615885416666
 20
136.56013997395831
 30
0.0
  0
SPLINE
  5
CD
100
AcDbEntity
  8
レイヤー_2
 62
     7
100
AcDbSpline
210
0.0
220
0.0
230
1.0
 70
     8
 71
     3
 72
    11
 73
     7
 74
     0
 42
0.00000001
 43
0.00000001
 40
0.0
 40
0.0
 40
0.0
 40
0.0
 40
1.0
 40
1.0
 40
1.0
 40
2.0
 40
2.0
 40
2.0
 40
2.0
 10
106.51856282552082
 20
136.70552300347222
 30
0.0
 10
106.47136501736109
 20
136.68898654513887
 30
0.0
 10
106.42416720920139
 20
136.67313910590278
 30
0.0
 10
106.37869194878471
 20
136.62180718315972
 30
0.0
 10
106.3625
 20
136.60389268663192
 30
0.0
 10
106.3469970703125
 20
136.58218858506945
 30
0.0
 10
106.33114963107639
 20
136.56013997395831
 30
0.0
  0
LINE
  5
CC
100
AcDbEntity
  8
レイヤー_2
 62
     7
100
AcDbLine
 10
105.44197
 20
136.705523
 30
0.0
 11
106.518563
 21
136.705523
 31
0.0
  0
SPLINE
  5
CB
100
AcDbEntity
  8
レイヤー_2
 62
     7
100
AcDbSpline
210
0.0
220
0.0
230
1.0
 70
     8
 71
     3
 72
    11
 73
     7
 74
     0
 42
0.00000001
 43
0.00000001
 40
0.0
 40
0.0
 40
0.0
 40
0.0
 40
1.0
 40
1.0
 40
1.0
 40
2.0
 40
2.0
 40
2.0
 40
2.0
 10
106.51856282552082
 20
133.70553385416665
 30
0.0
 10
106.47136501736109
 20
133.72207031249999
 30
0.0
 10
106.42416720920139
 20
133.73757324218749
 30
0.0
 10
106.37869194878471
 20
133.78890516493055
 30
0.0
 10
106.3625
 20
133.80681966145832
 30
0.0
 10
106.3469970703125
 20
133.82852376302083
 30
0.0
 10
106.33114963107639
 20
133.85022786458333
 30
0.0
  0
LINE
  5
CA
100
AcDbEntity
  8
レイヤー_2
 62
     7
100
AcDbLine
 10
106.518563
 20
133.705534
 30
0.0
 11
105.44197
 21
133.705534
 31
0.0
  0
SPLINE
  5
C9
100
AcDbEntity
  8
レイヤー_2
 62
     7
100
AcDbSpline
210
0.0
220
0.0
230
1.0
 70
     8
 71
     3
 72
    11
 73
     7
 74
     0
 42
0.00000001
 43
0.00000001
 40
0.0
 40
0.0
 40
0.0
 40
0.0
 40
1.0
 40
1.0
 40
1.0
 40
2.0
 40
2.0
 40
2.0
 40
2.0
 10
106.58195258246526
 20
133.72930501302082
 30
0.0
 10
106.58195258246526
 20
133.72930501302082
 30
0.0
 10
106.56920572916665
 20
133.71690266927081
 30
0.0
 10
106.56920572916665
 20
133.71690266927081
 30
0.0
 10
106.55266927083332
 20
133.70277777777775
 30
0.0
 10
106.53544379340276
 20
133.7041558159722
 30
0.0
 10
106.51856282552082
 20
133.70553385416665
 30
0.0
  0
SPLINE
  5
C8
100
AcDbEntity
  8
レイヤー_2
 62
     7
100
AcDbSpline
210
0.0
220
0.0
230
1.0
 70
     8
 71
     3
 72
    11
 73
     7
 74
     0
 42
0.00000001
 43
0.00000001
 40
0.0
 40
0.0
 40
0.0
 40
0.0
 40
1.0
 40
1.0
 40
1.0
 40
2.0
 40
2.0
 40
2.0
 40
2.0
 10
106.58436414930554
 20
136.67934027777775
 30
0.0
 10
106.58436414930554
 20
136.67934027777775
 30
0.0
 10
106.56920572916665
 20
136.69380967881943
 30
0.0
 10
106.56920572916665
 20
136.69380967881943
 30
0.0
 10
106.55266927083332
 20
136.70793457031249
 30
0.0
 10
106.53544379340276
 20
136.70655653211804
 30
0.0
 10
106.51856282552082
 20
136.70552300347222
 30
0.0
  0
SPLINE
  5
C7
100
AcDbEntity
  8
レイヤー_2
 62
     7
100
AcDbSpline
210
0.0
220
0.0
230
1.0
 70
     8
 71
     3
 72
    11
 73
     7
 74
     0
 42
0.00000001
 43
0.00000001
 40
0.0
 40
0.0
 40
0.0
 40
0.0
 40
1.0
 40
1.0
 40
1.0
 40
2.0
 40
2.0
 40
2.0
 40
2.0
 10
103.14615885416666
 20
136.56013997395831
 30
0.0
 10
103.16235080295138
 20
136.58287760416664
 30
0.0
 10
103.17785373263888
 20
136.60561523437499
 30
0.0
 10
103.19370117187499
 20
136.62180718315972
 30
0.0
 10
103.21850585937499
 20
136.64695638020831
 30
0.0
 10
103.24399956597222
 20
136.65660264756943
 30
0.0
 10
103.26949327256943
 20
136.66659342447915
 30
0.0
  0
LINE
  5
C6
100
AcDbEntity
  8
レイヤー_2
 62
     7
100
AcDbLine
 10
103.301188
 20
136.705523
 30
0.0
 11
103.849303
 21
136.705523
 31
0.0
  0
SPLINE
  5
C5
100
AcDbEntity
  8
レイヤー_2
 62
     7
100
AcDbSpline
210
0.0
220
0.0
230
1.0
 70
     8
 71
     3
 72
    11
 73
     7
 74
     0
 42
0.00000001
 43
0.00000001
 40
0.0
 40
0.0
 40
0.0
 40
0.0
 40
1.0
 40
1.0
 40
1.0
 40
2.0
 40
2.0
 40
2.0
 40
2.0
 10
103.14615885416666
 20
133.85022786458333
 30
0.0
 10
103.16235080295138
 20
133.8278347439236
 30
0.0
 10
103.17785373263888
 20
133.80509711371528
 30
0.0
 10
103.19370117187499
 20
133.78890516493055
 30
0.0
 10
103.21850585937499
 20
133.76375596788193
 30
0.0
 10
103.24399956597222
 20
133.75410970052081
 30
0.0
 10
103.26949327256943
 20
133.7441189236111
 30
0.0
  0
LINE
  5
C4
100
AcDbEntity
  8
レイヤー_2
 62
     7
100
AcDbLine
 10
103.849303
 20
133.705534
 30
0.0
 11
103.301188
 21
133.705534
 31
0.0
  0
LINE
  5
C3
100
AcDbEntity
  8
レイヤー_2
 62
     7
100
AcDbLine
 10
103.298088
 20
146.530246
 30
0.0
 11
104.851826
 21
146.530246
 31
0.0
  0
LINE
  5
C2
100
AcDbEntity
  8
レイヤー_2
 62
     7
100
AcDbLine
 10
103.298088
 20
147.030819
 30
0.0
 11
104.615837
 21
147.030819
 31
0.0
  0
LINE
  5
C1
100
AcDbEntity
  8
レイヤー_2
 62
     7
100
AcDbLine
 10
112.924718
 20
147.030819
 30
0.0
 11
112.924718
 21
146.530246
 31
0.0
  0
LINE
  5
C0
100
AcDbEntity
  8
レイヤー_2
 62
     7
100
AcDbLine
 10
100.051085
 20
146.530246
 30
0.0
 11
100.41971
 21
146.530246
 31
0.0
  0
LINE
  5
BF
100
AcDbEntity
  8
レイヤー_2
 62
     7
100
AcDbLine
 10
100.051085
 20
147.030819
 30
0.0
 11
103.298088
 21
147.030819
 31
0.0
  0
LINE
  5
BE
100
AcDbEntity
  8
レイヤー_2
 62
     7
100
AcDbLine
 10
112.119599
 20
147.030819
 30
0.0
 11
112.924718
 21
147.030819
 31
0.0
  0
LINE
  5
BD
100
AcDbEntity
  8
レイヤー_2
 62
     7
100
AcDbLine
 10
106.674281
 20
147.030819
 30
0.0
 11
106.674281
 21
146.530246
 31
0.0
  0
POLYLINE
  5
B8
100
AcDbEntity
  8
レイヤー_2
 62
     7
100
AcDb2dPolyline
 66
     1
 10
0.0
 20
0.0
 30
0.0
  0
VERTEX
  5
B9
100
AcDbEntity
  8
レイヤー_2
 62
     7
100
AcDbVertex
100
AcDb2dVertex
 10
103.903391
 20
144.530024
 30
0.0
  0
VERTEX
  5
BA
100
AcDbEntity
  8
レイヤー_2
 62
     7
100
AcDbVertex
100
AcDb2dVertex
 10
103.925095
 20
144.530024
 30
0.0
  0
VERTEX
  5
BB
100
AcDbEntity
  8
レイヤー_2
 62
     7
100
AcDbVertex
100
AcDb2dVertex
 10
103.926473
 20
144.530024
 30
0.0
  0
SEQEND
  5
BC
100
AcDbEntity
  8
レイヤー_2
 62
     7
  0
LINE
  5
B7
100
AcDbEntity
  8
レイヤー_2
 62
     7
100
AcDbLine
 10
103.421766
 20
144.530024
 30
0.0
 11
100.883076
 21
144.530024
 31
0.0
  0
LINE
  5
B6
100
AcDbEntity
  8
レイヤー_2
 62
     7
100
AcDbLine
 10
100.883076
 20
144.530024
 30
0.0
 11
100.301199
 21
144.530024
 31
0.0
  0
SPLINE
  5
B5
100
AcDbEntity
  8
レイヤー_2
 62
     7
100
AcDbSpline
210
0.0
220
0.0
230
1.0
 70
     8
 71
     3
 72
     8
 73
     4
 74
     0
 42
0.00000001
 43
0.00000001
 40
0.0
 40
0.0
 40
0.0
 40
0.0
 40
1.0
 40
1.0
 40
1.0
 40
1.0
 10
112.67460394965276
 20
144.53002387152776
 30
0.0
 10
112.81309678819443
 20
144.53002387152776
 30
0.0
 10
112.92471788194443
 20
144.64198947482637
 30
0.0
 10
112.92471788194443
 20
144.78013780381943
 30
0.0
  0
LINE
  5
B4
100
AcDbEntity
  8
レイヤー_2
 62
     7
100
AcDbLine
 10
112.924718
 20
146.530246
 30
0.0
 11
112.924718
 21
144.780138
 31
0.0
  0
LINE
  5
B3
100
AcDbEntity
  8
レイヤー_2
 62
     7
100
AcDbLine
 10
103.298088
 20
146.530246
 30
0.0
 11
100.41971
 21
146.530246
 31
0.0
  0
SPLINE
  5
B2
100
AcDbEntity
  8
レイヤー_2
 62
     7
100
AcDbSpline
210
0.0
220
0.0
230
1.0
 70
     8
 71
     3
 72
    23
 73
    19
 74
     0
 42
0.00000001
 43
0.00000001
 40
0.0
 40
0.0
 40
0.0
 40
0.0
 40
1.0
 40
1.0
 40
1.0
 40
2.0
 40
2.0
 40
2.0
 40
3.0
 40
3.0
 40
3.0
 40
4.0
 40
4.0
 40
4.0
 40
5.0
 40
5.0
 40
5.0
 40
6.0
 40
6.0
 40
6.0
 40
6.0
 10
103.57128363715277
 20
144.53105740017361
 30
0.0
 10
103.57128363715277
 20
144.53105740017361
 30
0.0
 10
103.55405815972222
 20
144.5407036675347
 30
0.0
 10
103.54578993055554
 20
144.55069444444442
 30
0.0
 10
103.53786621093749
 20
144.56068522135416
 30
0.0
 10
103.52959798177082
 20
144.57618815104166
 30
0.0
 10
103.52305230034722
 20
144.5958251953125
 30
0.0
 10
103.51616210937499
 20
144.61477322048609
 30
0.0
 10
103.51030544704861
 20
144.63716634114581
 30
0.0
 10
103.50479329427083
 20
144.66231553819443
 30
0.0
 10
103.49997016059027
 20
144.68712022569443
 30
0.0
 10
103.49618055555554
 20
144.71330295138887
 30
0.0
 10
103.49411349826389
 20
144.7418972439236
 30
0.0
 10
103.49342447916666
 20
144.75223253038192
 30
0.0
 10
103.49204644097222
 20
144.76291232638889
 30
0.0
 10
103.49204644097222
 20
144.77393663194442
 30
0.0
 10
103.49204644097222
 20
144.77393663194442
 30
0.0
 10
103.49170193142361
 20
144.78013780381943
 30
0.0
 10
103.49170193142361
 20
144.78013780381943
 30
0.0
  0
SPLINE
  5
B1
100
AcDbEntity
  8
レイヤー_2
 62
     7
100
AcDbSpline
210
0.0
220
0.0
230
1.0
 70
     8
 71
     3
 72
     8
 73
     4
 74
     0
 42
0.00000001
 43
0.00000001
 40
0.0
 40
0.0
 40
0.0
 40
0.0
 40
1.0
 40
1.0
 40
1.0
 40
1.0
 10
103.92647298177083
 20
144.53002387152776
 30
0.0
 10
102.22183973524305
 20
144.37086046006942
 30
0.0
 10
101.1135525173611
 20
144.18034667968749
 30
0.0
 10
100.7848904079861
 20
144.01291503906248
 30
0.0
  0
POLYLINE
  5
AB
100
AcDbEntity
  8
レイヤー_2
 62
     7
100
AcDb2dPolyline
 66
     1
 10
0.0
 20
0.0
 30
0.0
  0
VERTEX
  5
AC
100
AcDbEntity
  8
レイヤー_2
 62
     7
100
AcDbVertex
100
AcDb2dVertex
 10
103.571284
 20
144.531057
 30
0.0
  0
VERTEX
  5
AD
100
AcDbEntity
  8
レイヤー_2
 62
     7
100
AcDbVertex
100
AcDb2dVertex
 10
103.574384
 20
144.530713
 30
0.0
  0
VERTEX
  5
AE
100
AcDbEntity
  8
レイヤー_2
 62
     7
100
AcDbVertex
100
AcDb2dVertex
 10
103.581274
 20
144.530024
 30
0.0
  0
VERTEX
  5
AF
100
AcDbEntity
  8
レイヤー_2
 62
     7
100
AcDbVertex
100
AcDb2dVertex
 10
103.582997
 20
144.530024
 30
0.0
  0
SEQEND
  5
B0
100
AcDbEntity
  8
レイヤー_2
 62
     7
  0
SPLINE
  5
AA
100
AcDbEntity
  8
レイヤー_2
 62
     7
100
AcDbSpline
210
0.0
220
0.0
230
1.0
 70
     8
 71
     3
 72
     8
 73
     4
 74
     0
 42
0.00000001
 43
0.00000001
 40
0.0
 40
0.0
 40
0.0
 40
0.0
 40
1.0
 40
1.0
 40
1.0
 40
1.0
 10
104.20621473524305
 20
144.44803059895833
 30
0.0
 10
103.14236924913193
 20
144.33572048611109
 30
0.0
 10
102.44921603732638
 20
144.21169704861109
 30
0.0
 10
102.18842230902777
 20
144.10145399305554
 30
0.0
  0
LINE
  5
A9
100
AcDbEntity
  8
レイヤー_2
 62
     7
100
AcDbLine
 10
103.903391
 20
144.530024
 30
0.0
 11
103.582997
 21
144.530024
 31
0.0
  0
LINE
  5
A8
100
AcDbEntity
  8
レイヤー_2
 62
     7
100
AcDbLine
 10
103.582997
 20
144.530024
 30
0.0
 11
103.421766
 21
144.530024
 31
0.0
  0
POLYLINE
  5
A2
100
AcDbEntity
  8
レイヤー_2
 62
     7
100
AcDb2dPolyline
 66
     1
 10
0.0
 20
0.0
 30
0.0
  0
VERTEX
  5
A3
100
AcDbEntity
  8
レイヤー_2
 62
     7
100
AcDbVertex
100
AcDb2dVertex
 10
112.657723
 20
144.530024
 30
0.0
  0
VERTEX
  5
A4
100
AcDbEntity
  8
レイヤー_2
 62
     7
100
AcDbVertex
100
AcDb2dVertex
 10
112.665302
 20
144.530024
 30
0.0
  0
VERTEX
  5
A5
100
AcDbEntity
  8
レイヤー_2
 62
     7
100
AcDbVertex
100
AcDb2dVertex
 10
112.672881
 20
144.530713
 30
0.0
  0
VERTEX
  5
A6
100
AcDbEntity
  8
レイヤー_2
 62
     7
100
AcDbVertex
100
AcDb2dVertex
 10
112.675637
 20
144.531057
 30
0.0
  0
SEQEND
  5
A7
100
AcDbEntity
  8
レイヤー_2
 62
     7
  0
LINE
  5
A1
100
AcDbEntity
  8
レイヤー_2
 62
     7
100
AcDbLine
 10
112.336985
 20
144.530024
 30
0.0
 11
112.657723
 21
144.530024
 31
0.0
  0
POLYLINE
  5
9C
100
AcDbEntity
  8
レイヤー_2
 62
     7
100
AcDb2dPolyline
 66
     1
 10
0.0
 20
0.0
 30
0.0
  0
VERTEX
  5
9D
100
AcDbEntity
  8
レイヤー_2
 62
     7
100
AcDbVertex
100
AcDb2dVertex
 10
112.30839
 20
144.530024
 30
0.0
  0
VERTEX
  5
9E
100
AcDbEntity
  8
レイヤー_2
 62
     7
100
AcDbVertex
100
AcDb2dVertex
 10
112.310802
 20
144.530024
 30
0.0
  0
VERTEX
  5
9F
100
AcDbEntity
  8
レイヤー_2
 62
     7
100
AcDbVertex
100
AcDb2dVertex
 10
112.336985
 20
144.530024
 30
0.0
  0
SEQEND
  5
A0
100
AcDbEntity
  8
レイヤー_2
 62
     7
  0
SPLINE
  5
9B
100
AcDbEntity
  8
レイヤー_2
 62
     7
100
AcDbSpline
210
0.0
220
0.0
230
1.0
 70
     8
 71
     3
 72
     8
 73
     4
 74
     0
 42
0.00000001
 43
0.00000001
 40
0.0
 40
0.0
 40
0.0
 40
0.0
 40
1.0
 40
1.0
 40
1.0
 40
1.0
 10
106.65740017361109
 20
143.72249348958331
 30
0.0
 10
106.75110677083332
 20
143.7280056423611
 30
0.0
 10
106.84619140624999
 20
143.73282877604166
 30
0.0
 10
106.92611762152777
 20
143.73730740017359
 30
0.0
  0
SPLINE
  5
9A
100
AcDbEntity
  8
レイヤー_2
 62
     7
100
AcDbSpline
210
0.0
220
0.0
230
1.0
 70
     8
 71
     3
 72
     8
 73
     4
 74
     0
 42
0.00000001
 43
0.00000001
 40
0.0
 40
0.0
 40
0.0
 40
0.0
 40
1.0
 40
1.0
 40
1.0
 40
1.0
 10
109.42587890624999
 20
143.93126627604164
 30
0.0
 10
110.65991210937499
 20
144.05528971354164
 30
0.0
 10
111.53083224826388
 20
144.19481608072914
 30
0.0
 10
111.97145996093749
 20
144.32297363281248
 30
0.0
  0
SPLINE
  5
99
100
AcDbEntity
  8
レイヤー_2
 62
     7
100
AcDbSpline
210
0.0
220
0.0
230
1.0
 70
     8
 71
     3
 72
    23
 73
    19
 74
     0
 42
0.00000001
 43
0.00000001
 40
0.0
 40
0.0
 40
0.0
 40
0.0
 40
1.0
 40
1.0
 40
1.0
 40
2.0
 40
2.0
 40
2.0
 40
3.0
 40
3.0
 40
3.0
 40
4.0
 40
4.0
 40
4.0
 40
5.0
 40
5.0
 40
5.0
 40
6.0
 40
6.0
 40
6.0
 40
6.0
 10
112.6756374782986
 20
144.53105740017361
 30
0.0
 10
112.70285373263889
 20
144.53588053385414
 30
0.0
 10
112.73006998697916
 20
144.5407036675347
 30
0.0
 10
112.75521918402777
 20
144.55069444444442
 30
0.0
 10
112.78174641927082
 20
144.56068522135416
 30
0.0
 10
112.80482855902777
 20
144.57618815104166
 30
0.0
 10
112.82549913194444
 20
144.5958251953125
 30
0.0
 10
112.84582519531249
 20
144.61477322048609
 30
0.0
 10
112.86305067274304
 20
144.63716634114581
 30
0.0
 10
112.87648654513887
 20
144.66231553819443
 30
0.0
 10
112.88957790798609
 20
144.68712022569443
 30
0.0
 10
112.89853515624999
 20
144.71330295138887
 30
0.0
 10
112.90370279947916
 20
144.7418972439236
 30
0.0
 10
112.90439181857637
 20
144.75223253038192
 30
0.0
 10
112.90611436631943
 20
144.76291232638889
 30
0.0
 10
112.90611436631943
 20
144.77393663194442
 30
0.0
 10
112.90611436631943
 20
144.77393663194442
 30
0.0
 10
112.90645887586804
 20
144.78013780381943
 30
0.0
 10
112.90645887586804
 20
144.78013780381943
 30
0.0
  0
LINE
  5
98
100
AcDbEntity
  8
レイヤー_2
 62
     7
100
AcDbLine
 10
112.924718
 20
146.530246
 30
0.0
 11
110.926907
 21
146.530246
 31
0.0
  0
LINE
  5
97
100
AcDbEntity
  8
レイヤー_2
 62
     7
100
AcDbLine
 10
112.657723
 20
144.530024
 30
0.0
 11
112.675293
 21
144.530024
 31
0.0
  0
LINE
  5
96
100
AcDbEntity
  8
レイヤー_2
 62
     7
100
AcDbLine
 10
110.926907
 20
146.530246
 30
0.0
 11
109.425879
 21
146.530246
 31
0.0
  0
LINE
  5
95
100
AcDbEntity
  8
レイヤー_2
 62
     7
100
AcDbLine
 10
104.224474
 20
143.58469
 30
0.0
 11
106.473088
 21
143.58469
 31
0.0
  0
LINE
  5
94
100
AcDbEntity
  8
レイヤー_2
 62
     7
100
AcDbLine
 10
106.675315
 20
146.530246
 30
0.0
 11
104.851826
 21
146.530246
 31
0.0
  0
LINE
  5
93
100
AcDbEntity
  8
レイヤー_2
 62
     7
100
AcDbLine
 10
103.832766
 20
143.582967
 30
0.0
 11
104.134901
 21
143.584001
 31
0.0
  0
LINE
  5
92
100
AcDbEntity
  8
レイヤー_2
 62
     7
100
AcDbLine
 10
104.134901
 20
143.584001
 30
0.0
 11
104.139724
 21
143.584001
 31
0.0
  0
LINE
  5
91
100
AcDbEntity
  8
レイヤー_2
 62
     7
100
AcDbLine
 10
104.139724
 20
143.584001
 30
0.0
 11
104.224474
 21
143.58469
 31
0.0
  0
LINE
  5
90
100
AcDbEntity
  8
レイヤー_2
 62
     7
100
AcDbLine
 10
106.473088
 20
143.58469
 30
0.0
 11
106.474121
 21
143.58469
 31
0.0
  0
LINE
  5
8F
100
AcDbEntity
  8
レイヤー_2
 62
     7
100
AcDbLine
 10
103.617792
 20
143.580556
 30
0.0
 11
103.832766
 21
143.582967
 31
0.0
  0
LINE
  5
8E
100
AcDbEntity
  8
レイヤー_2
 62
     7
100
AcDbLine
 10
103.617792
 20
143.580556
 30
0.0
 11
101.753651
 21
143.580556
 31
0.0
  0
SPLINE
  5
8D
100
AcDbEntity
  8
レイヤー_2
 62
     7
100
AcDbSpline
210
0.0
220
0.0
230
1.0
 70
     8
 71
     3
 72
     8
 73
     4
 74
     0
 42
0.00000001
 43
0.00000001
 40
0.0
 40
0.0
 40
0.0
 40
0.0
 40
1.0
 40
1.0
 40
1.0
 40
1.0
 10
106.47481011284721
 20
143.58400065104166
 30
0.0
 10
106.58195258246526
 20
143.60260416666665
 30
0.0
 10
106.66118977864582
 20
143.68735351562498
 30
0.0
 10
106.67841525607638
 20
143.79070638020832
 30
0.0
  0
LINE
  5
8C
100
AcDbEntity
  8
レイヤー_2
 62
     7
100
AcDbLine
 10
106.926118
 20
146.530246
 30
0.0
 11
106.675315
 21
146.530246
 31
0.0
  0
LINE
  5
8B
100
AcDbEntity
  8
レイヤー_2
 62
     7
100
AcDbLine
 10
106.68944
 20
143.855819
 30
0.0
 11
106.678415
 21
143.790706
 31
0.0
  0
LINE
  5
8A
100
AcDbEntity
  8
レイヤー_2
 62
     7
100
AcDbLine
 10
100.701519
 20
159.061092
 30
0.0
 11
112.400719
 21
159.061092
 31
0.0
  0
LINE
  5
89
100
AcDbEntity
  8
レイヤー_2
 62
     7
100
AcDbLine
 10
102.338973
 20
158.31075
 30
0.0
 11
110.763265
 21
158.31075
 31
0.0
  0
SPLINE
  5
88
100
AcDbEntity
  8
レイヤー_2
 62
     7
100
AcDbSpline
210
0.0
220
0.0
230
1.0
 70
     8
 71
     3
 72
    14
 73
    10
 74
     0
 42
0.00000001
 43
0.00000001
 40
0.0
 40
0.0
 40
0.0
 40
0.0
 40
1.0
 40
1.0
 40
1.0
 40
2.0
 40
2.0
 40
2.0
 40
3.0
 40
3.0
 40
3.0
 40
3.0
 10
100.67774793836804
 20
230.79831542968748
 30
0.0
 10
100.67085774739583
 20
230.74250488281248
 30
0.0
 10
100.66500108506943
 20
230.68703884548609
 30
0.0
 10
100.65914442274304
 20
230.64431966145833
 30
0.0
 10
100.65397677951388
 20
230.60091145833331
 30
0.0
 10
100.6484646267361
 20
230.56714952256942
 30
0.0
 10
100.6484646267361
 20
230.56714952256942
 30
0.0
 10
100.6484646267361
 20
230.56714952256942
 30
0.0
 10
100.64915364583332
 20
230.57093912760413
 30
0.0
 10
100.64915364583332
 20
230.57093912760413
 30
0.0
  0
SPLINE
  5
87
100
AcDbEntity
  8
レイヤー_2
 62
     7
100
AcDbSpline
210
0.0
220
0.0
230
1.0
 70
     8
 71
     3
 72
    29
 73
    25
 74
     0
 42
0.00000001
 43
0.00000001
 40
0.0
 40
0.0
 40
0.0
 40
0.0
 40
1.0
 40
1.0
 40
1.0
 40
2.0
 40
2.0
 40
2.0
 40
3.0
 40
3.0
 40
3.0
 40
4.0
 40
4.0
 40
4.0
 40
5.0
 40
5.0
 40
5.0
 40
6.0
 40
6.0
 40
6.0
 40
7.0
 40
7.0
 40
7.0
 40
8.0
 40
8.0
 40
8.0
 40
8.0
 10
100.67016872829861
 20
232.10228407118055
 30
0.0
 10
100.67016872829861
 20
232.10228407118055
 30
0.0
 10
100.66947970920138
 20
232.1077962239583
 30
0.0
 10
100.66947970920138
 20
232.1077962239583
 30
0.0
 10
100.66947970920138
 20
232.1077962239583
 30
0.0
 10
100.67258029513889
 20
232.07989095052082
 30
0.0
 10
100.67671440972221
 20
232.04165039062497
 30
0.0
 10
100.68119303385416
 20
232.00306532118054
 30
0.0
 10
100.68601616753472
 20
231.95621202256942
 30
0.0
 10
100.69049479166665
 20
231.89695638020831
 30
0.0
 10
100.69531792534721
 20
231.8373562282986
 30
0.0
 10
100.70048556857638
 20
231.76604275173608
 30
0.0
 10
100.7039306640625
 20
231.68783908420136
 30
0.0
 10
100.7073757595486
 20
231.60997992621526
 30
0.0
 10
100.70978732638888
 20
231.52523057725693
 30
0.0
 10
100.70978732638888
 20
231.43875868055554
 30
0.0
 10
100.71082085503471
 20
231.35332031249999
 30
0.0
 10
100.70909830729165
 20
231.26581488715274
 30
0.0
 10
100.70565321180554
 20
231.1800320095486
 30
0.0
 10
100.70151909722222
 20
231.09493815104165
 30
0.0
 10
100.69704047309027
 20
231.01294487847221
 30
0.0
 10
100.69083930121526
 20
230.94025336371524
 30
0.0
 10
100.68704969618055
 20
230.89029947916666
 30
0.0
 10
100.68188205295138
 20
230.84413519965275
 30
0.0
 10
100.67774793836804
 20
230.79831542968748
 30
0.0
  0
LINE
  5
86
100
AcDbEntity
  8
レイヤー_2
 62
     7
100
AcDbLine
 10
112.419322
 20
228.585875
 30
0.0
 11
100.696351
 21
228.585875
 31
0.0
  0
SPLINE
  5
85
100
AcDbEntity
  8
レイヤー_2
 62
     7
100
AcDbSpline
210
0.0
220
0.0
230
1.0
 70
     8
 71
     3
 72
    20
 73
    16
 74
     0
 42
0.00000001
 43
0.00000001
 40
0.0
 40
0.0
 40
0.0
 40
0.0
 40
1.0
 40
1.0
 40
1.0
 40
2.0
 40
2.0
 40
2.0
 40
3.0
 40
3.0
 40
3.0
 40
4.0
 40
4.0
 40
4.0
 40
5.0
 40
5.0
 40
5.0
 40
5.0
 10
112.43964843749998
 20
240.0849148220486
 30
0.0
 10
112.43964843749998
 20
240.0849148220486
 30
0.0
 10
112.42345648871527
 20
240.0849148220486
 30
0.0
 10
112.42345648871527
 20
240.0849148220486
 30
0.0
 10
112.37867024739582
 20
240.0849148220486
 30
0.0
 10
112.33388400607637
 20
240.0849148220486
 30
0.0
 10
112.29219835069443
 20
240.0849148220486
 30
0.0
 10
112.25016818576388
 20
240.0849148220486
 30
0.0
 10
112.21192762586804
 20
240.0849148220486
 30
0.0
 10
112.17747667100693
 20
240.08457031249998
 30
0.0
 10
112.14268120659722
 20
240.08457031249998
 30
0.0
 10
112.11305338541666
 20
240.08457031249998
 30
0.0
 10
112.09203830295138
 20
240.08457031249998
 30
0.0
 10
112.07067871093749
 20
240.08457031249998
 30
0.0
 10
112.05827636718749
 20
240.08457031249998
 30
0.0
 10
112.0462185329861
 20
240.08388129340275
 30
0.0
  0
LINE
  5
84
100
AcDbEntity
  8
レイヤー_2
 62
     7
100
AcDbLine
 10
129.607937
 20
235.585965
 30
0.0
 11
112.734204
 21
235.585965
 31
0.0
  0
SPLINE
  5
83
100
AcDbEntity
  8
レイヤー_2
 62
     7
100
AcDbSpline
210
0.0
220
0.0
230
1.0
 70
     8
 71
     3
 72
     8
 73
     4
 74
     0
 42
0.00000001
 43
0.00000001
 40
0.0
 40
0.0
 40
0.0
 40
0.0
 40
1.0
 40
1.0
 40
1.0
 40
1.0
 10
129.60793728298609
 20
235.58596462673609
 30
0.0
 10
129.71852484809025
 20
235.58596462673609
 30
0.0
 10
129.80809733072917
 20
235.67519259982637
 30
0.0
 10
129.80809733072917
 20
235.78578016493054
 30
0.0
  0
LINE
  5
82
100
AcDbEntity
  8
レイヤー_2
 62
     7
100
AcDbLine
 10
129.808097
 20
239.885099
 30
0.0
 11
129.808097
 21
235.78578
 31
0.0
  0
LINE
  5
81
100
AcDbEntity
  8
レイヤー_2
 62
     7
100
AcDbLine
 10
129.808097
 20
239.886133
 30
0.0
 11
129.808097
 21
239.885099
 31
0.0
  0
LINE
  5
80
100
AcDbEntity
  8
レイヤー_2
 62
     7
100
AcDbLine
 10
110.125922
 20
224.482766
 30
0.0
 11
110.125922
 21
227.589553
 31
0.0
  0
LINE
  5
7F
100
AcDbEntity
  8
レイヤー_2
 62
     7
100
AcDbLine
 10
110.223763
 20
224.281917
 30
0.0
 11
110.125922
 21
224.299487
 31
0.0
  0
LINE
  5
7E
100
AcDbEntity
  8
レイヤー_2
 62
     7
100
AcDbLine
 10
110.125922
 20
224.299487
 30
0.0
 11
110.125922
 21
224.482766
 31
0.0
  0
LINE
  5
7D
100
AcDbEntity
  8
レイヤー_2
 62
     7
100
AcDbLine
 10
110.125922
 20
227.772833
 30
0.0
 11
110.223763
 21
227.789714
 31
0.0
  0
LINE
  5
7C
100
AcDbEntity
  8
レイヤー_2
 62
     7
100
AcDbLine
 10
110.125922
 20
227.589553
 30
0.0
 11
110.125922
 21
227.772833
 31
0.0
  0
LINE
  5
7B
100
AcDbEntity
  8
レイヤー_2
 62
     7
100
AcDbLine
 10
148.7544
 20
221.965435
 30
0.0
 11
146.756934
 21
219.58453
 31
0.0
  0
SPLINE
  5
7A
100
AcDbEntity
  8
レイヤー_2
 62
     7
100
AcDbSpline
210
0.0
220
0.0
230
1.0
 70
     8
 71
     3
 72
    23
 73
    19
 74
     0
 42
0.00000001
 43
0.00000001
 40
0.0
 40
0.0
 40
0.0
 40
0.0
 40
1.0
 40
1.0
 40
1.0
 40
2.0
 40
2.0
 40
2.0
 40
3.0
 40
3.0
 40
3.0
 40
4.0
 40
4.0
 40
4.0
 40
5.0
 40
5.0
 40
5.0
 40
6.0
 40
6.0
 40
6.0
 40
6.0
 10
112.3810818142361
 20
227.83036566840275
 30
0.0
 10
112.3810818142361
 20
227.83036566840275
 30
0.0
 10
112.38866102430555
 20
227.83105468749997
 30
0.0
 10
112.38866102430555
 20
227.83105468749997
 30
0.0
 10
112.38866102430555
 20
227.83105468749997
 30
0.0
 10
112.32354871961805
 20
227.8289876302083
 30
0.0
 10
112.24568956163193
 20
227.82692057291663
 30
0.0
 10
112.16576334635415
 20
227.82519802517359
 30
0.0
 10
112.06413302951388
 20
227.82347547743055
 30
0.0
 10
111.93494194878471
 20
227.82106391059025
 30
0.0
 10
111.80885145399304
 20
227.81761881510414
 30
0.0
 10
111.65588921440971
 20
227.81417371961803
 30
0.0
 10
111.4819118923611
 20
227.81072862413191
 30
0.0
 10
111.30345594618055
 20
227.80762803819442
 30
0.0
 10
111.10157335069444
 20
227.80383843315971
 30
0.0
 10
110.87454155815971
 20
227.79970431857637
 30
0.0
 10
110.67093641493055
 20
227.79660373263886
 30
0.0
 10
110.44734971788193
 20
227.79281412760415
 30
0.0
 10
110.22376302083332
 20
227.78971354166666
 30
0.0
  0
SPLINE
  5
79
100
AcDbEntity
  8
レイヤー_2
 62
     7
100
AcDbSpline
210
0.0
220
0.0
230
1.0
 70
     8
 71
     3
 72
    23
 73
    19
 74
     0
 42
0.00000001
 43
0.00000001
 40
0.0
 40
0.0
 40
0.0
 40
0.0
 40
1.0
 40
1.0
 40
1.0
 40
2.0
 40
2.0
 40
2.0
 40
3.0
 40
3.0
 40
3.0
 40
4.0
 40
4.0
 40
4.0
 40
5.0
 40
5.0
 40
5.0
 40
6.0
 40
6.0
 40
6.0
 40
6.0
 10
112.3810818142361
 20
224.2412651909722
 30
0.0
 10
112.3810818142361
 20
224.2412651909722
 30
0.0
 10
112.38866102430555
 20
224.2409206814236
 30
0.0
 10
112.38866102430555
 20
224.2409206814236
 30
0.0
 10
112.38866102430555
 20
224.2409206814236
 30
0.0
 10
112.32354871961805
 20
224.24264322916665
 30
0.0
 10
112.24568956163193
 20
224.24471028645831
 30
0.0
 10
112.16576334635415
 20
224.24643283420136
 30
0.0
 10
112.06413302951388
 20
224.24815538194443
 30
0.0
 10
111.93494194878471
 20
224.25091145833332
 30
0.0
 10
111.80885145399304
 20
224.25435655381943
 30
0.0
 10
111.65588921440971
 20
224.25711263020833
 30
0.0
 10
111.4819118923611
 20
224.26090223524304
 30
0.0
 10
111.30345594618055
 20
224.26434733072915
 30
0.0
 10
111.10157335069444
 20
224.26813693576386
 30
0.0
 10
110.87454155815971
 20
224.2722710503472
 30
0.0
 10
110.67093641493055
 20
224.27571614583331
 30
0.0
 10
110.44734971788193
 20
224.27916124131943
 30
0.0
 10
110.22376302083332
 20
224.28191731770832
 30
0.0
  0
LINE
  5
78
100
AcDbEntity
  8
レイヤー_2
 62
     7
100
AcDbLine
 10
113.480067
 20
224.241265
 30
0.0
 11
113.381193
 21
224.241265
 31
0.0
  0
SPLINE
  5
77
100
AcDbEntity
  8
レイヤー_2
 62
     7
100
AcDbSpline
210
0.0
220
0.0
230
1.0
 70
     8
 71
     3
 72
    35
 73
    31
 74
     0
 42
0.00000001
 43
0.00000001
 40
0.0
 40
0.0
 40
0.0
 40
0.0
 40
1.0
 40
1.0
 40
1.0
 40
2.0
 40
2.0
 40
2.0
 40
3.0
 40
3.0
 40
3.0
 40
4.0
 40
4.0
 40
4.0
 40
5.0
 40
5.0
 40
5.0
 40
6.0
 40
6.0
 40
6.0
 40
7.0
 40
7.0
 40
7.0
 40
8.0
 40
8.0
 40
8.0
 40
9.0
 40
9.0
 40
9.0
 40
10.0
 40
10.0
 40
10.0
 40
10.0
 10
113.25441351996527
 20
224.2409206814236
 30
0.0
 10
113.25441351996527
 20
224.2409206814236
 30
0.0
 10
113.25751410590277
 20
224.2409206814236
 30
0.0
 10
113.25751410590277
 20
224.2409206814236
 30
0.0
 10
113.26853841145832
 20
224.2409206814236
 30
0.0
 10
113.30471191406249
 20
224.2409206814236
 30
0.0
 10
113.35087619357638
 20
224.2409206814236
 30
0.0
 10
113.39807400173611
 20
224.2412651909722
 30
0.0
 10
113.45560709635416
 20
224.2412651909722
 30
0.0
 10
113.52313096788194
 20
224.2412651909722
 30
0.0
 10
113.59203287760415
 20
224.2412651909722
 30
0.0
 10
113.6709255642361
 20
224.2412651909722
 30
0.0
 10
113.75567491319444
 20
224.24229871961805
 30
0.0
 10
113.84042426215277
 20
224.24229871961805
 30
0.0
 10
113.93068576388887
 20
224.24229871961805
 30
0.0
 10
114.02129177517359
 20
224.24229871961805
 30
0.0
 10
114.11224229600694
 20
224.24229871961805
 30
0.0
 10
114.20353732638888
 20
224.24229871961805
 30
0.0
 10
114.29035373263888
 20
224.24229871961805
 30
0.0
 10
114.37751464843748
 20
224.24229871961805
 30
0.0
 10
114.45985243055554
 20
224.2412651909722
 30
0.0
 10
114.53254394531248
 20
224.2412651909722
 30
0.0
 10
114.60489095052083
 20
224.2412651909722
 30
0.0
 10
114.66828070746527
 20
224.2412651909722
 30
0.0
 10
114.71995713975693
 20
224.2412651909722
 30
0.0
 10
114.7716335720486
 20
224.2409206814236
 30
0.0
 10
114.81366373697915
 20
224.2409206814236
 30
0.0
 10
114.83226725260415
 20
224.2409206814236
 30
0.0
 10
114.84673665364582
 20
224.2409206814236
 30
0.0
 10
114.85052625868055
 20
224.2409206814236
 30
0.0
 10
114.85052625868055
 20
224.2409206814236
 30
0.0
  0
LINE
  5
76
100
AcDbEntity
  8
レイヤー_2
 62
     7
100
AcDbLine
 10
143.96744
 20
221.609901
 30
0.0
 11
143.972263
 21
221.606456
 31
0.0
  0
LINE
  5
75
100
AcDbEntity
  8
レイヤー_2
 62
     7
100
AcDbLine
 10
143.972263
 20
221.606456
 30
0.0
 11
144.011192
 21
221.574072
 31
0.0
  0
LINE
  5
74
100
AcDbEntity
  8
レイヤー_2
 62
     7
100
AcDbLine
 10
144.011192
 20
221.574072
 30
0.0
 11
144.080094
 21
221.516884
 31
0.0
  0
LINE
  5
73
100
AcDbEntity
  8
レイヤー_2
 62
     7
100
AcDbLine
 10
144.080094
 20
221.516884
 30
0.0
 11
144.168633
 21
221.441436
 31
0.0
  0
LINE
  5
72
100
AcDbEntity
  8
レイヤー_2
 62
     7
100
AcDbLine
 10
144.168633
 20
221.441436
 30
0.0
 11
144.268886
 21
221.35772
 31
0.0
  0
LINE
  5
71
100
AcDbEntity
  8
レイヤー_2
 62
     7
100
AcDbLine
 10
144.268886
 20
221.35772
 30
0.0
 11
144.368449
 21
221.274349
 31
0.0
  0
LINE
  5
70
100
AcDbEntity
  8
レイヤー_2
 62
     7
100
AcDbLine
 10
144.368449
 20
221.274349
 30
0.0
 11
144.456988
 21
221.19959
 31
0.0
  0
LINE
  5
6F
100
AcDbEntity
  8
レイヤー_2
 62
     7
100
AcDbLine
 10
144.456988
 20
221.19959
 30
0.0
 11
144.523134
 21
221.144124
 31
0.0
  0
LINE
  5
6E
100
AcDbEntity
  8
レイヤー_2
 62
     7
100
AcDbLine
 10
144.523134
 20
221.144124
 30
0.0
 11
144.560685
 21
221.112774
 31
0.0
  0
LINE
  5
6D
100
AcDbEntity
  8
レイヤー_2
 62
     7
100
AcDbLine
 10
144.560685
 20
221.112774
 30
0.0
 11
144.567231
 21
221.106917
 31
0.0
  0
LINE
  5
6C
100
AcDbEntity
  8
レイヤー_2
 62
     7
100
AcDbLine
 10
146.756934
 20
219.58453
 30
0.0
 11
146.74522
 21
219.570749
 31
0.0
  0
LINE
  5
6B
100
AcDbEntity
  8
レイヤー_2
 62
     7
100
AcDbLine
 10
146.74522
 20
219.570749
 30
0.0
 11
146.736952
 21
219.561447
 31
0.0
  0
LINE
  5
6A
100
AcDbEntity
  8
レイヤー_2
 62
     7
100
AcDbLine
 10
146.736952
 20
219.561447
 30
0.0
 11
146.731784
 21
219.555591
 31
0.0
  0
LINE
  5
69
100
AcDbEntity
  8
レイヤー_2
 62
     7
100
AcDbLine
 10
146.731784
 20
219.555591
 30
0.0
 11
146.731095
 21
219.552835
 31
0.0
  0
LINE
  5
68
100
AcDbEntity
  8
レイヤー_2
 62
     7
100
AcDbLine
 10
148.780927
 20
221.996785
 30
0.0
 11
148.779894
 21
221.995063
 31
0.0
  0
LINE
  5
67
100
AcDbEntity
  8
レイヤー_2
 62
     7
100
AcDbLine
 10
148.779894
 20
221.995063
 30
0.0
 11
148.774037
 21
221.989206
 31
0.0
  0
LINE
  5
66
100
AcDbEntity
  8
レイヤー_2
 62
     7
100
AcDbLine
 10
148.774037
 20
221.989206
 30
0.0
 11
148.766458
 21
221.978871
 31
0.0
  0
LINE
  5
65
100
AcDbEntity
  8
レイヤー_2
 62
     7
100
AcDbLine
 10
148.766458
 20
221.978871
 30
0.0
 11
148.7544
 21
221.965435
 31
0.0
  0
LINE
  5
64
100
AcDbEntity
  8
レイヤー_2
 62
     7
100
AcDbLine
 10
100.775933
 20
227.810729
 30
0.0
 11
111.497759
 21
227.810729
 31
0.0
  0
LINE
  5
63
100
AcDbEntity
  8
レイヤー_2
 62
     7
100
AcDbLine
 10
112.400719
 20
201.561168
 30
0.0
 11
100.701519
 21
201.561168
 31
0.0
  0
LINE
  5
62
100
AcDbEntity
  8
レイヤー_2
  6
AI9-LType1
 62
     7
100
AcDbLine
 10
63.583027
 20
240.701931
 30
0.0
 11
63.583027
 21
117.543902
 31
0.0
  0
LINE
  5
61
100
AcDbEntity
  8
レイヤー_2
 62
     7
100
AcDbLine
 10
63.583027
 20
117.543902
 30
0.0
 11
63.583027
 21
116.543446
 31
0.0
  0
LINE
  5
60
100
AcDbEntity
  8
レイヤー_2
  6
AI9-LType1
 62
     7
100
AcDbLine
 10
106.548535
 20
242.404842
 30
0.0
 11
106.548535
 21
122.668481
 31
0.0
  0
LINE
  5
5F
100
AcDbEntity
  8
レイヤー_2
 62
     7
100
AcDbLine
 10
106.548535
 20
122.668481
 30
0.0
 11
106.548535
 21
121.66837
 31
0.0
  0
LINE
  5
5E
100
AcDbEntity
  8
レイヤー_2
  6
AI9-LType1
 62
     7
100
AcDbLine
 10
144.30816
 20
223.756885
 30
0.0
 11
147.801142
 21
220.81684
 31
0.0
  0
LINE
  5
5C
100
AcDbEntity
  8
レイヤー_2
 62
     7
100
AcDbLine
 10
147.801142
 20
220.81684
 30
0.0
 11
148.566298
 21
220.172607
 31
0.0
  0
LINE
  5
5B
100
AcDbEntity
  8
レイヤー_2
 62
     7
100
AcDbLine
 10
168.086553
 20
159.001836
 30
0.0
 11
166.862166
 21
160.090142
 31
0.0
  0
LINE
  5
5A
100
AcDbEntity
  8
レイヤー_2
 62
     7
100
AcDbLine
 10
169.311285
 20
157.912842
 30
0.0
 11
168.086553
 21
159.001836
 31
0.0
  0
LINE
  5
59
100
AcDbEntity
  8
レイヤー_2
 62
     7
100
AcDbLine
 10
159.850363
 20
201.561168
 30
0.0
 11
114.021981
 21
201.561168
 31
0.0
  0
LINE
  5
58
100
AcDbEntity
  8
レイヤー_2
 62
     7
100
AcDbLine
 10
168.086898
 20
222.40434
 30
0.0
 11
168.086898
 21
157.217277
 31
0.0
  0
LINE
  5
57
100
AcDbEntity
  8
レイヤー_2
 62
     7
100
AcDbLine
 10
168.086898
 20
220.863005
 30
0.0
 11
166.862166
 21
221.951655
 31
0.0
  0
LINE
  5
56
100
AcDbEntity
  8
レイヤー_2
 62
     7
100
AcDbLine
 10
169.311974
 20
219.775043
 30
0.0
 11
168.086898
 21
220.863005
 31
0.0
  0
LINE
  5
55
100
AcDbEntity
  8
レイヤー_2
 62
     7
100
AcDbLine
 10
40.001693
 20
146.894048
 30
0.0
 11
56.853033
 21
146.894048
 31
0.0
  0
LINE
  5
54
100
AcDbEntity
  8
レイヤー_2
 62
     7
100
AcDbLine
 10
179.470182
 20
157.217277
 30
0.0
 11
179.470182
 21
241.295177
 31
0.0
  0
LINE
  5
53
100
AcDbEntity
  8
レイヤー_2
 62
     7
100
AcDbLine
 10
106.548535
 20
243.231665
 30
0.0
 11
106.548535
 21
258.709446
 31
0.0
  0
LINE
  5
52
100
AcDbEntity
  8
レイヤー_2
 62
     7
100
AcDbLine
 10
105.209427
 20
257.541558
 30
0.0
 11
149.316295
 21
257.541558
 31
0.0
  0
LINE
  5
51
100
AcDbEntity
  8
レイヤー_2
 62
     7
100
AcDbLine
 10
147.803554
 20
219.184899
 30
0.0
 11
147.803554
 21
204.238696
 31
0.0
  0
LINE
  5
50
100
AcDbEntity
  8
レイヤー_2
 62
     7
100
AcDbLine
 10
106.569206
 20
257.521232
 30
0.0
 11
105.4809
 21
256.296501
 31
0.0
  0
LINE
  5
4F
100
AcDbEntity
  8
レイヤー_2
 62
     7
100
AcDbLine
 10
107.657511
 20
258.745964
 30
0.0
 11
106.569206
 21
257.521232
 31
0.0
  0
LINE
  5
4E
100
AcDbEntity
  8
レイヤー_2
 62
     7
100
AcDbLine
 10
147.981665
 20
257.527778
 30
0.0
 11
146.89267
 21
256.302357
 31
0.0
  0
LINE
  5
4D
100
AcDbEntity
  8
レイヤー_2
 62
     7
100
AcDbLine
 10
149.069971
 20
258.75182
 30
0.0
 11
147.981665
 21
257.527778
 31
0.0
  0
LINE
  5
4C
100
AcDbEntity
  8
レイヤー_2
 62
     7
100
AcDbLine
 10
179.444344
 20
159.08004
 30
0.0
 11
180.669076
 21
157.992079
 31
0.0
  0
LINE
  5
4B
100
AcDbEntity
  8
レイヤー_2
 62
     7
100
AcDbLine
 10
178.220302
 20
160.168346
 30
0.0
 11
179.444344
 21
159.08004
 31
0.0
  0
LINE
  5
4A
100
AcDbEntity
  8
レイヤー_2
 62
     7
100
AcDbLine
 10
179.579047
 20
240.008778
 30
0.0
 11
180.804812
 21
238.920473
 31
0.0
  0
LINE
  5
49
100
AcDbEntity
  8
レイヤー_2
 62
     7
100
AcDbLine
 10
178.355005
 20
241.097773
 30
0.0
 11
179.579047
 21
240.008778
 31
0.0
  0
LINE
  5
48
100
AcDbEntity
  8
レイヤー_2
 62
     7
100
AcDbLine
 10
118.569162
 20
159.001836
 30
0.0
 11
190.669154
 21
159.001836
 31
0.0
  0
LINE
  5
47
100
AcDbEntity
  8
レイヤー_2
 62
     7
100
AcDbLine
 10
146.648069
 20
204.57666
 30
0.0
 11
148.823991
 21
207.026123
 31
0.0
  0
LINE
  5
46
100
AcDbEntity
  8
レイヤー_2
 62
     7
100
AcDbLine
 10
158.974965
 20
209.647841
 30
0.0
 11
159.63539
 21
212.857636
 31
0.0
  0
LINE
  5
45
100
AcDbEntity
  8
レイヤー_2
 62
     7
100
AcDbLine
 10
39.930379
 20
159.007349
 30
0.0
 11
51.823882
 21
159.007349
 31
0.0
  0
LINE
  5
44
100
AcDbEntity
  8
レイヤー_2
 62
     7
100
AcDbLine
 10
41.278445
 20
160.131483
 30
0.0
 11
41.278445
 21
119.334663
 31
0.0
  0
LINE
  5
43
100
AcDbEntity
  8
レイヤー_2
 62
     7
100
AcDbLine
 10
40.013751
 20
160.16559
 30
0.0
 11
42.462869
 21
157.988634
 31
0.0
  0
LINE
  5
42
100
AcDbEntity
  8
レイヤー_2
 62
     7
100
AcDbLine
 10
40.158789
 20
147.911385
 30
0.0
 11
42.607907
 21
145.734085
 31
0.0
  0
LINE
  5
41
100
AcDbEntity
  8
レイヤー_2
 62
     7
100
AcDbLine
 10
130.92293
 20
240.084915
 30
0.0
 11
181.037356
 21
240.084915
 31
0.0
  0
LINE
  5
40
100
AcDbEntity
  8
レイヤー_2
 62
     7
100
AcDbLine
 10
160.087042
 20
210.542532
 30
0.0
 11
148.773003
 21
220.048584
 31
0.0
  0
LINE
  5
3F
100
AcDbEntity
  8
レイヤー_2
 62
     7
100
AcDbLine
 10
147.981665
 20
223.780311
 30
0.0
 11
147.981665
 21
258.902026
 31
0.0
  0
SPLINE
  5
3E
100
AcDbEntity
  8
レイヤー_2
 62
     7
100
AcDbSpline
210
0.0
220
0.0
230
1.0
 70
     8
 71
     3
 72
    11
 73
     7
 74
     0
 42
0.00000001
 43
0.00000001
 40
0.0
 40
0.0
 40
0.0
 40
0.0
 40
1.0
 40
1.0
 40
1.0
 40
2.0
 40
2.0
 40
2.0
 40
2.0
 10
133.46541069878472
 20
216.77470974392358
 30
0.0
 10
135.29165581597221
 20
210.19733344184027
 30
0.0
 10
141.24512532552083
 20
205.8768391927083
 30
0.0
 10
147.85591905381943
 20
205.83618706597221
 30
0.0
 10
152.9987575954861
 20
205.83618706597221
 30
0.0
 10
157.53525933159722
 20
208.43585611979165
 30
0.0
 10
160.25550672743054
 20
212.44560275607637
 30
0.0
  0
LINE
  5
3D
100
AcDbEntity
  8
レイヤー_2
 62
     7
100
AcDbLine
 10
57.97889
 20
257.609771
 30
0.0
 11
56.890929
 21
256.384695
 31
0.0
  0
LINE
  5
3C
100
AcDbEntity
  8
レイヤー_2
 62
     7
100
AcDbLine
 10
59.068229
 20
258.834158
 30
0.0
 11
57.97889
 21
257.609771
 31
0.0
  0
LINE
  5
3B
100
AcDbEntity
  8
レイヤー_2
 62
     7
100
AcDbLine
 10
40.621465
 20
257.652835
 30
0.0
 11
71.004451
 21
257.652835
 31
0.0
  0
LINE
  5
3A
100
AcDbEntity
  8
レイヤー_2
 62
     7
100
AcDbLine
 10
69.635371
 20
257.609771
 30
0.0
 11
68.547065
 21
256.384695
 31
0.0
  0
LINE
  5
39
100
AcDbEntity
  8
レイヤー_2
 62
     7
100
AcDbLine
 10
70.724365
 20
258.834158
 30
0.0
 11
69.635371
 21
257.609771
 31
0.0
  0
LINE
  5
38
100
AcDbEntity
  8
レイヤー_2
 62
     7
100
AcDbLine
 10
57.97889
 20
258.65019
 30
0.0
 11
57.97889
 21
240.554137
 31
0.0
  0
LINE
  5
37
100
AcDbEntity
  8
レイヤー_2
 62
     7
100
AcDbLine
 10
69.635371
 20
258.79075
 30
0.0
 11
69.635371
 21
240.513829
 31
0.0
  0
LINE
  5
36
100
AcDbEntity
  8
レイヤー_2
 62
     7
100
AcDbLine
 10
158.086819
 20
159.001836
 30
0.0
 11
156.861743
 21
160.090142
 31
0.0
  0
LINE
  5
35
100
AcDbEntity
  8
レイヤー_2
 62
     7
100
AcDbLine
 10
159.311206
 20
157.912842
 30
0.0
 11
158.086819
 21
159.001836
 31
0.0
  0
LINE
  5
34
100
AcDbEntity
  8
レイヤー_2
 62
     7
100
AcDbLine
 10
158.086819
 20
203.25271
 30
0.0
 11
158.086819
 21
157.217277
 31
0.0
  0
LINE
  5
33
100
AcDbEntity
  8
レイヤー_2
 62
     7
100
AcDbLine
 10
158.086819
 20
201.561168
 30
0.0
 11
156.862088
 21
202.649129
 31
0.0
  0
LINE
  5
32
100
AcDbEntity
  8
レイヤー_2
 62
     7
100
AcDbLine
 10
159.311551
 20
200.472518
 30
0.0
 11
158.086819
 21
201.561168
 31
0.0
  0
LINE
  5
31
100
AcDbEntity
  8
レイヤー_2
 62
     7
100
AcDbLine
 10
189.470605
 20
157.217277
 30
0.0
 11
189.470605
 21
250.40022
 31
0.0
  0
LINE
  5
30
100
AcDbEntity
  8
レイヤー_2
 62
     7
100
AcDbLine
 10
189.444767
 20
159.08004
 30
0.0
 11
190.669154
 21
157.992079
 31
0.0
  0
LINE
  5
2F
100
AcDbEntity
  8
レイヤー_2
 62
     7
100
AcDbLine
 10
188.219691
 20
160.168346
 30
0.0
 11
189.444767
 21
159.08004
 31
0.0
  0
LINE
  5
2E
100
AcDbEntity
  8
レイヤー_2
 62
     7
100
AcDbLine
 10
189.470605
 20
248.648044
 30
0.0
 11
190.694992
 21
247.559738
 31
0.0
  0
LINE
  5
2D
100
AcDbEntity
  8
レイヤー_2
 62
     7
100
AcDbLine
 10
188.24553
 20
249.736694
 30
0.0
 11
189.470605
 21
248.648044
 31
0.0
  0
LINE
  5
2C
100
AcDbEntity
  8
レイヤー_2
 62
     7
100
AcDbLine
 10
122.55376
 20
248.648044
 30
0.0
 11
190.971289
 21
248.648044
 31
0.0
  0
LINE
  5
2B
100
AcDbEntity
  8
レイヤー_2
 62
     7
100
AcDbLine
 10
169.530737
 20
220.863005
 30
0.0
 11
149.026218
 21
220.863005
 31
0.0
  0
LINE
  5
2A
100
AcDbEntity
  8
レイヤー_2
 62
     7
100
AcDbLine
 10
52.826061
 20
159.007349
 30
0.0
 11
74.65143
 21
159.007349
 31
0.0
  0
LINE
  5
29
100
AcDbEntity
  8
レイヤー_2
 62
     7
100
AcDbLine
 10
96.210493
 20
159.007349
 30
0.0
 11
118.035517
 21
159.007349
 31
0.0
  0
ENDSEC
  0
SECTION
  2
OBJECTS
  0
DICTIONARY
  5
19
100
AcDbDictionary
280
     0
281
     1
  3
ACAD_GROUP
350
1A
  3
ACAD_MLINESTYLE
350
1B
  3
ACAD_LAYOUT
350
1E
  3
ACAD_PLOTSETTINGS
350
22
  3
ACAD_PLOTSTYLENAME
350
1F
  3
ACAD_WIPEOUT_VARS
350
23
  0
DICTIONARY
  5
1A
102
{ACAD_REACTORS
330
19
102
}
100
AcDbDictionary
280
     0
281
     1
  0
DICTIONARY
  5
1B
102
{ACAD_REACTORS
330
19
102
}
100
AcDbDictionary
280
     0
281
     1
  3
Standard
350
1C
  0
MLINESTYLE
  5
1C
102
{ACAD_REACTORS
330
1B
102
}
100
AcDbMlineStyle
  2
Standard
 70
     0
  3

 62
     0
 51
90.0
 52
90.0
 71
     2
 49
0.5
 62
   256
  6
ByLayer
 49
-0.5
 62
   256
  6
ByLayer
  0
ACDBDICTIONARYWDFLT
  5
1F
102
{ACAD_REACTORS
330
19
102
}
100
AcDbDictionary
281
     1
  3
Normal
350
1D
100
AcDbDictionaryWithDefault
340
1D
  0
ACDBPLACEHOLDER
  5
1D
102
{ACAD_REACTORS
330
1F
102
}
  0
LAYOUT
  5
20
102
{ACAD_REACTORS
330
1E
102
}
100
AcDbPlotSettings
  1

  2

  4

  6

 40
0.0
 41
0.0
 42
0.0
 43
0.0
 44
0.0
 45
0.0
 46
0.0
 47
0.0
 48
0.0
 49
0.0
140
0.0
141
0.0
142
1.0
143
1.0
 70
  1024
 72
     0
 73
     0
 74
     0
  7

 75
     0
147
1.0
148
0.0
149
0.0
100
AcDbLayout
  1
Model
 70
     0
 71
     0
 10
0.0
 20
0.0
 11
0.0
 21
0.0
 12
0.0
 22
0.0
 32
0.0
 14
0.0
 24
0.0
 34
0.0
 15
0.0
 25
0.0
 35
0.0
146
0.0
 13
0.0
 23
0.0
 33
0.0
 16
0.0
 26
0.0
 36
0.0
 17
0.0
 27
0.0
 37
0.0
 76
     0
330
A
331
0
345
0
346
0
  0
LAYOUT
  5
21
102
{ACAD_REACTORS
330
1E
102
}
100
AcDbPlotSettings
  1

  2

  4

  6

 40
0.0
 41
0.0
 42
0.0
 43
0.0
 44
0.0
 45
0.0
 46
0.0
 47
0.0
 48
0.0
 49
0.0
140
0.0
141
0.0
142
1.0
143
1.0
 70
     0
 72
     0
 73
     0
 74
     0
  7

 75
     0
147
1.0
148
0.0
149
0.0
100
AcDbLayout
  1
Layout1
 70
     0
 71
     0
 10
0.0
 20
0.0
 11
0.0
 21
0.0
 12
0.0
 22
0.0
 32
0.0
 14
0.0
 24
0.0
 34
0.0
 15
0.0
 25
0.0
 35
0.0
146
0.0
 13
0.0
 23
0.0
 33
0.0
 16
0.0
 26
0.0
 36
0.0
 17
0.0
 27
0.0
 37
0.0
 76
     0
330
B
331
0
345
0
346
0
  0
DICTIONARY
  5
1E
102
{ACAD_REACTORS
330
19
102
}
100
AcDbDictionary
280
     0
281
     1
  3
Layout1
350
21
  3
Model
350
20
  0
DICTIONARY
  5
22
102
{ACAD_REACTORS
330
19
102
}
100
AcDbDictionary
280
     0
281
     1
  0
WIPEOUTVARIABLES
  5
23
100
AcDbWipeoutVariables
 70
     1
  0
IMAGEDEF_REACTOR
  5
5BA
100
AcDbRasterImageDefReactor
 90
        2
330
5B9
  0
IMAGEDEF
  5
5BB
100
AcDbRasterImageDef
 90
        0
  1
\\192.168.6.3\free(2009_04\組織\営業本部\営推G\エンジニアリングサービスチーム\丸茂 from 081001\DBカタログ品参考図ＡＩ\IMO\33537670_1.bmp
 10
70.0
 20
9.0
 11
0.352778
 21
0.352778
280
     1
281
     0
  0
IMAGEDEF_REACTOR
  5
5BD
100
AcDbRasterImageDefReactor
 90
        2
330
5BC
  0
IMAGEDEF
  5
5BE
100
AcDbRasterImageDef
 90
        0
  1
\\192.168.6.3\free(2009_04\組織\営業本部\営推G\エンジニアリングサービスチーム\丸茂 from 081001\DBカタログ品参考図ＡＩ\IMO\33537670_2.bmp
 10
70.0
 20
9.0
 11
0.352778
 21
0.352778
280
     1
281
     0
  0
ENDSEC
  0
EOF
