  0
SECTION
  2
HEADER
  9
$ACADVER
  1
AC1015
  9
$ACADMAINTVER
 70
     6
  9
$DWGCODEPAGE
  3
ANSI_932
  9
$INSBASE
 10
0.0
 20
0.0
 30
0.0
  9
$EXTMIN
 10
-0.000689023
 20
-0.000344512
 30
0.0
  9
$EXTMAX
 10
210.0009999999999
 20
297.002
 30
0.0
  9
$LIMMIN
 10
0.0
 20
0.0
  9
$LIMMAX
 10
12.0
 20
9.0
  9
$ORTHOMODE
 70
     0
  9
$REGENMODE
 70
     1
  9
$FILLMODE
 70
     1
  9
$QTEXTMODE
 70
     0
  9
$MIRRTEXT
 70
     1
  9
$LTSCALE
 40
1.0
  9
$ATTMODE
 70
     1
  9
$TEXTSIZE
 40
0.0
  9
$TRACEWID
 40
0.05
  9
$TEXTSTYLE
  7
STANDARD
  9
$CLAYER
  8
0
  9
$CELTYPE
  6
CONTINUOUS
  9
$CECOLOR
 62
   256
  9
$CELTSCALE
 40
1.0
  9
$DISPSILH
 70
     0
  9
$DIMSCALE
 40
1.0
  9
$DIMASZ
 40
0.18
  9
$DIMEXO
 40
0.0625
  9
$DIMDLI
 40
0.38
  9
$DIMRND
 40
0.0
  9
$DIMDLE
 40
0.0
  9
$DIMEXE
 40
0.18
  9
$DIMTP
 40
0.0
  9
$DIMTM
 40
0.0
  9
$DIMTXT
 40
0.18
  9
$DIMCEN
 40
0.09
  9
$DIMTSZ
 40
0.0
  9
$DIMTOL
 70
     0
  9
$DIMLIM
 70
     0
  9
$DIMTIH
 70
     1
  9
$DIMTOH
 70
     1
  9
$DIMSE1
 70
     0
  9
$DIMSE2
 70
     0
  9
$DIMTAD
 70
     0
  9
$DIMZIN
 70
     0
  9
$DIMBLK
  1

  9
$DIMASO
 70
     1
  9
$DIMSHO
 70
     1
  9
$DIMPOST
  1

  9
$DIMAPOST
  1

  9
$DIMALT
 70
     0
  9
$DIMALTD
 70
     2
  9
$DIMALTF
 40
25.4
  9
$DIMLFAC
 40
1.0
  9
$DIMTOFL
 70
     0
  9
$DIMTVP
 40
0.0
  9
$DIMTIX
 70
     0
  9
$DIMSOXD
 70
     0
  9
$DIMSAH
 70
     0
  9
$DIMBLK1
  1

  9
$DIMBLK2
  1

  9
$DIMSTYLE
  2
STANDARD
  9
$DIMCLRD
 70
     0
  9
$DIMCLRE
 70
     0
  9
$DIMCLRT
 70
     0
  9
$DIMTFAC
 40
1.0
  9
$DIMGAP
 40
0.09
  9
$DIMJUST
 70
     0
  9
$DIMSD1
 70
     0
  9
$DIMSD2
 70
     0
  9
$DIMTOLJ
 70
     1
  9
$DIMTZIN
 70
     0
  9
$DIMALTZ
 70
     0
  9
$DIMALTTZ
 70
     0
  9
$DIMUPT
 70
     0
  9
$DIMDEC
 70
     4
  9
$DIMTDEC
 70
     4
  9
$DIMALTU
 70
     2
  9
$DIMALTTD
 70
     2
  9
$DIMTXSTY
  7
STANDARD
  9
$DIMAUNIT
 70
     0
  9
$DIMADEC
 70
     0
  9
$DIMALTRND
 40
0.0
  9
$DIMAZIN
 70
     0
  9
$DIMDSEP
 70
    46
  9
$DIMATFIT
 70
     3
  9
$DIMFRAC
 70
     0
  9
$DIMLDRBLK
  1

  9
$DIMLUNIT
 70
     2
  9
$DIMLWD
 70
    -2
  9
$DIMLWE
 70
    -2
  9
$DIMTMOVE
 70
     0
  9
$LUNITS
 70
     2
  9
$LUPREC
 70
     4
  9
$SKETCHINC
 40
0.1
  9
$FILLETRAD
 40
0.0
  9
$AUNITS
 70
     0
  9
$AUPREC
 70
     0
  9
$MENU
  1
.
  9
$ELEVATION
 40
0.0
  9
$PELEVATION
 40
0.0
  9
$THICKNESS
 40
0.0
  9
$LIMCHECK
 70
     0
  9
$CHAMFERA
 40
0.0
  9
$CHAMFERB
 40
0.0
  9
$CHAMFERC
 40
0.0
  9
$CHAMFERD
 40
0.0
  9
$SKPOLY
 70
     0
  9
$TDCREATE
 40
2444972.375000000
  9
$TDUCREATE
 40
2444972.000000000
  9
$TDUPDATE
 40
2455218.828307870
  9
$TDUUPDATE
 40
2455218.453307870
  9
$TDINDWG
 40
0.0010873264
  9
$TDUSRTIMER
 40
0.0010873264
  9
$USRTIMER
 70
     1
  9
$ANGBASE
 50
0.0
  9
$ANGDIR
 70
     0
  9
$PDMODE
 70
     0
  9
$PDSIZE
 40
0.0
  9
$PLINEWID
 40
0.0
  9
$SPLFRAME
 70
     0
  9
$SPLINETYPE
 70
     6
  9
$SPLINESEGS
 70
     8
  9
$HANDSEED
  5
3B8
  9
$SURFTAB1
 70
     6
  9
$SURFTAB2
 70
     6
  9
$SURFTYPE
 70
     6
  9
$SURFU
 70
     6
  9
$SURFV
 70
     6
  9
$UCSBASE
  2

  9
$UCSNAME
  2

  9
$UCSORG
 10
0.0
 20
0.0
 30
0.0
  9
$UCSXDIR
 10
1.0
 20
0.0
 30
0.0
  9
$UCSYDIR
 10
0.0
 20
1.0
 30
0.0
  9
$UCSORTHOREF
  2

  9
$UCSORTHOVIEW
 70
     0
  9
$UCSORGTOP
 10
0.0
 20
0.0
 30
0.0
  9
$UCSORGBOTTOM
 10
0.0
 20
0.0
 30
0.0
  9
$UCSORGLEFT
 10
0.0
 20
0.0
 30
0.0
  9
$UCSORGRIGHT
 10
0.0
 20
0.0
 30
0.0
  9
$UCSORGFRONT
 10
0.0
 20
0.0
 30
0.0
  9
$UCSORGBACK
 10
0.0
 20
0.0
 30
0.0
  9
$PUCSBASE
  2

  9
$PUCSNAME
  2

  9
$PUCSORG
 10
0.0
 20
0.0
 30
0.0
  9
$PUCSXDIR
 10
1.0
 20
0.0
 30
0.0
  9
$PUCSYDIR
 10
0.0
 20
1.0
 30
0.0
  9
$PUCSORTHOREF
  2

  9
$PUCSORTHOVIEW
 70
     0
  9
$PUCSORGTOP
 10
0.0
 20
0.0
 30
0.0
  9
$PUCSORGBOTTOM
 10
0.0
 20
0.0
 30
0.0
  9
$PUCSORGLEFT
 10
0.0
 20
0.0
 30
0.0
  9
$PUCSORGRIGHT
 10
0.0
 20
0.0
 30
0.0
  9
$PUCSORGFRONT
 10
0.0
 20
0.0
 30
0.0
  9
$PUCSORGBACK
 10
0.0
 20
0.0
 30
0.0
  9
$USERI1
 70
     0
  9
$USERI2
 70
     0
  9
$USERI3
 70
     0
  9
$USERI4
 70
     0
  9
$USERI5
 70
     0
  9
$USERR1
 40
0.0
  9
$USERR2
 40
0.0
  9
$USERR3
 40
0.0
  9
$USERR4
 40
0.0
  9
$USERR5
 40
0.0
  9
$WORLDVIEW
 70
     1
  9
$SHADEDGE
 70
     3
  9
$SHADEDIF
 70
    70
  9
$TILEMODE
 70
     1
  9
$MAXACTVP
 70
    48
  9
$PINSBASE
 10
0.0
 20
0.0
 30
0.0
  9
$PLIMCHECK
 70
     0
  9
$PEXTMIN
 10
1.000000000000000E+20
 20
1.000000000000000E+20
 30
1.000000000000000E+20
  9
$PEXTMAX
 10
-1.000000000000000E+20
 20
-1.000000000000000E+20
 30
-1.000000000000000E+20
  9
$PLIMMIN
 10
0.0
 20
0.0
  9
$PLIMMAX
 10
12.0
 20
9.0
  9
$UNITMODE
 70
     0
  9
$VISRETAIN
 70
     1
  9
$PLINEGEN
 70
     0
  9
$PSLTSCALE
 70
     1
  9
$TREEDEPTH
 70
  3020
  9
$CMLSTYLE
  2
STANDARD
  9
$CMLJUST
 70
     0
  9
$CMLSCALE
 40
1.0
  9
$PROXYGRAPHICS
 70
     1
  9
$MEASUREMENT
 70
     0
  9
$CELWEIGHT
370
    -1
  9
$ENDCAPS
280
     0
  9
$JOINSTYLE
280
     0
  9
$LWDISPLAY
290
     0
  9
$INSUNITS
 70
     0
  9
$HYPERLINKBASE
  1

  9
$STYLESHEET
  1

  9
$XEDIT
290
     1
  9
$CEPSNTYPE
380
     0
  9
$PSTYLEMODE
290
     1
  9
$FINGERPRINTGUID
  2
{2E074E4F-780C-478D-B5B8-74E6162BF257}
  9
$VERSIONGUID
  2
{652F290B-325E-40B3-9589-11E42B8DE025}
  9
$EXTNAMES
290
     1
  9
$PSVPSCALE
 40
0.0
  9
$OLESTARTUP
290
     0
  0
ENDSEC
  0
SECTION
  2
CLASSES
  0
CLASS
  1
ACDBDICTIONARYWDFLT
  2
AcDbDictionaryWithDefault
  3
AutoCAD 2000
 90
        0
280
     0
281
     0
  0
CLASS
  1
ACDBPLACEHOLDER
  2
AcDbPlaceHolder
  3
AutoCAD 2000
 90
        0
280
     0
281
     0
  0
CLASS
  1
LAYOUT
  2
AcDbLayout
  3
AutoCAD 2000
 90
        0
280
     0
281
     0
  0
ENDSEC
  0
SECTION
  2
TABLES
  0
TABLE
  2
VPORT
  5
8
330
0
100
AcDbSymbolTable
 70
     3
  0
VPORT
  5
3B7
330
8
100
AcDbSymbolTableRecord
100
AcDbViewportTableRecord
  2
*Active
 70
     0
 10
0.0
 20
0.0
 11
1.0
 21
1.0
 12
153.548070245599
 22
148.500827744
 13
0.0
 23
0.0
 14
1.0
 24
1.0
 15
0.0
 25
0.0
 16
0.0
 26
0.0
 36
1.0
 17
0.0
 27
0.0
 37
0.0
 40
299.3077746647
 41
1.912109375
 42
50.0
 43
0.0
 44
0.0
 50
0.0
 51
0.0
 71
     0
 72
   100
 73
     1
 74
     1
 75
     0
 76
     0
 77
     0
 78
     0
281
     0
 65
     1
110
0.0
120
0.0
130
0.0
111
1.0
121
0.0
131
0.0
112
0.0
122
1.0
132
0.0
 79
     0
146
0.0
  0
ENDTAB
  0
TABLE
  2
LTYPE
  5
5
330
0
100
AcDbSymbolTable
 70
     3
  0
LTYPE
  5
12
330
5
100
AcDbSymbolTableRecord
100
AcDbLinetypeTableRecord
  2
BYBLOCK
 70
     0
  3

 72
    65
 73
     0
 40
0.0
  0
LTYPE
  5
13
330
5
100
AcDbSymbolTableRecord
100
AcDbLinetypeTableRecord
  2
BYLAYER
 70
     0
  3

 72
    65
 73
     0
 40
0.0
  0
LTYPE
  5
14
330
5
100
AcDbSymbolTableRecord
100
AcDbLinetypeTableRecord
  2
CONTINUOUS
 70
     0
  3
Solid line
 72
    65
 73
     0
 40
0.0
  0
LTYPE
  5
1F
330
5
100
AcDbSymbolTableRecord
100
AcDbLinetypeTableRecord
  2
AIGENLINE001
 70
     0
  3
generate AI->DXF Converter
 72
    65
 73
     4
 40
5.856144999999999
 49
3.5278
 74
     0
 49
-0.776115
 74
     0
 49
0.776115
 74
     0
 49
-0.776115
 74
     0
  0
LTYPE
  5
20
330
5
100
AcDbSymbolTableRecord
100
AcDbLinetypeTableRecord
  2
AIGENLINE002
 70
     0
  3
generate AI->DXF Converter
 72
    65
 73
     2
 40
1.552229999999999
 49
0.776115
 74
     0
 49
-0.776115
 74
     0
  0
ENDTAB
  0
TABLE
  2
LAYER
  5
2
330
0
100
AcDbSymbolTable
 70
     2
  0
LAYER
  5
E
330
2
100
AcDbSymbolTableRecord
100
AcDbLayerTableRecord
  2
0
 70
     0
 62
     7
  6
CONTINUOUS
370
    -3
390
3AE
  0
LAYER
  5
21
330
2
100
AcDbSymbolTableRecord
100
AcDbLayerTableRecord
  2
_________2
 70
     0
 62
     7
  6
CONTINUOUS
370
    -3
390
3AE
  0
ENDTAB
  0
TABLE
  2
STYLE
  5
3
330
0
100
AcDbSymbolTable
 70
     1
  0
STYLE
  5
F
330
3
100
AcDbSymbolTableRecord
100
AcDbTextStyleTableRecord
  2
STANDARD
 70
     0
 40
0.0
 41
0.0
 50
0.0
 71
     0
 42
0.0
  3
TXT
  4
BIGFONT
  0
ENDTAB
  0
TABLE
  2
VIEW
  5
6
330
0
100
AcDbSymbolTable
 70
     0
  0
ENDTAB
  0
TABLE
  2
UCS
  5
7
330
0
100
AcDbSymbolTable
 70
     0
  0
ENDTAB
  0
TABLE
  2
APPID
  5
9
330
0
100
AcDbSymbolTable
 70
     1
  0
APPID
  5
10
330
9
100
AcDbSymbolTableRecord
100
AcDbRegAppTableRecord
  2
ACAD
 70
     0
  0
ENDTAB
  0
TABLE
  2
DIMSTYLE
  5
A
330
0
100
AcDbSymbolTable
 70
     1
100
AcDbDimStyleTable
 71
     0
  0
DIMSTYLE
105
3AA
330
A
100
AcDbSymbolTableRecord
100
AcDbDimStyleTableRecord
  2
STANDARD
 70
     0
340
F
  0
ENDTAB
  0
TABLE
  2
BLOCK_RECORD
  5
1
330
0
100
AcDbSymbolTable
 70
     0
  0
BLOCK_RECORD
  5
18
330
1
100
AcDbSymbolTableRecord
100
AcDbBlockTableRecord
  2
*MODEL_SPACE
340
3B1
  0
BLOCK_RECORD
  5
15
330
1
100
AcDbSymbolTableRecord
100
AcDbBlockTableRecord
  2
*PAPER_SPACE
340
3B2
  0
ENDTAB
  0
ENDSEC
  0
SECTION
  2
BLOCKS
  0
BLOCK
  5
19
330
18
100
AcDbEntity
  8
0
100
AcDbBlockBegin
  2
*MODEL_SPACE
 70
     0
 10
0.0
 20
0.0
 30
0.0
  3
*MODEL_SPACE
  1

  0
ENDBLK
  5
1A
330
18
100
AcDbEntity
  8
0
100
AcDbBlockEnd
  0
BLOCK
  5
16
330
15
100
AcDbEntity
 67
     1
  8
0
100
AcDbBlockBegin
  2
*PAPER_SPACE
 70
     0
 10
0.0
 20
0.0
 30
0.0
  3
*PAPER_SPACE
  1

  0
ENDBLK
  5
17
330
15
100
AcDbEntity
 67
     1
  8
0
100
AcDbBlockEnd
  0
ENDSEC
  0
SECTION
  2
ENTITIES
  0
TEXT
  5
23
330
18
100
AcDbEntity
  8
0
100
AcDbText
 10
175.3759999999999
 20
251.2512875
 30
0.0
 40
3.09234
  1
230
 50
90.0
 41
0.5
 72
     1
 11
175.3759999999999
 21
253.184
 31
0.0
100
AcDbText
  0
TEXT
  5
24
330
18
100
AcDbEntity
  8
0
100
AcDbText
 10
115.101
 20
130.592745
 30
0.0
 40
3.09234
  1
1200
 50
90.0
 41
0.5
 72
     1
 11
115.101
 21
132.912
 31
0.0
100
AcDbText
  0
TEXT
  5
25
330
18
100
AcDbEntity
  8
0
100
AcDbText
 10
105.1839999999999
 20
160.4372874999999
 30
0.0
 40
3.09234
  1
620
 50
90.0
 41
0.5
 72
     1
 11
105.1839999999999
 21
162.37
 31
0.0
100
AcDbText
  0
TEXT
  5
26
330
18
100
AcDbEntity
  8
0
100
AcDbText
 10
105.1839999999999
 20
100.9192875
 30
0.0
 40
3.09234
  1
580
 50
90.0
 41
0.5
 72
     1
 11
105.1839999999999
 21
102.852
 31
0.0
100
AcDbText
  0
TEXT
  5
27
330
18
100
AcDbEntity
  8
0
100
AcDbText
 10
138.999
 20
183.1399825
 30
0.0
 40
3.09234
  1
190
 50
90.0
 41
0.5
 72
     1
 11
138.999
 21
184.815
 31
0.0
100
AcDbText
  0
TEXT
  5
28
330
18
100
AcDbEntity
  8
0
100
AcDbText
 10
138.999
 20
163.1711349999999
 30
0.0
 40
3.09234
  1
200
 50
90.0
 41
0.5
 72
     1
 11
138.999
 21
164.975
 31
0.0
100
AcDbText
  0
TEXT
  5
29
330
18
100
AcDbEntity
  8
0
100
AcDbText
 10
138.999
 20
130.04844
 30
0.0
 40
3.09234
  1
455
 50
90.0
 41
0.5
 72
     1
 11
138.999
 21
132.11
 31
0.0
100
AcDbText
  0
TEXT
  5
2A
330
18
100
AcDbEntity
  8
0
100
AcDbText
 10
138.999
 20
97.841635
 30
0.0
 40
3.09234
  1
200
 50
90.0
 41
0.5
 72
     1
 11
138.999
 21
99.6455
 31
0.0
100
AcDbText
  0
TEXT
  5
2B
330
18
100
AcDbEntity
  8
0
100
AcDbText
 10
138.999
 20
79.911235
 30
0.0
 40
3.09234
  1
155
 50
90.0
 41
0.5
 72
     1
 11
138.999
 21
81.71510000000001
 31
0.0
100
AcDbText
  0
TEXT
  5
2C
330
18
100
AcDbEntity
  8
0
100
AcDbText
 10
35.57909999999999
 20
95.33084
 30
0.0
 40
3.09234
  1
485
 50
90.0
 41
0.5
 72
     1
 11
35.57909999999999
 21
97.3924
 31
0.0
100
AcDbText
  0
TEXT
  5
2D
330
18
100
AcDbEntity
  8
0
100
AcDbText
 10
156.0999825
 20
272.134
 30
0.0
 40
3.09234
  1
180
 41
0.5
 72
     1
 11
157.7749999999999
 21
272.134
 31
0.0
100
AcDbText
  0
TEXT
  5
2E
330
18
100
AcDbEntity
  8
0
100
AcDbText
 10
154.5191349999999
 20
208.0379999999999
 30
0.0
 40
3.09234
  1
155
 41
0.5
 72
     1
 11
156.3229999999999
 21
208.0379999999999
 31
0.0
100
AcDbText
  0
TEXT
  5
2F
330
18
100
AcDbEntity
  8
0
100
AcDbText
 10
149.8463725
 20
201.2259999999999
 30
0.0
 40
3.09234
  1
50
 41
0.5
 72
     1
 11
151.006
 21
201.2259999999999
 31
0.0
100
AcDbText
  0
TEXT
  5
30
330
18
100
AcDbEntity
  8
0
100
AcDbText
 10
149.4323725
 20
66.6461
 30
0.0
 40
3.09234
  1
40
 41
0.5
 72
     1
 11
150.592
 21
66.6461
 31
0.0
100
AcDbText
  0
TEXT
  5
31
330
18
100
AcDbEntity
  8
0
100
AcDbText
 10
49.0109725
 20
102.495
 30
0.0
 40
3.09234
  1
90
 41
0.5
 72
     1
 11
50.1706
 21
102.495
 31
0.0
100
AcDbText
  0
TEXT
  5
32
330
18
100
AcDbEntity
  8
0
100
AcDbText
 10
76.87197999999999
 20
138.801
 30
0.0
 40
3.09234
  1
%%c46
 41
0.5
 72
     2
 11
80.9951
 21
138.801
 31
0.0
100
AcDbText
  0
TEXT
  5
33
330
18
100
AcDbEntity
  8
0
100
AcDbText
 10
37.588
 20
134.062
 30
0.0
 40
3.09234
  1
%%c35
 41
0.5
100
AcDbText
  0
TEXT
  5
34
330
18
100
AcDbEntity
  8
0
100
AcDbText
 10
68.866835
 20
208.0379999999999
 30
0.0
 40
3.09234
  1
500
 41
0.5
 72
     1
 11
70.6707
 21
208.0379999999999
 31
0.0
100
AcDbText
  0
TEXT
  5
35
330
18
100
AcDbEntity
  8
0
100
AcDbText
 10
55.2379875
 20
201.167
 30
0.0
 40
3.09234
  1
230
 41
0.5
 72
     1
 11
57.17069999999999
 21
201.167
 31
0.0
100
AcDbText
  0
LINE
  5
36
330
18
100
AcDbEntity
  8
0
100
AcDbLine
 10
51.4504
 20
124.751
 30
0.0
 11
53.4331
 21
123.606
 31
0.0
  0
LINE
  5
37
330
18
100
AcDbEntity
  8
0
100
AcDbLine
 10
53.4331
 20
123.606
 30
0.0
 11
52.2886
 21
125.5889999999999
 31
0.0
  0
LINE
  5
38
330
18
100
AcDbEntity
  8
0
100
AcDbLine
 10
52.2886
 20
125.5889999999999
 30
0.0
 11
51.4504
 21
124.751
 31
0.0
  0
LINE
  5
39
330
18
100
AcDbEntity
  8
0
100
AcDbLine
 10
57.89039999999999
 20
119.986
 30
0.0
 11
55.9081
 21
121.131
 31
0.0
  0
LINE
  5
3A
330
18
100
AcDbEntity
  8
0
100
AcDbLine
 10
55.9081
 20
121.131
 30
0.0
 11
57.0525
 21
119.148
 31
0.0
  0
LINE
  5
3B
330
18
100
AcDbEntity
  8
0
100
AcDbLine
 10
57.0525
 20
119.148
 30
0.0
 11
57.89039999999999
 21
119.986
 31
0.0
  0
LINE
  5
3C
330
18
100
AcDbEntity
  8
0
100
AcDbLine
 10
59.4524
 20
117.5869999999999
 30
0.0
 11
44.2377
 21
132.802
 31
0.0
  0
LINE
  5
3D
330
18
100
AcDbEntity
  8
0
100
AcDbLine
 10
80.9951
 20
137.541
 30
0.0
 11
74.3449
 21
137.541
 31
0.0
  0
LINE
  5
3E
330
18
100
AcDbEntity
  8
0
100
AcDbLine
 10
44.2377
 20
132.802
 30
0.0
 11
37.588
 21
132.802
 31
0.0
  0
LINE
  5
3F
330
18
100
AcDbEntity
  8
0
100
AcDbLine
 10
71.4424
 20
135.4759999999999
 30
0.0
 11
70.2976
 21
133.4929999999999
 31
0.0
  0
LINE
  5
40
330
18
100
AcDbEntity
  8
0
100
AcDbLine
 10
70.2976
 20
133.4929999999999
 30
0.0
 11
72.28060000000001
 21
134.638
 31
0.0
  0
LINE
  5
41
330
18
100
AcDbEntity
  8
0
100
AcDbLine
 10
72.28060000000001
 20
134.638
 30
0.0
 11
71.4424
 21
135.4759999999999
 31
0.0
  0
LINE
  5
42
330
18
100
AcDbEntity
  8
0
100
AcDbLine
 10
65.89960000000001
 20
128.2579999999999
 30
0.0
 11
67.0447
 21
130.241
 31
0.0
  0
LINE
  5
43
330
18
100
AcDbEntity
  8
0
100
AcDbLine
 10
67.0447
 20
130.241
 30
0.0
 11
65.0617
 21
129.096
 31
0.0
  0
LINE
  5
44
330
18
100
AcDbEntity
  8
0
100
AcDbLine
 10
65.0617
 20
129.096
 30
0.0
 11
65.89960000000001
 21
128.2579999999999
 31
0.0
  0
LINE
  5
45
330
18
100
AcDbEntity
  8
0
100
AcDbLine
 10
63.6871
 20
126.8829999999999
 30
0.0
 11
74.3449
 21
137.541
 31
0.0
  0
LINE
  5
46
330
18
100
AcDbEntity
  8
0
  6
AIGENLINE001
100
AcDbLine
 10
49.5732
 20
89.36669999999999
 30
0.0
 11
41.57359999999999
 21
89.36669999999999
 31
0.0
  0
LINE
  5
47
330
18
100
AcDbEntity
  8
0
  6
AIGENLINE001
100
AcDbLine
 10
49.5732
 20
109.367
 30
0.0
 11
41.57359999999999
 21
109.367
 31
0.0
  0
LINE
  5
48
330
18
100
AcDbEntity
  8
0
  6
AIGENLINE001
100
AcDbLine
 10
49.5732
 20
154.867
 30
0.0
 11
41.57359999999999
 21
154.867
 31
0.0
  0
LINE
  5
49
330
18
100
AcDbEntity
  8
0
  6
AIGENLINE001
100
AcDbLine
 10
49.5732
 20
174.868
 30
0.0
 11
41.57359999999999
 21
174.868
 31
0.0
  0
LINE
  5
4A
330
18
100
AcDbEntity
  8
0
100
AcDbLine
 10
66.4594
 20
199.889
 30
0.0
 11
68.6708
 21
200.482
 31
0.0
  0
LINE
  5
4B
330
18
100
AcDbEntity
  8
0
100
AcDbLine
 10
68.6708
 20
200.482
 30
0.0
 11
66.4594
 21
201.074
 31
0.0
  0
LINE
  5
4C
330
18
100
AcDbEntity
  8
0
100
AcDbLine
 10
66.4594
 20
201.074
 30
0.0
 11
66.4594
 21
199.889
 31
0.0
  0
LINE
  5
4D
330
18
100
AcDbEntity
  8
0
100
AcDbLine
 10
47.8823
 20
201.06
 30
0.0
 11
45.6705
 21
200.4669999999999
 31
0.0
  0
LINE
  5
4E
330
18
100
AcDbEntity
  8
0
100
AcDbLine
 10
45.6705
 20
200.4669999999999
 30
0.0
 11
47.8823
 21
199.875
 31
0.0
  0
LINE
  5
4F
330
18
100
AcDbEntity
  8
0
100
AcDbLine
 10
47.8823
 20
199.875
 30
0.0
 11
47.8823
 21
201.06
 31
0.0
  0
LINE
  5
50
330
18
100
AcDbEntity
  8
0
100
AcDbLine
 10
68.6708
 20
200.4669999999999
 30
0.0
 11
45.6705
 21
200.4669999999999
 31
0.0
  0
LINE
  5
51
330
18
100
AcDbEntity
  8
0
100
AcDbLine
 10
68.6708
 20
201.167
 30
0.0
 11
68.6708
 21
138.192
 31
0.0
  0
LINE
  5
52
330
18
100
AcDbEntity
  8
0
100
AcDbLine
 10
93.4595
 20
206.76
 30
0.0
 11
95.6709
 21
207.352
 31
0.0
  0
LINE
  5
53
330
18
100
AcDbEntity
  8
0
100
AcDbLine
 10
95.6709
 20
207.352
 30
0.0
 11
93.4595
 21
207.945
 31
0.0
  0
LINE
  5
54
330
18
100
AcDbEntity
  8
0
100
AcDbLine
 10
93.4595
 20
207.945
 30
0.0
 11
93.4595
 21
206.76
 31
0.0
  0
LINE
  5
55
330
18
100
AcDbEntity
  8
0
100
AcDbLine
 10
47.8823
 20
207.9299999999999
 30
0.0
 11
45.6705
 21
207.3379999999999
 31
0.0
  0
LINE
  5
56
330
18
100
AcDbEntity
  8
0
100
AcDbLine
 10
45.6705
 20
207.3379999999999
 30
0.0
 11
47.8823
 21
206.745
 31
0.0
  0
LINE
  5
57
330
18
100
AcDbEntity
  8
0
100
AcDbLine
 10
47.8823
 20
206.745
 30
0.0
 11
47.8823
 21
207.9299999999999
 31
0.0
  0
LINE
  5
58
330
18
100
AcDbEntity
  8
0
100
AcDbLine
 10
95.6709
 20
207.3379999999999
 30
0.0
 11
45.6705
 21
207.3379999999999
 31
0.0
  0
LINE
  5
59
330
18
100
AcDbEntity
  8
0
100
AcDbLine
 10
95.6709
 20
208.0379999999999
 30
0.0
 11
95.6709
 21
194.5669999999999
 31
0.0
  0
LINE
  5
5A
330
18
100
AcDbEntity
  8
0
100
AcDbLine
 10
45.6705
 20
208.0379999999999
 30
0.0
 11
45.6705
 21
194.5669999999999
 31
0.0
  0
LINE
  5
5B
330
18
100
AcDbEntity
  8
0
100
AcDbLine
 10
52.4591
 20
101.217
 30
0.0
 11
54.6706
 21
101.81
 31
0.0
  0
LINE
  5
5C
330
18
100
AcDbEntity
  8
0
100
AcDbLine
 10
54.6706
 20
101.81
 30
0.0
 11
52.4591
 21
102.4019999999999
 31
0.0
  0
LINE
  5
5D
330
18
100
AcDbEntity
  8
0
100
AcDbLine
 10
52.4591
 20
102.4019999999999
 30
0.0
 11
52.4591
 21
101.217
 31
0.0
  0
LINE
  5
5E
330
18
100
AcDbEntity
  8
0
100
AcDbLine
 10
47.8823
 20
102.3879999999999
 30
0.0
 11
45.6705
 21
101.795
 31
0.0
  0
LINE
  5
5F
330
18
100
AcDbEntity
  8
0
100
AcDbLine
 10
45.6705
 20
101.795
 30
0.0
 11
47.8823
 21
101.2029999999999
 31
0.0
  0
LINE
  5
60
330
18
100
AcDbEntity
  8
0
100
AcDbLine
 10
47.8823
 20
101.2029999999999
 30
0.0
 11
47.8823
 21
102.3879999999999
 31
0.0
  0
LINE
  5
61
330
18
100
AcDbEntity
  8
0
100
AcDbLine
 10
54.6706
 20
101.795
 30
0.0
 11
45.6705
 21
101.795
 31
0.0
  0
LINE
  5
62
330
18
100
AcDbEntity
  8
0
100
AcDbLine
 10
54.6706
 20
101.095
 30
0.0
 11
54.6706
 21
118.86
 31
0.0
  0
LINE
  5
63
330
18
100
AcDbEntity
  8
0
100
AcDbLine
 10
51.1607
 20
122.367
 30
0.0
 11
35.57909999999999
 21
122.367
 31
0.0
  0
LINE
  5
64
330
18
100
AcDbEntity
  8
0
100
AcDbLine
 10
44.9705
 20
73.86639999999999
 30
0.0
 11
35.57909999999999
 21
73.86639999999999
 31
0.0
  0
LINE
  5
65
330
18
100
AcDbEntity
  8
0
100
AcDbLine
 10
36.8717
 20
120.156
 30
0.0
 11
36.2792
 21
122.367
 31
0.0
  0
LINE
  5
66
330
18
100
AcDbEntity
  8
0
100
AcDbLine
 10
36.2792
 20
122.367
 30
0.0
 11
35.68659999999999
 21
120.156
 31
0.0
  0
LINE
  5
67
330
18
100
AcDbEntity
  8
0
100
AcDbLine
 10
35.68659999999999
 20
120.156
 30
0.0
 11
36.8717
 21
120.156
 31
0.0
  0
LINE
  5
68
330
18
100
AcDbEntity
  8
0
100
AcDbLine
 10
35.70109999999999
 20
76.0782
 30
0.0
 11
36.2936
 21
73.86639999999999
 31
0.0
  0
LINE
  5
69
330
18
100
AcDbEntity
  8
0
100
AcDbLine
 10
36.2936
 20
73.86639999999999
 30
0.0
 11
36.8862
 21
76.0782
 31
0.0
  0
LINE
  5
6A
330
18
100
AcDbEntity
  8
0
100
AcDbLine
 10
36.8862
 20
76.0782
 30
0.0
 11
35.70109999999999
 21
76.0782
 31
0.0
  0
LINE
  5
6B
330
18
100
AcDbEntity
  8
0
100
AcDbLine
 10
36.2792
 20
122.367
 30
0.0
 11
36.2792
 21
73.86639999999999
 31
0.0
  0
LINE
  5
6C
330
18
100
AcDbEntity
  8
0
100
AcDbLine
 10
140.2919999999999
 20
172.6559999999999
 30
0.0
 11
139.6989999999999
 21
174.868
 31
0.0
  0
LINE
  5
6D
330
18
100
AcDbEntity
  8
0
100
AcDbLine
 10
139.6989999999999
 20
174.868
 30
0.0
 11
139.107
 21
172.6559999999999
 31
0.0
  0
LINE
  5
6E
330
18
100
AcDbEntity
  8
0
100
AcDbLine
 10
139.107
 20
172.6559999999999
 30
0.0
 11
140.2919999999999
 21
172.6559999999999
 31
0.0
  0
LINE
  5
6F
330
18
100
AcDbEntity
  8
0
100
AcDbLine
 10
139.107
 20
177.079
 30
0.0
 11
139.6989999999999
 21
174.868
 31
0.0
  0
LINE
  5
70
330
18
100
AcDbEntity
  8
0
100
AcDbLine
 10
139.6989999999999
 20
174.868
 30
0.0
 11
140.2919999999999
 21
177.079
 31
0.0
  0
LINE
  5
71
330
18
100
AcDbEntity
  8
0
100
AcDbLine
 10
140.2919999999999
 20
177.079
 30
0.0
 11
139.107
 21
177.079
 31
0.0
  0
LINE
  5
72
330
18
100
AcDbEntity
  8
0
100
AcDbLine
 10
140.2919999999999
 20
152.656
 30
0.0
 11
139.6989999999999
 21
154.867
 31
0.0
  0
LINE
  5
73
330
18
100
AcDbEntity
  8
0
100
AcDbLine
 10
139.6989999999999
 20
154.867
 30
0.0
 11
139.107
 21
152.656
 31
0.0
  0
LINE
  5
74
330
18
100
AcDbEntity
  8
0
100
AcDbLine
 10
139.107
 20
152.656
 30
0.0
 11
140.2919999999999
 21
152.656
 31
0.0
  0
LINE
  5
75
330
18
100
AcDbEntity
  8
0
100
AcDbLine
 10
139.107
 20
157.079
 30
0.0
 11
139.6989999999999
 21
154.867
 31
0.0
  0
LINE
  5
76
330
18
100
AcDbEntity
  8
0
100
AcDbLine
 10
139.6989999999999
 20
154.867
 30
0.0
 11
140.2919999999999
 21
157.079
 31
0.0
  0
LINE
  5
77
330
18
100
AcDbEntity
  8
0
100
AcDbLine
 10
140.2919999999999
 20
157.079
 30
0.0
 11
139.107
 21
157.079
 31
0.0
  0
LINE
  5
78
330
18
100
AcDbEntity
  8
0
100
AcDbLine
 10
140.2919999999999
 20
107.155
 30
0.0
 11
139.6989999999999
 21
109.367
 31
0.0
  0
LINE
  5
79
330
18
100
AcDbEntity
  8
0
100
AcDbLine
 10
139.6989999999999
 20
109.367
 30
0.0
 11
139.107
 21
107.155
 31
0.0
  0
LINE
  5
7A
330
18
100
AcDbEntity
  8
0
100
AcDbLine
 10
139.107
 20
107.155
 30
0.0
 11
140.2919999999999
 21
107.155
 31
0.0
  0
LINE
  5
7B
330
18
100
AcDbEntity
  8
0
100
AcDbLine
 10
139.107
 20
111.5779999999999
 30
0.0
 11
139.6989999999999
 21
109.367
 31
0.0
  0
LINE
  5
7C
330
18
100
AcDbEntity
  8
0
100
AcDbLine
 10
139.6989999999999
 20
109.367
 30
0.0
 11
140.2919999999999
 21
111.5779999999999
 31
0.0
  0
LINE
  5
7D
330
18
100
AcDbEntity
  8
0
100
AcDbLine
 10
140.2919999999999
 20
111.5779999999999
 30
0.0
 11
139.107
 21
111.5779999999999
 31
0.0
  0
LINE
  5
7E
330
18
100
AcDbEntity
  8
0
100
AcDbLine
 10
140.2919999999999
 20
87.15560000000001
 30
0.0
 11
139.6989999999999
 21
89.36669999999999
 31
0.0
  0
LINE
  5
7F
330
18
100
AcDbEntity
  8
0
100
AcDbLine
 10
139.6989999999999
 20
89.36669999999999
 30
0.0
 11
139.107
 21
87.15560000000001
 31
0.0
  0
LINE
  5
80
330
18
100
AcDbEntity
  8
0
100
AcDbLine
 10
139.107
 20
87.15560000000001
 30
0.0
 11
140.2919999999999
 21
87.15560000000001
 31
0.0
  0
LINE
  5
81
330
18
100
AcDbEntity
  8
0
100
AcDbLine
 10
139.107
 20
91.57850000000001
 30
0.0
 11
139.6989999999999
 21
89.36669999999999
 31
0.0
  0
LINE
  5
82
330
18
100
AcDbEntity
  8
0
100
AcDbLine
 10
139.6989999999999
 20
89.36669999999999
 30
0.0
 11
140.2919999999999
 21
91.57850000000001
 31
0.0
  0
LINE
  5
83
330
18
100
AcDbEntity
  8
0
100
AcDbLine
 10
140.2919999999999
 20
91.57850000000001
 30
0.0
 11
139.107
 21
91.57850000000001
 31
0.0
  0
LINE
  5
84
330
18
100
AcDbEntity
  8
0
100
AcDbLine
 10
106.4769999999999
 20
129.655
 30
0.0
 11
105.884
 21
131.867
 31
0.0
  0
LINE
  5
85
330
18
100
AcDbEntity
  8
0
100
AcDbLine
 10
105.884
 20
131.867
 30
0.0
 11
105.292
 21
129.655
 31
0.0
  0
LINE
  5
86
330
18
100
AcDbEntity
  8
0
100
AcDbLine
 10
105.292
 20
129.655
 30
0.0
 11
106.4769999999999
 21
129.655
 31
0.0
  0
LINE
  5
87
330
18
100
AcDbEntity
  8
0
100
AcDbLine
 10
116.3939999999999
 20
191.657
 30
0.0
 11
115.8009999999999
 21
193.8679999999999
 31
0.0
  0
LINE
  5
88
330
18
100
AcDbEntity
  8
0
100
AcDbLine
 10
115.8009999999999
 20
193.8679999999999
 30
0.0
 11
115.209
 21
191.657
 31
0.0
  0
LINE
  5
89
330
18
100
AcDbEntity
  8
0
100
AcDbLine
 10
115.209
 20
191.657
 30
0.0
 11
116.3939999999999
 21
191.657
 31
0.0
  0
LINE
  5
8A
330
18
100
AcDbEntity
  8
0
100
AcDbLine
 10
105.292
 20
134.078
 30
0.0
 11
105.884
 21
131.867
 31
0.0
  0
LINE
  5
8B
330
18
100
AcDbEntity
  8
0
100
AcDbLine
 10
105.884
 20
131.867
 30
0.0
 11
106.4769999999999
 21
134.078
 31
0.0
  0
LINE
  5
8C
330
18
100
AcDbEntity
  8
0
100
AcDbLine
 10
106.4769999999999
 20
134.078
 30
0.0
 11
105.292
 21
134.078
 31
0.0
  0
LINE
  5
8D
330
18
100
AcDbEntity
  8
0
100
AcDbLine
 10
115.223
 20
76.0782
 30
0.0
 11
115.816
 21
73.86639999999999
 31
0.0
  0
LINE
  5
8E
330
18
100
AcDbEntity
  8
0
100
AcDbLine
 10
115.816
 20
73.86639999999999
 30
0.0
 11
116.408
 21
76.0782
 31
0.0
  0
LINE
  5
8F
330
18
100
AcDbEntity
  8
0
100
AcDbLine
 10
116.408
 20
76.0782
 30
0.0
 11
115.223
 21
76.0782
 31
0.0
  0
LINE
  5
90
330
18
100
AcDbEntity
  8
0
100
AcDbLine
 10
115.8009999999999
 20
193.8679999999999
 30
0.0
 11
115.8009999999999
 21
73.86639999999999
 31
0.0
  0
LINE
  5
91
330
18
100
AcDbEntity
  8
0
100
AcDbLine
 10
106.4769999999999
 20
191.657
 30
0.0
 11
105.884
 21
193.8679999999999
 31
0.0
  0
LINE
  5
92
330
18
100
AcDbEntity
  8
0
100
AcDbLine
 10
105.884
 20
193.8679999999999
 30
0.0
 11
105.292
 21
191.657
 31
0.0
  0
LINE
  5
93
330
18
100
AcDbEntity
  8
0
100
AcDbLine
 10
105.292
 20
191.657
 30
0.0
 11
106.4769999999999
 21
191.657
 31
0.0
  0
LINE
  5
94
330
18
100
AcDbEntity
  8
0
100
AcDbLine
 10
105.3059999999999
 20
76.0782
 30
0.0
 11
105.899
 21
73.86639999999999
 31
0.0
  0
LINE
  5
95
330
18
100
AcDbEntity
  8
0
100
AcDbLine
 10
105.899
 20
73.86639999999999
 30
0.0
 11
106.491
 21
76.0782
 31
0.0
  0
LINE
  5
96
330
18
100
AcDbEntity
  8
0
100
AcDbLine
 10
106.491
 20
76.0782
 30
0.0
 11
105.3059999999999
 21
76.0782
 31
0.0
  0
LINE
  5
97
330
18
100
AcDbEntity
  8
0
100
AcDbLine
 10
105.884
 20
193.8679999999999
 30
0.0
 11
105.884
 21
73.86639999999999
 31
0.0
  0
LINE
  5
98
330
18
100
AcDbEntity
  8
0
100
AcDbLine
 10
106.584
 20
131.867
 30
0.0
 11
74.9899
 21
131.867
 31
0.0
  0
LINE
  5
99
330
18
100
AcDbEntity
  8
0
100
AcDbLine
 10
116.501
 20
193.867
 30
0.0
 11
96.7575
 21
193.867
 31
0.0
  0
LINE
  5
9A
330
18
100
AcDbEntity
  8
0
100
AcDbLine
 10
116.501
 20
73.86639999999999
 30
0.0
 11
96.7575
 21
73.86639999999999
 31
0.0
  0
LINE
  5
9B
330
18
100
AcDbEntity
  8
0
100
AcDbLine
 10
150.7589999999999
 20
207.9299999999999
 30
0.0
 11
148.547
 21
207.3379999999999
 31
0.0
  0
LINE
  5
9C
330
18
100
AcDbEntity
  8
0
100
AcDbLine
 10
148.547
 20
207.3379999999999
 30
0.0
 11
150.7589999999999
 21
206.745
 31
0.0
  0
LINE
  5
9D
330
18
100
AcDbEntity
  8
0
100
AcDbLine
 10
150.7589999999999
 20
206.745
 30
0.0
 11
150.7589999999999
 21
207.9299999999999
 31
0.0
  0
LINE
  5
9E
330
18
100
AcDbEntity
  8
0
100
AcDbLine
 10
161.836
 20
206.76
 30
0.0
 11
164.048
 21
207.352
 31
0.0
  0
LINE
  5
9F
330
18
100
AcDbEntity
  8
0
100
AcDbLine
 10
164.048
 20
207.352
 30
0.0
 11
161.836
 21
207.945
 31
0.0
  0
LINE
  5
A0
330
18
100
AcDbEntity
  8
0
100
AcDbLine
 10
161.836
 20
207.945
 30
0.0
 11
161.836
 21
206.76
 31
0.0
  0
LINE
  5
A1
330
18
100
AcDbEntity
  8
0
100
AcDbLine
 10
148.547
 20
207.3379999999999
 30
0.0
 11
164.048
 21
207.3379999999999
 31
0.0
  0
LINE
  5
A2
330
18
100
AcDbEntity
  8
0
100
AcDbLine
 10
148.547
 20
208.0379999999999
 30
0.0
 11
148.547
 21
194.5669999999999
 31
0.0
  0
LINE
  5
A3
330
18
100
AcDbEntity
  8
0
100
AcDbLine
 10
163.582
 20
135.5539999999999
 30
0.0
 11
162.04
 21
135.661
 31
0.0
  0
LINE
  5
A4
330
18
100
AcDbEntity
  8
0
100
AcDbLine
 10
164.048
 20
135.055
 30
0.0
 11
164.048
 21
128.9879999999999
 31
0.0
  0
ARC
  5
A5
330
18
100
AcDbEntity
  8
0
100
AcDbCircle
 10
163.5293719999999
 20
135.0382899999999
 30
0.0
 40
0.5184290000000001
100
AcDbArc
 50
1.862875999999999
 51
84.125183
  0
LINE
  5
A6
330
18
100
AcDbEntity
  8
0
100
AcDbLine
 10
162.613
 20
128.4219999999999
 30
0.0
 11
163.582
 21
128.489
 31
0.0
  0
ARC
  5
A7
330
18
100
AcDbEntity
  8
0
100
AcDbCircle
 10
163.5293669999999
 20
129.0051489999999
 30
0.0
 40
0.5184340000000001
100
AcDbArc
 50
275.875364
 51
358.136577
  0
ARC
  5
A8
330
18
100
AcDbEntity
  8
0
100
AcDbCircle
 10
160.690852
 20
116.297223
 30
0.0
 40
19.41123
100
AcDbArc
 50
86.01333299999998
 51
88.902412
  0
ARC
  5
A9
330
18
100
AcDbEntity
  8
0
100
AcDbCircle
 10
161.0705709999999
 20
136.0455259999999
 30
0.0
 40
0.340726
100
AcDbArc
 50
196.933354
 51
268.6724759999999
  0
ARC
  5
AA
330
18
100
AcDbEntity
  8
0
100
AcDbCircle
 10
161.68464
 20
136.311202
 30
0.0
 40
1.008367999999999
100
AcDbArc
 50
187.115046
 51
201.2161459999999
  0
ARC
  5
AB
330
18
100
AcDbEntity
  8
0
100
AcDbCircle
 10
162.933199
 20
136.480061
 30
0.0
 40
2.268263999999999
100
AcDbArc
 50
179.2868269999999
 51
187.441152
  0
LINE
  5
AC
330
18
100
AcDbEntity
  8
0
100
AcDbLine
 10
164.048
 20
208.0379999999999
 30
0.0
 11
164.048
 21
136.4389999999999
 31
0.0
  0
LINE
  5
AD
330
18
100
AcDbEntity
  8
0
100
AcDbLine
 10
150.7589999999999
 20
200.768
 30
0.0
 11
148.547
 21
200.1759999999999
 31
0.0
  0
LINE
  5
AE
330
18
100
AcDbEntity
  8
0
100
AcDbLine
 10
148.547
 20
200.1759999999999
 30
0.0
 11
150.7589999999999
 21
199.5829999999999
 31
0.0
  0
LINE
  5
AF
330
18
100
AcDbEntity
  8
0
100
AcDbLine
 10
150.7589999999999
 20
199.5829999999999
 30
0.0
 11
150.7589999999999
 21
200.768
 31
0.0
  0
LINE
  5
B0
330
18
100
AcDbEntity
  8
0
100
AcDbLine
 10
151.336
 20
199.5829999999999
 30
0.0
 11
153.547
 21
200.1759999999999
 31
0.0
  0
LINE
  5
B1
330
18
100
AcDbEntity
  8
0
100
AcDbLine
 10
153.547
 20
200.1759999999999
 30
0.0
 11
151.336
 21
200.768
 31
0.0
  0
LINE
  5
B2
330
18
100
AcDbEntity
  8
0
100
AcDbLine
 10
151.336
 20
200.768
 30
0.0
 11
151.336
 21
199.5829999999999
 31
0.0
  0
LINE
  5
B3
330
18
100
AcDbEntity
  8
0
100
AcDbLine
 10
148.547
 20
200.1759999999999
 30
0.0
 11
153.547
 21
200.1759999999999
 31
0.0
  0
LINE
  5
B4
330
18
100
AcDbEntity
  8
0
100
AcDbLine
 10
153.547
 20
200.8759999999999
 30
0.0
 11
153.547
 21
178.2409999999999
 31
0.0
  0
LINE
  5
B5
330
18
100
AcDbEntity
  8
0
100
AcDbLine
 10
154.7609999999999
 20
66.53870000000001
 30
0.0
 11
152.549
 21
65.9461
 31
0.0
  0
LINE
  5
B6
330
18
100
AcDbEntity
  8
0
100
AcDbLine
 10
152.549
 20
65.9461
 30
0.0
 11
154.7609999999999
 21
65.3535
 31
0.0
  0
LINE
  5
B7
330
18
100
AcDbEntity
  8
0
100
AcDbLine
 10
154.7609999999999
 20
65.3535
 30
0.0
 11
154.7609999999999
 21
66.53870000000001
 31
0.0
  0
LINE
  5
B8
330
18
100
AcDbEntity
  8
0
100
AcDbLine
 10
146.3379999999999
 20
65.3535
 30
0.0
 11
148.549
 21
65.9461
 31
0.0
  0
LINE
  5
B9
330
18
100
AcDbEntity
  8
0
100
AcDbLine
 10
148.549
 20
65.9461
 30
0.0
 11
146.3379999999999
 21
66.53870000000001
 31
0.0
  0
LINE
  5
BA
330
18
100
AcDbEntity
  8
0
100
AcDbLine
 10
146.3379999999999
 20
66.53870000000001
 30
0.0
 11
146.3379999999999
 21
65.3535
 31
0.0
  0
LINE
  5
BB
330
18
100
AcDbEntity
  8
0
100
AcDbLine
 10
144.3859999999999
 20
65.9461
 30
0.0
 11
156.02
 21
65.9461
 31
0.0
  0
LINE
  5
BC
330
18
100
AcDbEntity
  8
0
100
AcDbLine
 10
152.549
 20
73.16639999999999
 30
0.0
 11
152.549
 21
65.24600000000001
 31
0.0
  0
LINE
  5
BD
330
18
100
AcDbEntity
  8
0
100
AcDbLine
 10
148.549
 20
73.16639999999999
 30
0.0
 11
148.549
 21
65.24600000000001
 31
0.0
  0
LINE
  5
BE
330
18
100
AcDbEntity
  8
0
100
AcDbLine
 10
140.2919999999999
 20
191.6559999999999
 30
0.0
 11
139.6989999999999
 21
193.867
 31
0.0
  0
LINE
  5
BF
330
18
100
AcDbEntity
  8
0
100
AcDbLine
 10
139.6989999999999
 20
193.867
 30
0.0
 11
139.107
 21
191.6559999999999
 31
0.0
  0
LINE
  5
C0
330
18
100
AcDbEntity
  8
0
100
AcDbLine
 10
139.107
 20
191.6559999999999
 30
0.0
 11
140.2919999999999
 21
191.6559999999999
 31
0.0
  0
LINE
  5
C1
330
18
100
AcDbEntity
  8
0
100
AcDbLine
 10
139.121
 20
76.0782
 30
0.0
 11
139.714
 21
73.86639999999999
 31
0.0
  0
LINE
  5
C2
330
18
100
AcDbEntity
  8
0
100
AcDbLine
 10
139.714
 20
73.86639999999999
 30
0.0
 11
140.306
 21
76.0782
 31
0.0
  0
LINE
  5
C3
330
18
100
AcDbEntity
  8
0
100
AcDbLine
 10
140.306
 20
76.0782
 30
0.0
 11
139.121
 21
76.0782
 31
0.0
  0
LINE
  5
C4
330
18
100
AcDbEntity
  8
0
100
AcDbLine
 10
139.6989999999999
 20
193.867
 30
0.0
 11
139.6989999999999
 21
73.86639999999999
 31
0.0
  0
LINE
  5
C5
330
18
100
AcDbEntity
  8
0
100
AcDbLine
 10
147.8489999999999
 20
73.86639999999999
 30
0.0
 11
138.999
 21
73.86639999999999
 31
0.0
  0
LINE
  5
C6
330
18
100
AcDbEntity
  8
0
100
AcDbLine
 10
150.689
 20
89.36669999999999
 30
0.0
 11
138.999
 21
89.36669999999999
 31
0.0
  0
LINE
  5
C7
330
18
100
AcDbEntity
  8
0
100
AcDbLine
 10
150.689
 20
109.367
 30
0.0
 11
138.999
 21
109.367
 31
0.0
  0
LINE
  5
C8
330
18
100
AcDbEntity
  8
0
100
AcDbLine
 10
150.689
 20
154.867
 30
0.0
 11
138.999
 21
154.867
 31
0.0
  0
LINE
  5
C9
330
18
100
AcDbEntity
  8
0
100
AcDbLine
 10
150.689
 20
174.868
 30
0.0
 11
138.999
 21
174.868
 31
0.0
  0
LINE
  5
CA
330
18
100
AcDbEntity
  8
0
100
AcDbLine
 10
147.8489999999999
 20
193.867
 30
0.0
 11
138.999
 21
193.867
 31
0.0
  0
LINE
  5
CB
330
18
100
AcDbEntity
  8
0
100
AcDbLine
 10
152.1589999999999
 20
193.792
 30
0.0
 11
149.37
 21
193.867
 31
0.0
  0
LINE
  5
CC
330
18
100
AcDbEntity
  8
0
100
AcDbLine
 10
152.55
 20
74.3398
 30
0.0
 11
152.55
 21
193.395
 31
0.0
  0
LINE
  5
CD
330
18
100
AcDbEntity
  8
0
100
AcDbLine
 10
149.37
 20
73.8657
 30
0.0
 11
152.1589999999999
 21
73.9401
 31
0.0
  0
LINE
  5
CE
330
18
100
AcDbEntity
  8
0
100
AcDbLine
 10
148.549
 20
193.0679999999999
 30
0.0
 11
148.549
 21
74.6677
 31
0.0
  0
ARC
  5
CF
330
18
100
AcDbEntity
  8
0
100
AcDbCircle
 10
149.335124
 20
192.0816169999999
 30
0.0
 40
1.786150999999999
100
AcDbArc
 50
88.88281199999999
 51
97.12607500000002
  0
ARC
  5
D0
330
18
100
AcDbEntity
  8
0
100
AcDbCircle
 10
149.194344
 20
193.1341889999999
 30
0.0
 40
0.724303
100
AcDbArc
 50
96.404755
 51
128.412952
  0
ARC
  5
D1
330
18
100
AcDbEntity
  8
0
100
AcDbCircle
 10
149.1644579999999
 20
193.257162
 30
0.0
 40
0.611678
100
AcDbArc
 50
133.382673
 51
175.3027499999999
  0
ARC
  5
D2
330
18
100
AcDbEntity
  8
0
100
AcDbCircle
 10
61.397651
 20
195.3475919999999
 30
0.0
 40
87.18106199999999
100
AcDbArc
 50
358.512196
 51
358.658958
  0
LINE
  5
D3
330
18
100
AcDbEntity
  8
0
100
AcDbLine
 10
148.549
 20
193.084
 30
0.0
 11
148.549
 21
193.078
 31
0.0
  0
LINE
  5
D4
330
18
100
AcDbEntity
  8
0
100
AcDbLine
 10
148.549
 20
193.078
 30
0.0
 11
148.549
 21
193.0679999999999
 31
0.0
  0
ARC
  5
D5
330
18
100
AcDbEntity
  8
0
100
AcDbCircle
 10
150.3422419999999
 20
74.666533
 30
0.0
 40
1.79292
100
AcDbArc
 50
179.961124
 51
188.1841249999999
  0
ARC
  5
D6
330
18
100
AcDbEntity
  8
0
100
AcDbCircle
 10
149.277586
 20
74.504336
 30
0.0
 40
0.716074
100
AcDbArc
 50
187.4650069999999
 51
219.842612
  0
ARC
  5
D7
330
18
100
AcDbEntity
  8
0
100
AcDbCircle
 10
149.160759
 20
74.47365400000001
 30
0.0
 40
0.60888
100
AcDbArc
 50
224.674865
 51
266.7956279999999
  0
LINE
  5
D8
330
18
100
AcDbEntity
  8
0
100
AcDbLine
 10
149.127
 20
73.8657
 30
0.0
 11
149.3529999999999
 21
73.8657
 31
0.0
  0
LINE
  5
D9
330
18
100
AcDbEntity
  8
0
100
AcDbLine
 10
149.3529999999999
 20
73.8657
 30
0.0
 11
149.36
 21
73.8657
 31
0.0
  0
LINE
  5
DA
330
18
100
AcDbEntity
  8
0
100
AcDbLine
 10
149.36
 20
73.8657
 30
0.0
 11
149.37
 21
73.8657
 31
0.0
  0
ARC
  5
DB
330
18
100
AcDbEntity
  8
0
100
AcDbCircle
 10
152.1856699999999
 20
74.39354300000001
 30
0.0
 40
0.4541800000000001
100
AcDbArc
 50
266.6482779999999
 51
307.630219
  0
ARC
  5
DC
330
18
100
AcDbEntity
  8
0
100
AcDbCircle
 10
152.288336
 20
74.201986
 30
0.0
 40
0.242424
100
AcDbArc
 50
316.086503
 51
340.4040819999999
  0
ARC
  5
DD
330
18
100
AcDbEntity
  8
0
100
AcDbCircle
 10
151.9630899999999
 20
74.31629599999999
 30
0.0
 40
0.587172
100
AcDbArc
 50
340.5399819999999
 51
2.291530999999999
  0
LINE
  5
DE
330
18
100
AcDbEntity
  8
0
  6
AIGENLINE001
100
AcDbLine
 10
166.1459999999999
 20
131.867
 30
0.0
 11
155.4779999999999
 21
131.867
 31
0.0
  0
LINE
  5
DF
330
18
100
AcDbEntity
  8
0
  6
AIGENLINE001
100
AcDbLine
 10
153.547
 20
86.7753
 30
0.0
 11
153.547
 21
92.0401
 31
0.0
  0
LINE
  5
E0
330
18
100
AcDbEntity
  8
0
  6
AIGENLINE002
100
AcDbLine
 10
154.747
 20
89.9675
 30
0.0
 11
154.747
 21
88.7672
 31
0.0
  0
LINE
  5
E1
330
18
100
AcDbEntity
  8
0
  6
AIGENLINE002
100
AcDbLine
 10
152.347
 20
89.9675
 30
0.0
 11
152.347
 21
88.7672
 31
0.0
  0
ARC
  5
E2
330
18
100
AcDbEntity
  8
0
  6
AIGENLINE002
100
AcDbCircle
 10
153.547498
 20
88.767236
 30
0.0
 40
1.200279
100
AcDbArc
 50
179.9999699999999
 51
270.00002
  0
ARC
  5
E3
330
18
100
AcDbEntity
  8
0
  6
AIGENLINE002
100
AcDbCircle
 10
153.501581
 20
88.812438
 30
0.0
 40
1.246328
100
AcDbArc
 50
272.1114029999999
 51
357.9215069999999
  0
ARC
  5
E4
330
18
100
AcDbEntity
  8
0
  6
AIGENLINE002
100
AcDbCircle
 10
153.5016139999999
 20
89.921631
 30
0.0
 40
1.246318999999999
100
AcDbArc
 50
2.109855
 51
87.89013500000001
  0
ARC
  5
E5
330
18
100
AcDbEntity
  8
0
  6
AIGENLINE002
100
AcDbCircle
 10
153.5933489999999
 20
89.920948
 30
0.0
 40
1.246998999999999
100
AcDbArc
 50
92.10717
 51
177.8598999999999
  0
LINE
  5
E6
330
18
100
AcDbEntity
  8
0
  6
AIGENLINE001
100
AcDbLine
 10
155.708
 20
89.3674
 30
0.0
 11
151.389
 21
89.3674
 31
0.0
  0
LINE
  5
E7
330
18
100
AcDbEntity
  8
0
  6
AIGENLINE001
100
AcDbLine
 10
153.547
 20
106.776
 30
0.0
 11
153.547
 21
112.04
 31
0.0
  0
LINE
  5
E8
330
18
100
AcDbEntity
  8
0
  6
AIGENLINE002
100
AcDbLine
 10
154.747
 20
109.967
 30
0.0
 11
154.747
 21
108.7679999999999
 31
0.0
  0
LINE
  5
E9
330
18
100
AcDbEntity
  8
0
  6
AIGENLINE002
100
AcDbLine
 10
152.347
 20
109.967
 30
0.0
 11
152.347
 21
108.7679999999999
 31
0.0
  0
ARC
  5
EA
330
18
100
AcDbEntity
  8
0
  6
AIGENLINE002
100
AcDbCircle
 10
153.547498
 20
108.7675199999999
 30
0.0
 40
1.200279
100
AcDbArc
 50
179.9999699999999
 51
270.00002
  0
ARC
  5
EB
330
18
100
AcDbEntity
  8
0
  6
AIGENLINE002
100
AcDbCircle
 10
153.501581
 20
108.812722
 30
0.0
 40
1.246328
100
AcDbArc
 50
272.1114029999999
 51
357.9215069999999
  0
ARC
  5
EC
330
18
100
AcDbEntity
  8
0
  6
AIGENLINE002
100
AcDbCircle
 10
153.500932
 20
109.921259
 30
0.0
 40
1.246998999999999
100
AcDbArc
 50
2.10718
 51
87.85990899999999
  0
ARC
  5
ED
330
18
100
AcDbEntity
  8
0
  6
AIGENLINE002
100
AcDbCircle
 10
153.5474989999999
 20
109.967109
 30
0.0
 40
1.200279
100
AcDbArc
 50
90.0
 51
179.9999699999999
  0
LINE
  5
EE
330
18
100
AcDbEntity
  8
0
  6
AIGENLINE001
100
AcDbLine
 10
155.708
 20
109.3679999999999
 30
0.0
 11
151.389
 21
109.3679999999999
 31
0.0
  0
LINE
  5
EF
330
18
100
AcDbEntity
  8
0
  6
AIGENLINE001
100
AcDbLine
 10
153.547
 20
152.276
 30
0.0
 11
153.547
 21
157.5409999999999
 31
0.0
  0
LINE
  5
F0
330
18
100
AcDbEntity
  8
0
  6
AIGENLINE002
100
AcDbLine
 10
154.747
 20
155.4679999999999
 30
0.0
 11
154.747
 21
154.268
 31
0.0
  0
LINE
  5
F1
330
18
100
AcDbEntity
  8
0
  6
AIGENLINE002
100
AcDbLine
 10
152.347
 20
155.4679999999999
 30
0.0
 11
152.347
 21
154.268
 31
0.0
  0
ARC
  5
F2
330
18
100
AcDbEntity
  8
0
  6
AIGENLINE002
100
AcDbCircle
 10
153.547498
 20
154.267872
 30
0.0
 40
1.200279
100
AcDbArc
 50
179.9999699999999
 51
270.00002
  0
ARC
  5
F3
330
18
100
AcDbEntity
  8
0
  6
AIGENLINE002
100
AcDbCircle
 10
153.501581
 20
154.3130749999999
 30
0.0
 40
1.246328
100
AcDbArc
 50
272.1114029999999
 51
357.9215069999999
  0
ARC
  5
F4
330
18
100
AcDbEntity
  8
0
  6
AIGENLINE002
100
AcDbCircle
 10
153.501629
 20
155.4222819999999
 30
0.0
 40
1.246303
100
AcDbArc
 50
2.109192999999999
 51
87.890797
  0
ARC
  5
F5
330
18
100
AcDbEntity
  8
0
  6
AIGENLINE002
100
AcDbCircle
 10
153.5933489999999
 20
155.421585
 30
0.0
 40
1.246998999999999
100
AcDbArc
 50
92.10717
 51
177.8598999999999
  0
LINE
  5
F6
330
18
100
AcDbEntity
  8
0
  6
AIGENLINE001
100
AcDbLine
 10
155.708
 20
154.868
 30
0.0
 11
151.389
 21
154.868
 31
0.0
  0
LINE
  5
F7
330
18
100
AcDbEntity
  8
0
  6
AIGENLINE001
100
AcDbLine
 10
153.547
 20
172.2759999999999
 30
0.0
 11
153.547
 21
177.5409999999999
 31
0.0
  0
LINE
  5
F8
330
18
100
AcDbEntity
  8
0
  6
AIGENLINE002
100
AcDbLine
 10
154.747
 20
175.468
 30
0.0
 11
154.747
 21
174.268
 31
0.0
  0
LINE
  5
F9
330
18
100
AcDbEntity
  8
0
  6
AIGENLINE002
100
AcDbLine
 10
152.347
 20
175.468
 30
0.0
 11
152.347
 21
174.268
 31
0.0
  0
ARC
  5
FA
330
18
100
AcDbEntity
  8
0
  6
AIGENLINE002
100
AcDbCircle
 10
153.547498
 20
174.268156
 30
0.0
 40
1.200279
100
AcDbArc
 50
179.9999699999999
 51
270.00002
  0
ARC
  5
FB
330
18
100
AcDbEntity
  8
0
  6
AIGENLINE002
100
AcDbCircle
 10
153.501581
 20
174.313359
 30
0.0
 40
1.246328
100
AcDbArc
 50
272.1114029999999
 51
357.9215069999999
  0
ARC
  5
FC
330
18
100
AcDbEntity
  8
0
  6
AIGENLINE002
100
AcDbCircle
 10
153.500932
 20
175.421895
 30
0.0
 40
1.246998999999999
100
AcDbArc
 50
2.10718
 51
87.85990899999999
  0
ARC
  5
FD
330
18
100
AcDbEntity
  8
0
  6
AIGENLINE002
100
AcDbCircle
 10
153.5474989999999
 20
175.467746
 30
0.0
 40
1.200279
100
AcDbArc
 50
90.0
 51
179.9999699999999
  0
ARC
  5
FE
330
18
100
AcDbEntity
  8
0
100
AcDbCircle
 10
152.3203139999999
 20
186.698303
 30
0.0
 40
107.327525
100
AcDbArc
 50
270.1225149999999
 51
271.1637559999999
  0
ARC
  5
FF
330
18
100
AcDbEntity
  8
0
100
AcDbCircle
 10
153.82856
 20
114.854867
 30
0.0
 40
35.46830999999999
100
AcDbArc
 50
271.0849129999999
 51
273.737052
  0
ARC
  5
100
330
18
100
AcDbEntity
  8
0
100
AcDbCircle
 10
153.641347
 20
114.39678
 30
0.0
 40
35.02406899999999
100
AcDbArc
 50
274.0915059999999
 51
278.031224
  0
ARC
  5
101
330
18
100
AcDbEntity
  8
0
100
AcDbCircle
 10
557.1921589999999
 20
-2725.407938
 30
0.0
 40
2833.310673
100
AcDbArc
 50
98.04556900000001
 51
98.08856199999999
  0
ARC
  5
102
330
18
100
AcDbEntity
  8
0
100
AcDbCircle
 10
155.730576
 20
114.611349
 30
0.0
 40
34.94332199999999
100
AcDbArc
 50
278.075968
 51
281.0954309999999
  0
ARC
  5
103
330
18
100
AcDbEntity
  8
0
100
AcDbCircle
 10
155.783651
 20
114.270821
 30
0.0
 40
34.598948
100
AcDbArc
 50
281.1177029999999
 51
284.167791
  0
ARC
  5
104
330
18
100
AcDbEntity
  8
0
100
AcDbCircle
 10
-242.2861119999999
 20
1690.693846
 30
0.0
 40
1660.504568
100
AcDbArc
 50
284.171687
 51
284.2120279999999
  0
ARC
  5
105
330
18
100
AcDbEntity
  8
0
100
AcDbCircle
 10
167.924073
 20
70.898531
 30
0.0
 40
10.42611
100
AcDbArc
 50
100.9069519999999
 51
104.0915199999999
  0
ARC
  5
106
330
18
100
AcDbEntity
  8
0
100
AcDbCircle
 10
165.837523
 20
81.75343599999999
 30
0.0
 40
0.6275350000000001
100
AcDbArc
 50
280.445854
 51
315.4799419999999
  0
ARC
  5
107
330
18
100
AcDbEntity
  8
0
100
AcDbCircle
 10
165.9098239999999
 20
81.63401699999999
 30
0.0
 40
0.493457
100
AcDbArc
 50
319.483422
 51
340.050585
  0
ARC
  5
108
330
18
100
AcDbEntity
  8
0
100
AcDbCircle
 10
291.684018
 20
34.945208
 30
0.0
 40
133.666882
100
AcDbArc
 50
159.4352899999999
 51
159.632949
  0
ARC
  5
109
330
18
100
AcDbEntity
  8
0
100
AcDbCircle
 10
165.871655
 20
82.13967
 30
0.0
 40
0.7060170000000001
100
AcDbArc
 50
339.954566
 51
11.072148
  0
ARC
  5
10A
330
18
100
AcDbEntity
  8
0
100
AcDbCircle
 10
169.2574159999999
 20
82.700563
 30
0.0
 40
2.726265
100
AcDbArc
 50
180.8581669999999
 51
188.975004
  0
LINE
  5
10B
330
18
100
AcDbEntity
  8
0
100
AcDbLine
 10
166.5309999999999
 20
82.65970000000001
 30
0.0
 11
166.5309999999999
 21
83.07590000000001
 31
0.0
  0
LINE
  5
10C
330
18
100
AcDbEntity
  8
0
100
AcDbLine
 10
166.5309999999999
 20
83.07590000000001
 30
0.0
 11
166.5309999999999
 21
83.55679999999999
 31
0.0
  0
LINE
  5
10D
330
18
100
AcDbEntity
  8
0
100
AcDbLine
 10
166.5309999999999
 20
83.55679999999999
 30
0.0
 11
166.5309999999999
 21
84.0385
 31
0.0
  0
LINE
  5
10E
330
18
100
AcDbEntity
  8
0
100
AcDbLine
 10
166.5309999999999
 20
84.0385
 30
0.0
 11
166.5309999999999
 21
86.1738
 31
0.0
  0
LINE
  5
10F
330
18
100
AcDbEntity
  8
0
100
AcDbLine
 10
166.5309999999999
 20
86.1738
 30
0.0
 11
166.5309999999999
 21
89.96199999999999
 31
0.0
  0
LINE
  5
110
330
18
100
AcDbEntity
  8
0
100
AcDbLine
 10
166.5309999999999
 20
89.96199999999999
 30
0.0
 11
166.5309999999999
 21
93.7509
 31
0.0
  0
LINE
  5
111
330
18
100
AcDbEntity
  8
0
100
AcDbLine
 10
166.5309999999999
 20
93.7509
 30
0.0
 11
166.5309999999999
 21
97.53440000000001
 31
0.0
  0
LINE
  5
112
330
18
100
AcDbEntity
  8
0
100
AcDbLine
 10
166.5309999999999
 20
97.53440000000001
 30
0.0
 11
166.5309999999999
 21
101.312
 31
0.0
  0
LINE
  5
113
330
18
100
AcDbEntity
  8
0
100
AcDbLine
 10
166.5309999999999
 20
101.312
 30
0.0
 11
166.5309999999999
 21
105.089
 31
0.0
  0
LINE
  5
114
330
18
100
AcDbEntity
  8
0
100
AcDbLine
 10
166.5309999999999
 20
105.089
 30
0.0
 11
166.5309999999999
 21
107.9239999999999
 31
0.0
  0
LINE
  5
115
330
18
100
AcDbEntity
  8
0
100
AcDbLine
 10
166.5309999999999
 20
107.9239999999999
 30
0.0
 11
166.5309999999999
 21
109.82
 31
0.0
  0
LINE
  5
116
330
18
100
AcDbEntity
  8
0
100
AcDbLine
 10
166.5309999999999
 20
109.82
 30
0.0
 11
166.5309999999999
 21
111.7179999999999
 31
0.0
  0
LINE
  5
117
330
18
100
AcDbEntity
  8
0
100
AcDbLine
 10
166.5309999999999
 20
111.7179999999999
 30
0.0
 11
166.5309999999999
 21
113.1289999999999
 31
0.0
  0
LINE
  5
118
330
18
100
AcDbEntity
  8
0
100
AcDbLine
 10
166.5309999999999
 20
113.1289999999999
 30
0.0
 11
166.5309999999999
 21
114.054
 31
0.0
  0
LINE
  5
119
330
18
100
AcDbEntity
  8
0
100
AcDbLine
 10
166.5309999999999
 20
114.054
 30
0.0
 11
166.5309999999999
 21
114.978
 31
0.0
  0
LINE
  5
11A
330
18
100
AcDbEntity
  8
0
100
AcDbLine
 10
166.5309999999999
 20
114.978
 30
0.0
 11
166.5309999999999
 21
115.842
 31
0.0
  0
ARC
  5
11B
330
18
100
AcDbEntity
  8
0
100
AcDbCircle
 10
213.859118
 20
115.8479739999999
 30
0.0
 40
47.32766199999999
100
AcDbArc
 50
179.0724299999999
 51
180.007586
  0
ARC
  5
11C
330
18
100
AcDbEntity
  8
0
100
AcDbCircle
 10
165.131212
 20
116.6352779999999
 30
0.0
 40
1.406604999999999
100
AcDbArc
 50
359.1380689999999
 51
30.375583
  0
ARC
  5
11D
330
18
100
AcDbEntity
  8
0
100
AcDbCircle
 10
-91.21523899999999
 20
-24.390605
 30
0.0
 40
293.983944
100
AcDbArc
 50
28.82431099999999
 51
28.94884699999999
  0
ARC
  5
11E
330
18
100
AcDbEntity
  8
0
100
AcDbCircle
 10
164.335055
 20
116.966404
 30
0.0
 40
1.943267999999999
100
AcDbArc
 50
28.916383
 51
42.09723499999999
  0
ARC
  5
11F
330
18
100
AcDbEntity
  8
0
100
AcDbCircle
 10
174.079074
 20
125.783299
 30
0.0
 40
11.19764399999999
100
AcDbArc
 50
219.8586769999999
 51
222.1479459999999
  0
ARC
  5
120
330
18
100
AcDbEntity
  8
0
100
AcDbCircle
 10
406.657688
 20
320.875579
 30
0.0
 40
314.766074
100
AcDbArc
 50
219.898496
 51
219.9860149999999
  0
ARC
  5
121
330
18
100
AcDbEntity
  8
0
100
AcDbCircle
 10
175.693296
 20
127.817662
 30
0.0
 40
13.74136
100
AcDbArc
 50
217.9189339999999
 51
220.051658
  0
ARC
  5
122
330
18
100
AcDbEntity
  8
0
100
AcDbCircle
 10
174.9822909999999
 20
127.263338
 30
0.0
 40
12.83980399999999
100
AcDbArc
 50
215.6370379999999
 51
217.917365
  0
ARC
  5
123
330
18
100
AcDbEntity
  8
0
100
AcDbCircle
 10
343.983871
 20
248.992548
 30
0.0
 40
221.117316
100
AcDbArc
 50
215.5627529999999
 51
215.7572259999999
  0
ARC
  5
124
330
18
100
AcDbEntity
  8
0
100
AcDbCircle
 10
175.503197
 20
128.5635129999999
 30
0.0
 40
14.021003
100
AcDbArc
 50
211.599583
 51
215.6479299999999
  0
ARC
  5
125
330
18
100
AcDbEntity
  8
0
100
AcDbCircle
 10
174.8477179999999
 20
128.187762
 30
0.0
 40
13.265845
100
AcDbArc
 50
207.4231169999999
 51
211.7007309999999
  0
ARC
  5
126
330
18
100
AcDbEntity
  8
0
100
AcDbCircle
 10
-719.616615
 20
-335.782549
 30
0.0
 40
994.3724289999998
100
AcDbArc
 50
27.416265
 51
27.502708
  0
ARC
  5
127
330
18
100
AcDbEntity
  8
0
100
AcDbCircle
 10
174.674319
 20
129.8064629999999
 30
0.0
 40
13.85839899999999
100
AcDbArc
 50
199.1424389999999
 51
207.491153
  0
ARC
  5
128
330
18
100
AcDbEntity
  8
0
100
AcDbCircle
 10
169.819099
 20
128.1259969999999
 30
0.0
 40
8.720589
100
AcDbArc
 50
195.429951
 51
199.1724279999999
  0
ARC
  5
129
330
18
100
AcDbEntity
  8
0
100
AcDbCircle
 10
180.426725
 20
131.1140909999999
 30
0.0
 40
19.74097699999999
100
AcDbArc
 50
192.4446649999999
 51
195.5986689999999
  0
ARC
  5
12A
330
18
100
AcDbEntity
  8
0
100
AcDbCircle
 10
200.8489079999999
 20
135.684412
 30
0.0
 40
40.668268
100
AcDbArc
 50
190.6048649999999
 51
192.532062
  0
ARC
  5
12B
330
18
100
AcDbEntity
  8
0
100
AcDbCircle
 10
122.4538719999999
 20
136.332132
 30
0.0
 40
38.211645
100
AcDbArc
 50
357.028034
 51
0.264142
  0
ARC
  5
12C
330
18
100
AcDbEntity
  8
0
100
AcDbCircle
 10
180.793636
 20
132.7604039999999
 30
0.0
 40
20.242101
100
AcDbArc
 50
175.493224
 51
179.5681379999999
  0
ARC
  5
12D
330
18
100
AcDbEntity
  8
0
100
AcDbCircle
 10
-2547.458736999999
 20
151.099835
 30
0.0
 40
2708.071918
100
AcDbArc
 50
359.592031
 51
359.6152099999999
  0
ARC
  5
12E
330
18
100
AcDbEntity
  8
0
100
AcDbCircle
 10
227.4074829999999
 20
131.4412139999999
 30
0.0
 40
66.86400899999999
100
AcDbArc
 50
179.6776069999999
 51
180.322393
  0
ARC
  5
12F
330
18
100
AcDbEntity
  8
0
100
AcDbCircle
 10
-80.205538
 20
129.1455159999999
 30
0.0
 40
240.7577209999999
100
AcDbArc
 50
0.277744
 51
0.4568080000000001
  0
LINE
  5
130
330
18
100
AcDbEntity
  8
0
100
AcDbLine
 10
160.549
 20
130.3129999999999
 30
0.0
 11
160.5529999999999
 21
129.566
 31
0.0
  0
ARC
  5
131
330
18
100
AcDbEntity
  8
0
100
AcDbCircle
 10
173.7797739999999
 20
129.680477
 30
0.0
 40
13.226778
100
AcDbArc
 50
180.4942649999999
 51
183.732327
  0
ARC
  5
132
330
18
100
AcDbEntity
  8
0
100
AcDbCircle
 10
157.2342229999999
 20
128.601157
 30
0.0
 40
3.35394
100
AcDbArc
 50
357.761525
 51
3.732279999999999
  0
ARC
  5
133
330
18
100
AcDbEntity
  8
0
100
AcDbCircle
 10
150.045175
 20
128.8059179999999
 30
0.0
 40
10.545775
100
AcDbArc
 50
354.0170629999999
 51
358.17548
  0
ARC
  5
134
330
18
100
AcDbEntity
  8
0
100
AcDbCircle
 10
45.796719
 20
138.3980409999999
 30
0.0
 40
114.9880479999999
100
AcDbArc
 50
2.357016999999999
 51
3.358721
  0
ARC
  5
135
330
18
100
AcDbEntity
  8
0
100
AcDbCircle
 10
112.579007
 20
141.0894749999999
 30
0.0
 40
48.151605
100
AcDbArc
 50
359.683689
 51
2.425244999999999
  0
ARC
  5
136
330
18
100
AcDbEntity
  8
0
100
AcDbCircle
 10
-830.3209719999999
 20
153.53995
 30
0.0
 40
991.1324300000002
100
AcDbArc
 50
359.015379
 51
359.2648709999999
  0
ARC
  5
137
330
18
100
AcDbEntity
  8
0
100
AcDbCircle
 10
97.328536
 20
133.199653
 30
0.0
 40
63.44321
100
AcDbArc
 50
353.6599779999999
 51
355.0330839999999
  0
ARC
  5
138
330
18
100
AcDbEntity
  8
0
100
AcDbCircle
 10
135.850471
 20
128.8461719999999
 30
0.0
 40
24.676231
100
AcDbArc
 50
348.7501599999999
 51
353.829319
  0
ARC
  5
139
330
18
100
AcDbEntity
  8
0
100
AcDbCircle
 10
153.193677
 20
125.539061
 30
0.0
 40
7.022477999999999
100
AcDbArc
 50
343.463397
 51
347.608838
  0
ARC
  5
13A
330
18
100
AcDbEntity
  8
0
100
AcDbCircle
 10
147.289782
 20
127.261561
 30
0.0
 40
13.17247999999999
100
AcDbArc
 50
339.7027249999999
 51
343.590229
  0
ARC
  5
13B
330
18
100
AcDbEntity
  8
0
100
AcDbCircle
 10
133.5680129999999
 20
132.34679
 30
0.0
 40
27.806223
100
AcDbArc
 50
334.932452
 51
339.6831419999999
  0
ARC
  5
13C
330
18
100
AcDbEntity
  8
0
100
AcDbCircle
 10
162.379952
 20
127.322955
 30
0.0
 40
1.883699999999999
100
AcDbArc
 50
160.9047229999999
 51
168.908074
  0
ARC
  5
13D
330
18
100
AcDbEntity
  8
0
100
AcDbCircle
 10
161.2545179999999
 20
127.715997
 30
0.0
 40
0.69162
100
AcDbArc
 50
142.563361
 51
161.173199
  0
ARC
  5
13E
330
18
100
AcDbEntity
  8
0
100
AcDbCircle
 10
160.941603
 20
127.953458
 30
0.0
 40
0.298813
100
AcDbArc
 50
114.4185699999999
 51
142.24401
  0
ARC
  5
13F
330
18
100
AcDbEntity
  8
0
100
AcDbCircle
 10
161.3147919999999
 20
127.07664
 30
0.0
 40
1.251679999999999
100
AcDbArc
 50
94.321982
 51
113.380833
  0
ARC
  5
140
330
18
100
AcDbEntity
  8
0
100
AcDbCircle
 10
171.5347509999999
 20
-16.43620899999999
 30
0.0
 40
145.127954
100
AcDbArc
 50
93.91538699999999
 51
94.07545400000001
  0
LINE
  5
141
330
18
100
AcDbEntity
  8
0
100
AcDbLine
 10
161.6249999999999
 20
128.3529999999999
 30
0.0
 11
162.02
 21
128.381
 31
0.0
  0
ARC
  5
142
330
18
100
AcDbEntity
  8
0
100
AcDbCircle
 10
145.1326309999999
 20
374.706227
 30
0.0
 40
246.903879
100
AcDbArc
 50
273.922002
 51
274.0598439999999
  0
ARC
  5
143
330
18
100
AcDbEntity
  8
0
100
AcDbCircle
 10
151.7738779999999
 20
193.396863
 30
0.0
 40
0.775917
100
AcDbArc
 50
359.84458
 51
12.732547
  0
ARC
  5
144
330
18
100
AcDbEntity
  8
0
100
AcDbCircle
 10
152.2476049999999
 20
193.503082
 30
0.0
 40
0.29043
100
AcDbArc
 50
12.890787
 51
42.13569999999999
  0
ARC
  5
145
330
18
100
AcDbEntity
  8
0
100
AcDbCircle
 10
152.2925379999999
 20
193.5296209999999
 30
0.0
 40
0.239533
100
AcDbArc
 50
44.639726
 51
68.69976199999999
  0
ARC
  5
146
330
18
100
AcDbEntity
  8
0
100
AcDbCircle
 10
152.171321
 20
193.216005
 30
0.0
 40
0.57576
100
AcDbArc
 50
68.79783499999999
 51
91.21460500000001
  0
ARC
  5
147
330
18
100
AcDbEntity
  8
0
100
AcDbCircle
 10
145.169631
 20
151.085573
 30
0.0
 40
37.489942
100
AcDbArc
 50
77.716149
 51
78.64676
  0
ARC
  5
148
330
18
100
AcDbEntity
  8
0
100
AcDbCircle
 10
146.5962419999999
 20
158.499212
 30
0.0
 40
29.943076
100
AcDbArc
 50
76.58720600000001
 51
77.36533100000001
  0
ARC
  5
149
330
18
100
AcDbEntity
  8
0
100
AcDbCircle
 10
824.431211
 20
3037.479452999999
 30
0.0
 40
2927.756741
100
AcDbArc
 50
256.7531029999999
 51
256.7999069999999
  0
ARC
  5
14A
330
18
100
AcDbEntity
  8
0
100
AcDbCircle
 10
147.9377899999999
 20
153.305171
 30
0.0
 40
34.69235499999999
100
AcDbArc
 50
69.54787500000001
 51
76.78238799999999
  0
ARC
  5
14B
330
18
100
AcDbEntity
  8
0
100
AcDbCircle
 10
147.9116329999999
 20
153.226094
 30
0.0
 40
34.775587
100
AcDbArc
 50
62.33520600000001
 51
69.553021
  0
ARC
  5
14C
330
18
100
AcDbEntity
  8
0
100
AcDbCircle
 10
-454.581407
 20
-995.212266
 30
0.0
 40
1331.659747
100
AcDbArc
 50
62.21595600000001
 51
62.318077
  0
ARC
  5
14D
330
18
100
AcDbEntity
  8
0
100
AcDbCircle
 10
165.829171
 20
182.3125
 30
0.0
 40
0.692526
100
AcDbArc
 50
30.360493
 51
61.586617
  0
ARC
  5
14E
330
18
100
AcDbEntity
  8
0
100
AcDbCircle
 10
165.8239919999999
 20
182.291842
 30
0.0
 40
0.707598
100
AcDbArc
 50
1.115262999999999
 51
31.59194
  0
LINE
  5
14F
330
18
100
AcDbEntity
  8
0
100
AcDbLine
 10
166.5309999999999
 20
182.3059999999999
 30
0.0
 11
166.5309999999999
 21
182.12
 31
0.0
  0
LINE
  5
150
330
18
100
AcDbEntity
  8
0
100
AcDbLine
 10
166.5309999999999
 20
182.12
 30
0.0
 11
166.5309999999999
 21
164.939
 31
0.0
  0
LINE
  5
151
330
18
100
AcDbEntity
  8
0
100
AcDbLine
 10
166.5309999999999
 20
164.939
 30
0.0
 11
166.5309999999999
 21
147.759
 31
0.0
  0
LINE
  5
152
330
18
100
AcDbEntity
  8
0
100
AcDbLine
 10
166.5309999999999
 20
147.759
 30
0.0
 11
166.5309999999999
 21
147.3909999999999
 31
0.0
  0
ARC
  5
153
330
18
100
AcDbEntity
  8
0
100
AcDbCircle
 10
164.531707
 20
147.3918429999999
 30
0.0
 40
1.999749999999999
100
AcDbArc
 50
338.7136919999999
 51
359.9680890000001
  0
ARC
  5
154
330
18
100
AcDbEntity
  8
0
100
AcDbCircle
 10
164.4441239999999
 20
147.4121899999999
 30
0.0
 40
2.088783999999999
100
AcDbArc
 50
318.641051
 51
339.065804
  0
ARC
  5
155
330
18
100
AcDbEntity
  8
0
100
AcDbCircle
 10
345.7212359999999
 20
-14.305476
 30
0.0
 40
240.839224
100
AcDbArc
 50
138.2604979999999
 51
138.3489669999999
  0
ARC
  5
156
330
18
100
AcDbEntity
  8
0
100
AcDbCircle
 10
164.0038389999999
 20
147.3975219999999
 30
0.0
 40
2.408395999999999
100
AcDbArc
 50
316.119142
 51
316.977183
  0
ARC
  5
157
330
18
100
AcDbEntity
  8
0
100
AcDbCircle
 10
190.889562
 20
122.488037
 30
0.0
 40
34.243443
100
AcDbArc
 50
137.26
 51
137.321189
  0
LINE
  5
158
330
18
100
AcDbEntity
  8
0
100
AcDbLine
 10
165.715
 20
145.7009999999999
 30
0.0
 11
164.489
 21
144.32
 31
0.0
  0
ARC
  5
159
330
18
100
AcDbEntity
  8
0
100
AcDbCircle
 10
174.784651
 20
135.184115
 30
0.0
 40
13.76528699999999
100
AcDbArc
 50
138.415617
 51
153.830568
  0
ARC
  5
15A
330
18
100
AcDbEntity
  8
0
100
AcDbCircle
 10
169.816991
 20
137.606912
 30
0.0
 40
8.238341
100
AcDbArc
 50
153.716334
 51
157.6282909999999
  0
ARC
  5
15B
330
18
100
AcDbEntity
  8
0
100
AcDbCircle
 10
174.1980929999999
 20
135.785834
 30
0.0
 40
12.982833
100
AcDbArc
 50
157.5554479999999
 51
161.508184
  0
ARC
  5
15C
330
18
100
AcDbEntity
  8
0
100
AcDbCircle
 10
181.2015409999999
 20
133.4271949999999
 30
0.0
 40
20.372779
100
AcDbArc
 50
161.464355
 51
164.6173189999999
  0
ARC
  5
15D
330
18
100
AcDbEntity
  8
0
100
AcDbCircle
 10
195.951331
 20
129.4084159999999
 30
0.0
 40
35.660228
100
AcDbArc
 50
164.678028
 51
169.438378
  0
ARC
  5
15E
330
18
100
AcDbEntity
  8
0
100
AcDbCircle
 10
-75.21225300000001
 20
-2613.596434
 30
0.0
 40
2790.557574999999
100
AcDbArc
 50
85.033399
 51
85.087784
  0
LINE
  5
15F
330
18
100
AcDbEntity
  8
0
100
AcDbLine
 10
163.741
 20
166.712
 30
0.0
 11
161.1029999999999
 21
166.9399999999999
 31
0.0
  0
ARC
  5
160
330
18
100
AcDbEntity
  8
0
100
AcDbCircle
 10
172.3984909999999
 20
261.945956
 30
0.0
 40
95.67541199999999
100
AcDbArc
 50
263.0504579999999
 51
263.2196099999999
  0
ARC
  5
161
330
18
100
AcDbEntity
  8
0
100
AcDbCircle
 10
160.859471
 20
167.263933
 30
0.0
 40
0.292849
100
AcDbArc
 50
213.4641349999999
 51
262.689706
  0
ARC
  5
162
330
18
100
AcDbEntity
  8
0
100
AcDbCircle
 10
161.161098
 20
167.4887189999999
 30
0.0
 40
0.668762
100
AcDbArc
 50
197.8438379999999
 51
215.2808559999999
  0
ARC
  5
163
330
18
100
AcDbEntity
  8
0
100
AcDbCircle
 10
162.002359
 20
167.768236
 30
0.0
 40
1.555227
100
AcDbArc
 50
187.701272
 51
198.149232
  0
ARC
  5
164
330
18
100
AcDbEntity
  8
0
100
AcDbCircle
 10
110.19763
 20
160.126805
 30
0.0
 40
50.810158
100
AcDbArc
 50
8.411988
 51
9.276164000000001
  0
ARC
  5
165
330
18
100
AcDbEntity
  8
0
100
AcDbCircle
 10
1266.232569
 20
363.525324
 30
0.0
 40
1122.985867999999
100
AcDbArc
 50
189.981414
 51
190.010578
  0
ARC
  5
166
330
18
100
AcDbEntity
  8
0
100
AcDbCircle
 10
165.2144589999999
 20
169.755107
 30
0.0
 40
5.046793
100
AcDbArc
 50
181.6279149999999
 51
189.985578
  0
ARC
  5
167
330
18
100
AcDbEntity
  8
0
100
AcDbCircle
 10
166.6484399999999
 20
169.791931
 30
0.0
 40
6.481241999999999
100
AcDbArc
 50
175.081579
 51
181.593196
  0
ARC
  5
168
330
18
100
AcDbEntity
  8
0
100
AcDbCircle
 10
78.02741800000001
 20
177.835057
 30
0.0
 40
82.50409899999999
100
AcDbArc
 50
354.793108
 51
355.210512
  0
ARC
  5
169
330
18
100
AcDbEntity
  8
0
100
AcDbCircle
 10
224.304839
 20
165.615327
 30
0.0
 40
64.282847
100
AcDbArc
 50
174.817565
 51
175.2429149999999
  0
ARC
  5
16A
330
18
100
AcDbEntity
  8
0
100
AcDbCircle
 10
101.5892
 20
176.765273
 30
0.0
 40
58.93829499999999
100
AcDbArc
 50
354.798299
 51
355.262221
  0
ARC
  5
16B
330
18
100
AcDbEntity
  8
0
100
AcDbCircle
 10
194.467544
 20
169.057429
 30
0.0
 40
34.259333
100
AcDbArc
 50
174.582309
 51
175.245209
  0
ARC
  5
16C
330
18
100
AcDbEntity
  8
0
100
AcDbCircle
 10
-146.077977
 20
202.4297799999999
 30
0.0
 40
307.917658
100
AcDbArc
 50
354.383128
 51
354.442386
  0
ARC
  5
16D
330
18
100
AcDbEntity
  8
0
100
AcDbCircle
 10
178.885375
 20
170.678962
 30
0.0
 40
18.59355799999999
100
AcDbArc
 50
173.05899
 51
174.041902
  0
ARC
  5
16E
330
18
100
AcDbEntity
  8
0
100
AcDbCircle
 10
-35.10034799999999
 20
198.414272
 30
0.0
 40
197.182717
100
AcDbArc
 50
352.5730229999999
 51
352.7819449999999
  0
ARC
  5
16F
330
18
100
AcDbEntity
  8
0
100
AcDbCircle
 10
180.109187
 20
171.117036
 30
0.0
 40
19.75114299999999
100
AcDbArc
 50
169.405529
 51
172.6638
  0
ARC
  5
170
330
18
100
AcDbEntity
  8
0
100
AcDbCircle
 10
169.4100169999999
 20
173.107085
 30
0.0
 40
8.868484
100
AcDbArc
 50
162.080886
 51
169.334567
  0
ARC
  5
171
330
18
100
AcDbEntity
  8
0
100
AcDbCircle
 10
-175.3740459999999
 20
285.556014
 30
0.0
 40
353.7895259999999
100
AcDbArc
 50
341.933008
 51
342.0677009999999
  0
ARC
  5
172
330
18
100
AcDbEntity
  8
0
100
AcDbCircle
 10
171.477012
 20
173.267345
 30
0.0
 40
10.78482299999999
100
AcDbArc
 50
158.9481669999999
 51
161.851081
  0
ARC
  5
173
330
18
100
AcDbEntity
  8
0
100
AcDbCircle
 10
164.55058
 20
175.93808
 30
0.0
 40
3.361331999999999
100
AcDbArc
 50
149.725783
 51
159.023525
  0
ARC
  5
174
330
18
100
AcDbEntity
  8
0
100
AcDbCircle
 10
-29.868505
 20
289.783887
 30
0.0
 40
221.937691
100
AcDbArc
 50
329.646905
 51
329.7668019999999
  0
ARC
  5
175
330
18
100
AcDbEntity
  8
0
100
AcDbCircle
 10
168.4405499999999
 20
174.175747
 30
0.0
 40
7.609146
100
AcDbArc
 50
146.207895
 51
149.535036
  0
ARC
  5
176
330
18
100
AcDbEntity
  8
0
100
AcDbCircle
 10
162.6903209999999
 20
178.0268739999999
 30
0.0
 40
0.6884350000000001
100
AcDbArc
 50
110.3371499999999
 51
146.4038439999999
  0
ARC
  5
177
330
18
100
AcDbEntity
  8
0
100
AcDbCircle
 10
148.3176499999999
 20
227.7365419999999
 30
0.0
 40
51.059219
100
AcDbArc
 50
286.0695729999999
 51
287.027818
  0
ARC
  5
178
330
18
100
AcDbEntity
  8
0
100
AcDbCircle
 10
193.915602
 20
76.817624
 30
0.0
 40
106.598203
100
AcDbArc
 50
106.009546
 51
106.70777
  0
ARC
  5
179
330
18
100
AcDbEntity
  8
0
100
AcDbCircle
 10
207.349139
 20
29.384158
 30
0.0
 40
155.897026
100
AcDbArc
 50
105.2310919999999
 51
105.947246
  0
ARC
  5
17A
330
18
100
AcDbEntity
  8
0
100
AcDbCircle
 10
-0.172313
 20
2055.819123999999
 30
0.0
 40
1899.871903
100
AcDbArc
 50
274.938647
 51
275.029297
  0
LINE
  5
17B
330
18
100
AcDbEntity
  8
0
100
AcDbLine
 10
163.3849999999999
 20
163.001
 30
0.0
 11
160.3909999999999
 21
162.739
 31
0.0
  0
ARC
  5
17C
330
18
100
AcDbEntity
  8
0
100
AcDbCircle
 10
158.577495
 20
186.584605
 30
0.0
 40
23.914042
100
AcDbArc
 50
273.961566
 51
274.34888
  0
ARC
  5
17D
330
18
100
AcDbEntity
  8
0
100
AcDbCircle
 10
160.251367
 20
162.475429
 30
0.0
 40
0.253206
100
AcDbArc
 50
94.92070000000001
 51
148.203161
  0
ARC
  5
17E
330
18
100
AcDbEntity
  8
0
100
AcDbCircle
 10
160.539556
 20
162.254743
 30
0.0
 40
0.615463
100
AcDbArc
 50
144.8762209999999
 51
156.762572
  0
ARC
  5
17F
330
18
100
AcDbEntity
  8
0
100
AcDbCircle
 10
173.7829909999999
 20
156.540052
 30
0.0
 40
15.039271
100
AcDbArc
 50
156.663473
 51
158.096762
  0
ARC
  5
180
330
18
100
AcDbEntity
  8
0
100
AcDbCircle
 10
118.4799189999999
 20
178.0338129999999
 30
0.0
 40
44.29513899999999
100
AcDbArc
 50
338.427179
 51
338.9867639999999
  0
ARC
  5
181
330
18
100
AcDbEntity
  8
0
100
AcDbCircle
 10
162.103775
 20
160.793203
 30
0.0
 40
2.612006
100
AcDbArc
 50
158.5773839999999
 51
171.6792179999999
  0
ARC
  5
182
330
18
100
AcDbEntity
  8
0
100
AcDbCircle
 10
166.306276
 20
160.146479
 30
0.0
 40
6.863932000000001
100
AcDbArc
 50
171.4141709999999
 51
176.401724
  0
ARC
  5
183
330
18
100
AcDbEntity
  8
0
100
AcDbCircle
 10
-40.08337199999999
 20
172.654291
 30
0.0
 40
199.904391
100
AcDbArc
 50
356.102639
 51
356.536422
  0
ARC
  5
184
330
18
100
AcDbEntity
  8
0
100
AcDbCircle
 10
464.887694
 20
139.1954389999999
 30
0.0
 40
306.174507
100
AcDbArc
 50
176.278727
 51
176.7358959999999
  0
ARC
  5
185
330
18
100
AcDbEntity
  8
0
100
AcDbCircle
 10
552.3880769999999
 20
134.652466
 30
0.0
 40
393.79186
100
AcDbArc
 50
176.8008629999999
 51
177.1565479999999
  0
ARC
  5
186
330
18
100
AcDbEntity
  8
0
100
AcDbCircle
 10
270.907231
 20
148.671871
 30
0.0
 40
111.9621149999999
100
AcDbArc
 50
177.1763799999999
 51
178.007148
  0
ARC
  5
187
330
18
100
AcDbEntity
  8
0
100
AcDbCircle
 10
169.499334
 20
152.3518639999999
 30
0.0
 40
10.488674
100
AcDbArc
 50
178.834003
 51
183.1604259999999
  0
ARC
  5
188
330
18
100
AcDbEntity
  8
0
100
AcDbCircle
 10
162.776001
 20
151.982758
 30
0.0
 40
3.755217
100
AcDbArc
 50
183.1928109999999
 51
195.2719299999999
  0
ARC
  5
189
330
18
100
AcDbEntity
  8
0
100
AcDbCircle
 10
-105.3561129999999
 20
79.33939599999999
 30
0.0
 40
274.043078
100
AcDbArc
 50
15.03454699999999
 51
15.157345
  0
ARC
  5
18A
330
18
100
AcDbEntity
  8
0
100
AcDbCircle
 10
166.332084
 20
152.312957
 30
0.0
 40
7.274567
100
AcDbArc
 50
195.029325
 51
199.198109
  0
ARC
  5
18B
330
18
100
AcDbEntity
  8
0
100
AcDbCircle
 10
160.367031
 20
150.220441
 30
0.0
 40
0.9532649999999998
100
AcDbArc
 50
198.3189679999999
 51
209.928262
  0
ARC
  5
18C
330
18
100
AcDbEntity
  8
0
100
AcDbCircle
 10
159.864486
 20
149.9275879999999
 30
0.0
 40
0.371638
100
AcDbArc
 50
209.4543889999999
 51
258.120689
  0
LINE
  5
18D
330
18
100
AcDbEntity
  8
0
100
AcDbLine
 10
159.7879999999999
 20
149.5639999999999
 30
0.0
 11
160.0049999999999
 21
149.535
 31
0.0
  0
LINE
  5
18E
330
18
100
AcDbEntity
  8
0
100
AcDbLine
 10
160.0049999999999
 20
149.535
 30
0.0
 11
163.1989999999999
 21
149.2589999999999
 31
0.0
  0
LINE
  5
18F
330
18
100
AcDbEntity
  8
0
100
AcDbLine
 10
163.1989999999999
 20
149.2589999999999
 30
0.0
 11
166.393
 21
148.9819999999999
 31
0.0
  0
ARC
  5
190
330
18
100
AcDbEntity
  8
0
100
AcDbCircle
 10
158.379708
 20
109.4301629999999
 30
0.0
 40
10.64229499999999
100
AcDbArc
 50
40.858306
 51
41.66267799999999
  0
ARC
  5
191
330
18
100
AcDbEntity
  8
0
100
AcDbCircle
 10
167.73336
 20
117.5275409999999
 30
0.0
 40
1.729386
100
AcDbArc
 50
221.031135
 51
225.97372
  0
ARC
  5
192
330
18
100
AcDbEntity
  8
0
100
AcDbCircle
 10
177.794137
 20
96.44729300000001
 30
0.0
 40
52.363255
100
AcDbArc
 50
102.6461699999999
 51
104.141104
  0
ARC
  5
193
330
18
100
AcDbEntity
  8
0
100
AcDbCircle
 10
169.3833559999999
 20
129.656057
 30
0.0
 40
18.10602199999999
100
AcDbArc
 50
104.006156
 51
108.0269469999999
  0
ARC
  5
194
330
18
100
AcDbEntity
  8
0
100
AcDbCircle
 10
148.7039659999999
 20
191.6767679999999
 30
0.0
 40
47.272038
100
AcDbArc
 50
286.459978
 51
288.597915
  0
ARC
  5
195
330
18
100
AcDbEntity
  8
0
100
AcDbCircle
 10
28.438036
 20
598.3058509999999
 30
0.0
 40
471.313432
100
AcDbArc
 50
286.353713
 51
286.474652
  0
ARC
  5
196
330
18
100
AcDbEntity
  8
0
100
AcDbCircle
 10
169.9306479999999
 20
115.5620659999999
 30
0.0
 40
31.739332
100
AcDbArc
 50
106.0715899999999
 51
106.501805
  0
ARC
  5
197
330
18
100
AcDbEntity
  8
0
100
AcDbCircle
 10
156.1668309999999
 20
161.8214209999999
 30
0.0
 40
16.524285
100
AcDbArc
 50
285.8735430000001
 51
286.699891
  0
ARC
  5
198
330
18
100
AcDbEntity
  8
0
100
AcDbCircle
 10
144.439657
 20
202.235909
 30
0.0
 40
58.60567099999999
100
AcDbArc
 50
285.9774649999999
 51
286.094515
  0
ARC
  5
199
330
18
100
AcDbEntity
  8
0
100
AcDbCircle
 10
133.987135
 20
236.4846299999999
 30
0.0
 40
94.410564
100
AcDbArc
 50
286.042849
 51
286.354625
  0
ARC
  5
19A
330
18
100
AcDbEntity
  8
0
100
AcDbCircle
 10
42.143079
 20
550.233955
 30
0.0
 40
421.325574
100
AcDbArc
 50
286.1853159999999
 51
286.255088
  0
ARC
  5
19B
330
18
100
AcDbEntity
  8
0
100
AcDbCircle
 10
284.655345
 20
-190.789859
 30
0.0
 40
358.8951049999999
100
AcDbArc
 50
110.39473
 51
110.425011
  0
ARC
  5
19C
330
18
100
AcDbEntity
  8
0
100
AcDbCircle
 10
159.5662179999999
 20
145.129378
 30
0.0
 40
0.441475
100
AcDbArc
 50
111.0506889999999
 51
163.127498
  0
ARC
  5
19D
330
18
100
AcDbEntity
  8
0
100
AcDbCircle
 10
170.278368
 20
140.825834
 30
0.0
 40
11.98413799999999
100
AcDbArc
 50
158.296985
 51
160.251862
  0
ARC
  5
19E
330
18
100
AcDbEntity
  8
0
100
AcDbCircle
 10
238.2978519999999
 20
116.929634
 30
0.0
 40
84.078826
100
AcDbArc
 50
160.5871559999999
 51
160.92335
  0
ARC
  5
19F
330
18
100
AcDbEntity
  8
0
100
AcDbCircle
 10
161.4796459999999
 20
143.487197
 30
0.0
 40
2.799436
100
AcDbArc
 50
160.767762
 51
173.934436
  0
ARC
  5
1A0
330
18
100
AcDbEntity
  8
0
100
AcDbCircle
 10
168.2636239999999
 20
142.7827629999999
 30
0.0
 40
9.619883999999998
100
AcDbArc
 50
174.0317959999999
 51
177.866836
  0
ARC
  5
1A1
330
18
100
AcDbEntity
  8
0
100
AcDbCircle
 10
307.719632
 20
137.935784
 30
0.0
 40
149.16007
100
AcDbArc
 50
178.0001969999999
 51
178.9263949999999
  0
ARC
  5
1A2
330
18
100
AcDbEntity
  8
0
100
AcDbCircle
 10
1928.525893
 20
94.546533
 30
0.0
 40
1770.542597
100
AcDbArc
 50
178.50527
 51
178.5540689999999
  0
ARC
  5
1A3
330
18
100
AcDbEntity
  8
0
100
AcDbCircle
 10
439.3667129999999
 20
131.9944879999999
 30
0.0
 40
280.9126799999999
100
AcDbArc
 50
178.52546
 51
179.994497
  0
ARC
  5
1A4
330
18
100
AcDbEntity
  8
0
100
AcDbCircle
 10
439.166474
 20
132.047053
 30
0.0
 40
280.712441
100
AcDbArc
 50
180.005261
 51
181.475065
  0
ARC
  5
1A5
330
18
100
AcDbEntity
  8
0
100
AcDbCircle
 10
2491.628543
 20
184.397705
 30
0.0
 40
2333.842028999999
100
AcDbArc
 50
181.4627839999999
 51
181.5590159999999
  0
ARC
  5
1A6
330
18
100
AcDbEntity
  8
0
100
AcDbCircle
 10
165.708256
 20
121.128561
 30
0.0
 40
7.061466
100
AcDbArc
 50
181.8337449999999
 51
187.039243
  0
ARC
  5
1A7
330
18
100
AcDbEntity
  8
0
100
AcDbCircle
 10
161.849121
 20
120.639879
 30
0.0
 40
3.171555
100
AcDbArc
 50
186.821248
 51
198.4102509999999
  0
ARC
  5
1A8
330
18
100
AcDbEntity
  8
0
100
AcDbCircle
 10
357.4092409999999
 20
185.6697409999999
 30
0.0
 40
209.2604759999999
100
AcDbArc
 50
198.393852
 51
198.527307
  0
ARC
  5
1A9
330
18
100
AcDbEntity
  8
0
100
AcDbCircle
 10
165.068985
 20
121.205602
 30
0.0
 40
6.404866999999999
100
AcDbArc
 50
198.4754949999999
 51
202.216721
  0
ARC
  5
1AA
330
18
100
AcDbEntity
  8
0
100
AcDbCircle
 10
159.649561
 20
118.9873189999999
 30
0.0
 40
0.549041
100
AcDbArc
 50
201.7516319999999
 51
244.016645
  0
ARC
  5
1AB
330
18
100
AcDbEntity
  8
0
100
AcDbCircle
 10
168.2067029999999
 20
146.618556
 30
0.0
 40
29.46867
100
AcDbArc
 50
252.629864
 51
254.128646
  0
ARC
  5
1AC
330
18
100
AcDbEntity
  8
0
100
AcDbCircle
 10
15.26978699999999
 20
-376.3884529999999
 30
0.0
 40
515.4413969999999
100
AcDbArc
 50
73.54530600000001
 51
73.675597
  0
ARC
  5
1AD
330
18
100
AcDbEntity
  8
0
100
AcDbCircle
 10
229.327102
 20
348.35329
 30
0.0
 40
240.251086
100
AcDbArc
 50
253.544785
 51
253.82438
  0
ARC
  5
1AE
330
18
100
AcDbEntity
  8
0
100
AcDbCircle
 10
274.9851169999999
 20
503.612427
 30
0.0
 40
402.08384
100
AcDbArc
 50
253.7391649999999
 51
253.9054959999999
  0
ARC
  5
1AF
330
18
100
AcDbEntity
  8
0
100
AcDbCircle
 10
154.6453529999999
 20
86.780237
 30
0.0
 40
31.771887
100
AcDbArc
 50
71.67381899999999
 51
73.783221
  0
ARC
  5
1B0
330
18
100
AcDbEntity
  8
0
100
AcDbCircle
 10
167.1905399999999
 20
124.620385
 30
0.0
 40
8.093624
100
AcDbArc
 50
251.596047
 51
255.37803
  0
ARC
  5
1B1
330
18
100
AcDbEntity
  8
0
100
AcDbCircle
 10
171.751403
 20
141.6605279999999
 30
0.0
 40
25.733466
100
AcDbArc
 50
255.12972
 51
257.8386829999999
  0
ARC
  5
1B2
330
18
100
AcDbEntity
  8
0
100
AcDbCircle
 10
168.064434
 20
146.219223
 30
0.0
 40
2.172536
100
AcDbArc
 50
134.879377
 51
138.8397909999999
  0
ARC
  5
1B3
330
18
100
AcDbEntity
  8
0
100
AcDbCircle
 10
164.777561
 20
149.044561
 30
0.0
 40
2.161906
100
AcDbArc
 50
315.906824
 51
319.799008
  0
LINE
  5
1B4
330
18
100
AcDbEntity
  8
0
100
AcDbLine
 10
166.393
 20
115.062
 30
0.0
 11
163.1989999999999
 21
114.785
 31
0.0
  0
LINE
  5
1B5
330
18
100
AcDbEntity
  8
0
100
AcDbLine
 10
163.1989999999999
 20
114.785
 30
0.0
 11
160.0049999999999
 21
114.5079999999999
 31
0.0
  0
ARC
  5
1B6
330
18
100
AcDbEntity
  8
0
100
AcDbCircle
 10
113.437086
 20
511.1333559999999
 30
0.0
 40
399.3500029999999
100
AcDbArc
 50
276.663323
 51
276.6964669999999
  0
ARC
  5
1B7
330
18
100
AcDbEntity
  8
0
100
AcDbCircle
 10
159.81298
 20
114.178383
 30
0.0
 40
0.304822
100
AcDbArc
 50
97.04739699999999
 51
145.1440969999999
  0
ARC
  5
1B8
330
18
100
AcDbEntity
  8
0
100
AcDbCircle
 10
160.1582789999999
 20
113.9172999999999
 30
0.0
 40
0.737578
100
AcDbArc
 50
143.8312699999999
 51
165.9447019999999
  0
ARC
  5
1B9
330
18
100
AcDbEntity
  8
0
100
AcDbCircle
 10
211.2775049999999
 20
99.11963100000001
 30
0.0
 40
53.95500799999999
100
AcDbArc
 50
163.884196
 51
164.47738
  0
ARC
  5
1BA
330
18
100
AcDbEntity
  8
0
100
AcDbCircle
 10
295.520649
 20
76.04457099999999
 30
0.0
 40
141.301035
100
AcDbArc
 50
164.6037409999999
 51
164.838049
  0
ARC
  5
1BB
330
18
100
AcDbEntity
  8
0
100
AcDbCircle
 10
162.3806059999999
 20
112.113275
 30
0.0
 40
3.36185
100
AcDbArc
 50
164.67892
 51
177.859833
  0
ARC
  5
1BC
330
18
100
AcDbEntity
  8
0
100
AcDbCircle
 10
172.753532
 20
111.717384
 30
0.0
 40
13.742327
100
AcDbArc
 50
177.8254409999999
 51
181.052149
  0
ARC
  5
1BD
330
18
100
AcDbEntity
  8
0
100
AcDbCircle
 10
194.1476729999999
 20
112.132801
 30
0.0
 40
35.14049599999999
100
AcDbArc
 50
181.088843
 51
183.71573
  0
ARC
  5
1BE
330
18
100
AcDbEntity
  8
0
100
AcDbCircle
 10
489.521546
 20
126.087986
 30
0.0
 40
330.8389609999999
100
AcDbArc
 50
182.812346
 51
183.235355
  0
ARC
  5
1BF
330
18
100
AcDbEntity
  8
0
100
AcDbCircle
 10
467.416922
 20
125.0037419999999
 30
0.0
 40
308.7084209999999
100
AcDbArc
 50
183.26598
 51
183.7193969999999
  0
ARC
  5
1C0
330
18
100
AcDbEntity
  8
0
100
AcDbCircle
 10
-1568.889777999999
 20
-7.636779999999999
 30
0.0
 40
1731.913664999999
100
AcDbArc
 50
3.678072
 51
3.728187999999999
  0
ARC
  5
1C1
330
18
100
AcDbEntity
  8
0
100
AcDbCircle
 10
166.3566169999999
 20
103.90345
 30
0.0
 40
6.913896
100
AcDbArc
 50
183.6261719999999
 51
188.571977
  0
ARC
  5
1C2
330
18
100
AcDbEntity
  8
0
100
AcDbCircle
 10
162.2307629999999
 20
103.282577
 30
0.0
 40
2.741588
100
AcDbArc
 50
188.5934439999999
 51
201.0557809999999
  0
ARC
  5
1C3
330
18
100
AcDbEntity
  8
0
100
AcDbCircle
 10
-699.004215
 20
-233.24286
 30
0.0
 40
921.90706
100
AcDbArc
 50
21.316724
 51
21.343802
  0
ARC
  5
1C4
330
18
100
AcDbEntity
  8
0
100
AcDbCircle
 10
167.6219289999999
 20
104.9426949999999
 30
0.0
 40
8.367283999999999
100
AcDbArc
 50
201.3846669999999
 51
203.9206999999999
  0
ARC
  5
1C5
330
18
100
AcDbEntity
  8
0
100
AcDbCircle
 10
160.5021969999999
 20
101.779118
 30
0.0
 40
0.576363
100
AcDbArc
 50
203.4235269999999
 51
218.377072
  0
ARC
  5
1C6
330
18
100
AcDbEntity
  8
0
100
AcDbCircle
 10
160.2653
 20
101.595038
 30
0.0
 40
0.276381
100
AcDbArc
 50
218.950512
 51
262.156017
  0
ARC
  5
1C7
330
18
100
AcDbEntity
  8
0
100
AcDbCircle
 10
161.7029879999999
 20
114.016928
 30
0.0
 40
12.781128
100
AcDbArc
 50
263.371214
 51
264.107652
  0
LINE
  5
1C8
330
18
100
AcDbEntity
  8
0
100
AcDbLine
 10
160.3909999999999
 20
101.303
 30
0.0
 11
163.3849999999999
 21
101.0429999999999
 31
0.0
  0
LINE
  5
1C9
330
18
100
AcDbEntity
  8
0
100
AcDbLine
 10
163.3849999999999
 20
101.0429999999999
 30
0.0
 11
166.3799999999999
 21
100.782
 31
0.0
  0
ARC
  5
1CA
330
18
100
AcDbEntity
  8
0
100
AcDbCircle
 10
-369.782372
 20
6267.468243
 30
0.0
 40
6193.161378
100
AcDbArc
 50
274.9420039999999
 51
274.96651
  0
LINE
  5
1CB
330
18
100
AcDbEntity
  8
0
100
AcDbLine
 10
163.741
 20
97.3304
 30
0.0
 11
161.1029999999999
 21
97.1024
 31
0.0
  0
ARC
  5
1CC
330
18
100
AcDbEntity
  8
0
100
AcDbCircle
 10
155.043955
 20
154.993962
 30
0.0
 40
58.207784
100
AcDbArc
 50
275.7012009999999
 51
275.974588
  0
ARC
  5
1CD
330
18
100
AcDbEntity
  8
0
100
AcDbCircle
 10
160.8565439999999
 20
96.79366100000001
 30
0.0
 40
0.282064
100
AcDbArc
 50
96.14663100000001
 51
146.37294
  0
ARC
  5
1CE
330
18
100
AcDbEntity
  8
0
100
AcDbCircle
 10
161.1589399999999
 20
96.56591
 30
0.0
 40
0.660354
100
AcDbArc
 50
144.448462
 51
161.937791
  0
ARC
  5
1CF
330
18
100
AcDbEntity
  8
0
100
AcDbCircle
 10
162.0160789999999
 20
96.27726199999999
 30
0.0
 40
1.564772999999999
100
AcDbArc
 50
161.620378
 51
171.9639019999999
  0
ARC
  5
1D0
330
18
100
AcDbEntity
  8
0
100
AcDbCircle
 10
83.03311500000001
 20
108.411345
 30
0.0
 40
78.344948
100
AcDbArc
 50
350.69948
 51
351.252047
  0
ARC
  5
1D1
330
18
100
AcDbEntity
  8
0
100
AcDbCircle
 10
252.0809759999999
 20
79.173644
 30
0.0
 40
93.21844499999999
100
AcDbArc
 50
169.7571429999999
 51
170.1059749999999
  0
ARC
  5
1D2
330
18
100
AcDbEntity
  8
0
100
AcDbCircle
 10
165.6170679999999
 20
94.24759100000001
 30
0.0
 40
5.450395999999999
100
AcDbArc
 50
170.0324399999999
 51
177.8830509999999
  0
ARC
  5
1D3
330
18
100
AcDbEntity
  8
0
100
AcDbCircle
 10
165.7603209999999
 20
94.219135
 30
0.0
 40
5.594649999999999
100
AcDbArc
 50
177.64602
 51
185.310525
  0
ARC
  5
1D4
330
18
100
AcDbEntity
  8
0
100
AcDbCircle
 10
83.35039100000001
 20
86.585025
 30
0.0
 40
77.168121
100
AcDbArc
 50
4.839271
 51
5.291233
  0
ARC
  5
1D5
330
18
100
AcDbEntity
  8
0
100
AcDbCircle
 10
214.818021
 20
97.615578
 30
0.0
 40
54.7615
100
AcDbArc
 50
184.7351989999999
 51
185.2330689999999
  0
ARC
  5
1D6
330
18
100
AcDbEntity
  8
0
100
AcDbCircle
 10
108.796101
 20
87.89182700000001
 30
0.0
 40
51.705392
100
AcDbArc
 50
4.720466
 51
5.247762999999999
  0
ARC
  5
1D7
330
18
100
AcDbEntity
  8
0
100
AcDbCircle
 10
218.582691
 20
96.97675799999998
 30
0.0
 40
58.456451
100
AcDbArc
 50
184.739386
 51
185.524586
  0
ARC
  5
1D8
330
18
100
AcDbEntity
  8
0
100
AcDbCircle
 10
180.22197
 20
93.181212
 30
0.0
 40
19.908689
100
AcDbArc
 50
185.2804449999999
 51
188.516697
  0
ARC
  5
1D9
330
18
100
AcDbEntity
  8
0
100
AcDbCircle
 10
172.7067879999999
 20
92.06442800000001
 30
0.0
 40
12.310988
100
AcDbArc
 50
188.5563
 51
193.78801
  0
ARC
  5
1DA
330
18
100
AcDbEntity
  8
0
100
AcDbCircle
 10
2015.745112999999
 20
545.267837
 30
0.0
 40
1910.252923999999
100
AcDbArc
 50
193.8147899999999
 51
193.8469489999999
  0
ARC
  5
1DB
330
18
100
AcDbEntity
  8
0
100
AcDbCircle
 10
191.5150449999999
 20
95.543785
 30
0.0
 40
31.40572
100
AcDbArc
 50
193.7309579999999
 51
195.756204
  0
ARC
  5
1DC
330
18
100
AcDbEntity
  8
0
100
AcDbCircle
 10
163.7549279999999
 20
87.70071599999999
 30
0.0
 40
2.558943
100
AcDbArc
 50
195.526265
 51
220.1592729999999
  0
ARC
  5
1DD
330
18
100
AcDbEntity
  8
0
100
AcDbCircle
 10
-19.97120999999999
 20
-78.776543
 30
0.0
 40
245.37405
100
AcDbArc
 50
42.055958
 51
42.201306
  0
ARC
  5
1DE
330
18
100
AcDbEntity
  8
0
100
AcDbCircle
 10
163.270829
 20
86.54218
 30
0.0
 40
1.421262
100
AcDbArc
 50
222.130317
 51
230.546599
  0
ARC
  5
1DF
330
18
100
AcDbEntity
  8
0
100
AcDbCircle
 10
162.720207
 20
85.86509300000001
 30
0.0
 40
0.5485850000000001
100
AcDbArc
 50
230.014204
 51
251.72818
  0
ARC
  5
1E0
330
18
100
AcDbEntity
  8
0
100
AcDbCircle
 10
175.724311
 20
127.8485749999999
 30
0.0
 40
44.499823
100
AcDbArc
 50
252.7769049999999
 51
253.7440879999999
  0
ARC
  5
1E1
330
18
100
AcDbEntity
  8
0
100
AcDbCircle
 10
150.06923
 20
41.115869
 30
0.0
 40
45.948308
100
AcDbArc
 50
71.684452
 51
73.30703199999999
  0
ARC
  5
1E2
330
18
100
AcDbEntity
  8
0
100
AcDbCircle
 10
167.72422
 20
94.45341799999999
 30
0.0
 40
10.235255
100
AcDbArc
 50
251.688554
 51
255.095514
  0
ARC
  5
1E3
330
18
100
AcDbEntity
  8
0
100
AcDbCircle
 10
173.691312
 20
116.3044289999999
 30
0.0
 40
32.88622
100
AcDbArc
 50
254.841031
 51
257.1777549999999
  0
ARC
  5
1E4
330
18
100
AcDbEntity
  8
0
100
AcDbCircle
 10
166.2441339999999
 20
-164.1233879999999
 30
0.0
 40
332.59832
100
AcDbArc
 50
89.95904000000001
 51
90.04094000000002
  0
ARC
  5
1E5
330
18
100
AcDbEntity
  8
0
100
AcDbCircle
 10
165.768707
 20
-163.186014
 30
0.0
 40
331.660946
100
AcDbArc
 50
89.958924
 51
90.041056
  0
LINE
  5
1E6
330
18
100
AcDbEntity
  8
0
100
AcDbLine
 10
165.5309999999999
 20
168.475
 30
0.0
 11
162.9199999999999
 21
168.7019999999999
 31
0.0
  0
LINE
  5
1E7
330
18
100
AcDbEntity
  8
0
100
AcDbLine
 10
162.9199999999999
 20
168.7019999999999
 30
0.0
 11
160.308
 21
168.93
 31
0.0
  0
ARC
  5
1E8
330
18
100
AcDbEntity
  8
0
100
AcDbCircle
 10
164.129854
 20
166.485578
 30
0.0
 40
2.250017999999999
100
AcDbArc
 50
359.948851
 51
7.298009
  0
ARC
  5
1E9
330
18
100
AcDbEntity
  8
0
100
AcDbCircle
 10
165.451321
 20
166.667195
 30
0.0
 40
0.9162680000000001
100
AcDbArc
 50
6.530129
 51
36.956921
  0
ARC
  5
1EA
330
18
100
AcDbEntity
  8
0
100
AcDbCircle
 10
165.629808
 20
166.7134629999999
 30
0.0
 40
0.749133
100
AcDbArc
 50
42.344382
 51
82.464107
  0
ARC
  5
1EB
330
18
100
AcDbEntity
  8
0
100
AcDbCircle
 10
147.8898429999999
 20
-40.609785
 30
0.0
 40
208.829177
100
AcDbArc
 50
85.09980699999999
 51
85.17114499999999
  0
ARC
  5
1EC
330
18
100
AcDbEntity
  8
0
100
AcDbCircle
 10
395.244555
 20
2812.827414
 30
0.0
 40
2655.309664
100
AcDbArc
 50
264.982512
 51
265.035747
  0
ARC
  5
1ED
330
18
100
AcDbEntity
  8
0
100
AcDbCircle
 10
646.6538419999999
 20
5729.010774999999
 30
0.0
 40
5582.308459
100
AcDbArc
 50
265.00444
 51
265.0297609999999
  0
ARC
  5
1EE
330
18
100
AcDbEntity
  8
0
100
AcDbCircle
 10
166.2441339999999
 20
-155.2939
 30
0.0
 40
333.3531479999999
100
AcDbArc
 50
89.95913299999999
 51
90.04084800000001
  0
ARC
  5
1EF
330
18
100
AcDbEntity
  8
0
100
AcDbCircle
 10
165.768707
 20
-154.406981
 30
0.0
 40
332.466229
100
AcDbArc
 50
89.959024
 51
90.04095699999998
  0
LINE
  5
1F0
330
18
100
AcDbEntity
  8
0
100
AcDbLine
 10
165.5309999999999
 20
178.059
 30
0.0
 11
163.835
 21
177.9409999999999
 31
0.0
  0
LINE
  5
1F1
330
18
100
AcDbEntity
  8
0
100
AcDbLine
 10
163.835
 20
177.9409999999999
 30
0.0
 11
162.1399999999999
 21
177.824
 31
0.0
  0
LINE
  5
1F2
330
18
100
AcDbEntity
  8
0
100
AcDbLine
 10
162.006
 20
177.784
 30
0.0
 11
163.802
 21
178.3229999999999
 31
0.0
  0
ARC
  5
1F3
330
18
100
AcDbEntity
  8
0
100
AcDbCircle
 10
176.8407679999999
 20
134.758938
 30
0.0
 40
45.47366199999999
100
AcDbArc
 50
105.088859
 51
106.663011
  0
ARC
  5
1F4
330
18
100
AcDbEntity
  8
0
100
AcDbCircle
 10
173.3878929999999
 20
147.3664229999999
 30
0.0
 40
32.402042
100
AcDbArc
 50
103.4761049999999
 51
104.997105
  0
ARC
  5
1F5
330
18
100
AcDbEntity
  8
0
100
AcDbCircle
 10
165.692824
 20
179.5341419999999
 30
0.0
 40
0.673395
100
AcDbArc
 50
282.3560459999999
 51
322.962145
  0
ARC
  5
1F6
330
18
100
AcDbEntity
  8
0
100
AcDbCircle
 10
165.8175399999999
 20
179.457354
 30
0.0
 40
0.52777
100
AcDbArc
 50
321.460914
 51
336.982665
  0
ARC
  5
1F7
330
18
100
AcDbEntity
  8
0
100
AcDbCircle
 10
165.419755
 20
179.62752
 30
0.0
 40
0.9604239999999999
100
AcDbArc
 50
336.918227
 51
351.278508
  0
ARC
  5
1F8
330
18
100
AcDbEntity
  8
0
100
AcDbCircle
 10
164.4184159999999
 20
179.78856
 30
0.0
 40
1.974615999999999
100
AcDbArc
 50
351.0654129999999
 51
0.481339
  0
ARC
  5
1F9
330
18
100
AcDbEntity
  8
0
100
AcDbCircle
 10
164.156952
 20
148.984373
 30
0.0
 40
2.236010999999999
100
AcDbArc
 50
359.948778
 51
7.320861999999999
  0
ARC
  5
1FA
330
18
100
AcDbEntity
  8
0
100
AcDbCircle
 10
165.4639709999999
 20
149.1643339999999
 30
0.0
 40
0.9167939999999999
100
AcDbArc
 50
6.574241
 51
36.954665
  0
ARC
  5
1FB
330
18
100
AcDbEntity
  8
0
100
AcDbCircle
 10
165.639386
 20
149.207703
 30
0.0
 40
0.7538770000000001
100
AcDbArc
 50
42.343511
 51
82.18949700000001
  0
ARC
  5
1FC
330
18
100
AcDbEntity
  8
0
100
AcDbCircle
 10
173.167784
 20
238.502406
 30
0.0
 40
88.85865799999999
100
AcDbArc
 50
265.0389809999999
 51
265.2061919999999
  0
LINE
  5
1FD
330
18
100
AcDbEntity
  8
0
100
AcDbLine
 10
165.483
 20
149.977
 30
0.0
 11
162.4499999999999
 21
150.2429999999999
 31
0.0
  0
LINE
  5
1FE
330
18
100
AcDbEntity
  8
0
100
AcDbLine
 10
162.4499999999999
 20
150.2429999999999
 30
0.0
 11
159.418
 21
150.5079999999999
 31
0.0
  0
ARC
  5
1FF
330
18
100
AcDbEntity
  8
0
100
AcDbCircle
 10
166.2441339999999
 20
-171.4502549999999
 30
0.0
 40
332.7221359999999
100
AcDbArc
 50
89.959055
 51
90.040925
  0
ARC
  5
200
330
18
100
AcDbEntity
  8
0
100
AcDbCircle
 10
165.768707
 20
-170.4710139999999
 30
0.0
 40
331.742895
100
AcDbArc
 50
89.95893399999999
 51
90.04104599999999
  0
ARC
  5
201
330
18
100
AcDbEntity
  8
0
100
AcDbCircle
 10
0.548696
 20
2033.262833999999
 30
0.0
 40
1879.247084
100
AcDbArc
 50
274.9450679999999
 51
275.0365869999999
  0
LINE
  5
202
330
18
100
AcDbEntity
  8
0
100
AcDbLine
 10
162.541
 20
161.0109999999999
 30
0.0
 11
159.55
 21
160.7499999999999
 31
0.0
  0
ARC
  5
203
330
18
100
AcDbEntity
  8
0
100
AcDbCircle
 10
164.5891139999999
 20
163.2590379999999
 30
0.0
 40
1.790758999999999
100
AcDbArc
 50
341.896424
 51
0.085022
  0
ARC
  5
204
330
18
100
AcDbEntity
  8
0
100
AcDbCircle
 10
165.729419
 20
162.9284469999999
 30
0.0
 40
0.6055070000000001
100
AcDbArc
 50
318.583322
 51
338.0985089999999
  0
ARC
  5
205
330
18
100
AcDbEntity
  8
0
100
AcDbCircle
 10
165.6287649999999
 20
163.0312659999999
 30
0.0
 40
0.749081
100
AcDbArc
 50
277.616939
 51
317.7786229999999
  0
ARC
  5
206
330
18
100
AcDbEntity
  8
0
100
AcDbCircle
 10
172.8567239999999
 20
76.99385699999999
 30
0.0
 40
85.59231399999999
100
AcDbArc
 50
94.77747800000001
 51
94.95153
  0
LINE
  5
207
330
18
100
AcDbEntity
  8
0
100
AcDbLine
 10
165.469
 20
162.267
 30
0.0
 11
162.6419999999999
 21
162.019
 31
0.0
  0
LINE
  5
208
330
18
100
AcDbEntity
  8
0
100
AcDbLine
 10
162.6419999999999
 20
162.019
 30
0.0
 11
159.8149999999999
 21
161.772
 31
0.0
  0
ARC
  5
209
330
18
100
AcDbEntity
  8
0
100
AcDbCircle
 10
66.847516
 20
135.9882159999999
 30
0.0
 40
94.27373600000001
100
AcDbArc
 50
10.41905999999999
 51
11.62174599999999
  0
ARC
  5
20A
330
18
100
AcDbEntity
  8
0
100
AcDbCircle
 10
94.28658100000001
 20
141.829312
 30
0.0
 40
66.23538700000001
100
AcDbArc
 50
8.601633999999998
 51
9.742129999999999
  0
ARC
  5
20B
330
18
100
AcDbEntity
  8
0
100
AcDbCircle
 10
-229.3484859999999
 20
93.19688199999999
 30
0.0
 40
393.504011
100
AcDbArc
 50
8.432302999999999
 51
8.555244999999999
  0
ARC
  5
20C
330
18
100
AcDbEntity
  8
0
100
AcDbCircle
 10
160.4330679999999
 20
150.980097
 30
0.0
 40
0.5373070000000001
100
AcDbArc
 50
188.5068389999999
 51
228.6457619999999
  0
ARC
  5
20D
330
18
100
AcDbEntity
  8
0
100
AcDbCircle
 10
160.375796
 20
150.896903
 30
0.0
 40
0.437182
100
AcDbArc
 50
227.075906
 51
244.807645
  0
ARC
  5
20E
330
18
100
AcDbEntity
  8
0
100
AcDbCircle
 10
160.625057
 20
151.4424999999999
 30
0.0
 40
1.037005999999999
100
AcDbArc
 50
245.1770639999999
 51
268.405869
  0
ARC
  5
20F
330
18
100
AcDbEntity
  8
0
100
AcDbCircle
 10
166.0106639999999
 20
162.9674729999999
 30
0.0
 40
0.4721020000000001
100
AcDbArc
 50
351.608951
 51
38.551414
  0
ARC
  5
210
330
18
100
AcDbEntity
  8
0
100
AcDbCircle
 10
169.050671
 20
162.5819909999999
 30
0.0
 40
2.592363
100
AcDbArc
 50
172.9852909999999
 51
181.9424189999999
  0
ARC
  5
211
330
18
100
AcDbEntity
  8
0
100
AcDbCircle
 10
168.7218399999999
 20
179.233799
 30
0.0
 40
2.259186
100
AcDbArc
 50
173.534399
 51
182.3909399999999
  0
ARC
  5
212
330
18
100
AcDbEntity
  8
0
100
AcDbCircle
 10
166.024256
 20
179.5377389999999
 30
0.0
 40
0.455469
100
AcDbArc
 50
353.7556509999999
 51
35.952075
  0
ARC
  5
213
330
18
100
AcDbEntity
  8
0
100
AcDbCircle
 10
168.458757
 20
167.152918
 30
0.0
 40
2.000875
100
AcDbArc
 50
176.711982
 51
188.4844059999999
  0
ARC
  5
214
330
18
100
AcDbEntity
  8
0
100
AcDbCircle
 10
165.9800399999999
 20
166.790748
 30
0.0
 40
0.5042060000000001
100
AcDbArc
 50
322.4660339999999
 51
7.631733
  0
ARC
  5
215
330
18
100
AcDbEntity
  8
0
100
AcDbCircle
 10
199.0427249999999
 20
126.092457
 30
0.0
 40
40.429321
100
AcDbArc
 50
157.7886679999999
 51
161.63733
  0
ARC
  5
216
330
18
100
AcDbEntity
  8
0
100
AcDbCircle
 10
172.73845
 20
136.7010099999999
 30
0.0
 40
12.067266
100
AcDbArc
 50
152.110428
 51
157.208066
  0
ARC
  5
217
330
18
100
AcDbEntity
  8
0
100
AcDbCircle
 10
174.8438919999999
 20
135.447912
 30
0.0
 40
14.514842
100
AcDbArc
 50
141.6347639999999
 51
151.62611
  0
ARC
  5
218
330
18
100
AcDbEntity
  8
0
100
AcDbCircle
 10
189.987776
 20
123.4275889999999
 30
0.0
 40
33.8494
100
AcDbArc
 50
139.715807
 51
141.5917789999999
  0
ARC
  5
219
330
18
100
AcDbEntity
  8
0
100
AcDbCircle
 10
165.065882
 20
144.6408279999999
 30
0.0
 40
1.12386
100
AcDbArc
 50
127.501039
 51
143.208978
  0
ARC
  5
21A
330
18
100
AcDbEntity
  8
0
100
AcDbCircle
 10
193.112317
 20
100.1190239999999
 30
0.0
 40
53.73849499999999
100
AcDbArc
 50
121.9852469999999
 51
122.3193159999999
  0
ARC
  5
21B
330
18
100
AcDbEntity
  8
0
100
AcDbCircle
 10
172.7857679999999
 20
132.5861699999999
 30
0.0
 40
15.433434
100
AcDbArc
 50
120.662562
 51
121.826432
  0
ARC
  5
21C
330
18
100
AcDbEntity
  8
0
100
AcDbCircle
 10
157.4530809999999
 20
158.325251
 30
0.0
 40
14.526469
100
AcDbArc
 50
300.909131
 51
301.8897959999999
  0
ARC
  5
21D
330
18
100
AcDbEntity
  8
0
100
AcDbCircle
 10
161.558409
 20
151.699403
 30
0.0
 40
6.731911999999999
100
AcDbArc
 50
302.014533
 51
304.9897
  0
ARC
  5
21E
330
18
100
AcDbEntity
  8
0
100
AcDbCircle
 10
165.219433
 20
146.486666
 30
0.0
 40
0.362155
100
AcDbArc
 50
303.379353
 51
323.504602
  0
ARC
  5
21F
330
18
100
AcDbEntity
  8
0
100
AcDbCircle
 10
165.3166419999999
 20
146.395236
 30
0.0
 40
0.230165
100
AcDbArc
 50
327.4121569999999
 51
42.293413
  0
ARC
  5
220
330
18
100
AcDbEntity
  8
0
100
AcDbCircle
 10
201.0838629999999
 20
137.532497
 30
0.0
 40
42.26194099999999
100
AcDbArc
 50
195.501109
 51
199.237795
  0
ARC
  5
221
330
18
100
AcDbEntity
  8
0
100
AcDbCircle
 10
174.2924679999999
 20
128.2757499999999
 30
0.0
 40
13.916873
100
AcDbArc
 50
199.5985779999999
 51
206.084196
  0
ARC
  5
222
330
18
100
AcDbEntity
  8
0
100
AcDbCircle
 10
174.7251
 20
128.738123
 30
0.0
 40
14.510488
100
AcDbArc
 50
206.9728819999999
 51
218.3891289999999
  0
ARC
  5
223
330
18
100
AcDbEntity
  8
0
100
AcDbCircle
 10
197.229645
 20
146.575158
 30
0.0
 40
43.226587
100
AcDbArc
 50
218.39652
 51
220.050122
  0
ARC
  5
224
330
18
100
AcDbEntity
  8
0
100
AcDbCircle
 10
165.212617
 20
119.5580199999999
 30
0.0
 40
1.336122999999999
100
AcDbArc
 50
216.637096
 51
231.54617
  0
ARC
  5
225
330
18
100
AcDbEntity
  8
0
100
AcDbCircle
 10
177.766579
 20
139.424319
 30
0.0
 40
24.82927699999999
100
AcDbArc
 50
237.379229
 51
238.103111
  0
ARC
  5
226
330
18
100
AcDbEntity
  8
0
100
AcDbCircle
 10
174.9028679999999
 20
134.8761509999999
 30
0.0
 40
19.454738
100
AcDbArc
 50
238.1857899999999
 51
239.1101359999999
  0
ARC
  5
227
330
18
100
AcDbEntity
  8
0
100
AcDbCircle
 10
242.2543459999999
 20
245.5937979999999
 30
0.0
 40
149.048332
100
AcDbArc
 50
238.742347
 51
238.837421
  0
ARC
  5
228
330
18
100
AcDbEntity
  8
0
100
AcDbCircle
 10
162.4393149999999
 20
113.714475
 30
0.0
 40
5.103158
100
AcDbArc
 50
54.27019899999999
 51
58.225301
  0
ARC
  5
229
330
18
100
AcDbEntity
  8
0
100
AcDbCircle
 10
165.206761
 20
117.541292
 30
0.0
 40
0.380722
100
AcDbArc
 50
36.607889
 51
56.051809
  0
ARC
  5
22A
330
18
100
AcDbEntity
  8
0
100
AcDbCircle
 10
165.326527
 20
117.648017
 30
0.0
 40
0.221397
100
AcDbArc
 50
316.4152029999999
 51
32.917254
  0
ARC
  5
22B
330
18
100
AcDbEntity
  8
0
100
AcDbCircle
 10
100.3192939999999
 20
-79.25323699999999
 30
0.0
 40
207.115347
100
AcDbArc
 50
72.58436899999999
 51
73.51674
  0
ARC
  5
22C
330
18
100
AcDbEntity
  8
0
100
AcDbCircle
 10
172.572132
 20
150.171037
 30
0.0
 40
33.418299
100
AcDbArc
 50
252.1150089999999
 51
255.9701009999999
  0
ARC
  5
22D
330
18
100
AcDbEntity
  8
0
100
AcDbCircle
 10
-288.6128649999999
 20
-1691.168923999999
 30
0.0
 40
1864.797830999999
100
AcDbArc
 50
75.903835
 51
75.938298
  0
LINE
  5
22E
330
18
100
AcDbEntity
  8
0
100
AcDbLine
 10
165.559
 20
117.477
 30
0.0
 11
165.579
 21
117.473
 31
0.0
  0
LINE
  5
22F
330
18
100
AcDbEntity
  8
0
100
AcDbLine
 10
165.579
 20
117.473
 30
0.0
 11
165.599
 21
117.469
 31
0.0
  0
ARC
  5
230
330
18
100
AcDbEntity
  8
0
100
AcDbCircle
 10
151.856569
 20
55.379922
 30
0.0
 40
63.591967
100
AcDbArc
 50
77.31153899999999
 51
77.519539
  0
ARC
  5
231
330
18
100
AcDbEntity
  8
0
100
AcDbCircle
 10
165.6735389999999
 20
116.757609
 30
0.0
 40
0.6783050000000001
100
AcDbArc
 50
37.680413
 51
77.13917399999999
  0
ARC
  5
232
330
18
100
AcDbEntity
  8
0
100
AcDbCircle
 10
165.7937729999999
 20
116.836102
 30
0.0
 40
0.5352890000000001
100
AcDbArc
 50
22.94712899999999
 51
38.89776299999999
  0
ARC
  5
233
330
18
100
AcDbEntity
  8
0
100
AcDbCircle
 10
165.376994
 20
116.656681
 30
0.0
 40
0.989043
100
AcDbArc
 50
9.059596000000002
 51
23.10516199999999
  0
ARC
  5
234
330
18
100
AcDbEntity
  8
0
100
AcDbCircle
 10
164.389205
 20
116.489511
 30
0.0
 40
1.990854999999999
100
AcDbArc
 50
0.7901829999999999
 51
9.334322
  0
ARC
  5
235
330
18
100
AcDbEntity
  8
0
100
AcDbCircle
 10
88.17928700000001
 20
386.529787
 30
0.0
 40
252.017683
100
AcDbArc
 50
286.340972
 51
286.438125
  0
LINE
  5
236
330
18
100
AcDbEntity
  8
0
100
AcDbLine
 10
159.495
 20
144.8129999999999
 30
0.0
 11
159.904
 21
144.9329999999999
 31
0.0
  0
ARC
  5
237
330
18
100
AcDbEntity
  8
0
100
AcDbCircle
 10
165.55308
 20
126.4972449999999
 30
0.0
 40
19.281693
100
AcDbArc
 50
106.6818879999999
 51
107.0348859999999
  0
LINE
  5
238
330
18
100
AcDbEntity
  8
0
100
AcDbLine
 10
160.0179999999999
 20
144.967
 30
0.0
 11
160.245
 21
145.0339999999999
 31
0.0
  0
ARC
  5
239
330
18
100
AcDbEntity
  8
0
100
AcDbCircle
 10
146.9648459999999
 20
190.775316
 30
0.0
 40
47.63002199999999
100
AcDbArc
 50
286.190359
 51
286.476246
  0
ARC
  5
23A
330
18
100
AcDbEntity
  8
0
100
AcDbCircle
 10
252.0036109999999
 20
-161.841599
 30
0.0
 40
320.299193
100
AcDbArc
 50
106.502428
 51
106.604523
  0
ARC
  5
23B
330
18
100
AcDbEntity
  8
0
100
AcDbCircle
 10
101.193674
 20
347.3845069999999
 30
0.0
 40
210.789187
100
AcDbArc
 50
286.488558
 51
286.734231
  0
ARC
  5
23C
330
18
100
AcDbEntity
  8
0
100
AcDbCircle
 10
203.592437
 20
5.702355999999999
 30
0.0
 40
145.9072469999999
100
AcDbArc
 50
106.254003
 51
106.608874
  0
ARC
  5
23D
330
18
100
AcDbEntity
  8
0
100
AcDbCircle
 10
109.243937
 20
331.4998779999999
 30
0.0
 40
193.2769919999999
100
AcDbArc
 50
286.0725689999999
 51
286.3258959999999
  0
ARC
  5
23E
330
18
100
AcDbEntity
  8
0
100
AcDbCircle
 10
160.965273
 20
155.0631899999999
 30
0.0
 40
9.415713999999999
100
AcDbArc
 50
286.085944
 51
291.144508
  0
ARC
  5
23F
330
18
100
AcDbEntity
  8
0
100
AcDbCircle
 10
165.8505299999999
 20
142.381183
 30
0.0
 40
4.174716
100
AcDbArc
 50
99.516735
 51
110.8930629999999
  0
ARC
  5
240
330
18
100
AcDbEntity
  8
0
100
AcDbCircle
 10
70.32399100000001
 20
737.180833
 30
0.0
 40
598.247114
100
AcDbArc
 50
279.121222
 51
279.1598549999999
  0
LINE
  5
241
330
18
100
AcDbEntity
  8
0
100
AcDbLine
 10
165.559
 20
146.5629999999999
 30
0.0
 11
165.579
 21
146.5689999999999
 31
0.0
  0
LINE
  5
242
330
18
100
AcDbEntity
  8
0
100
AcDbLine
 10
165.579
 20
146.5689999999999
 30
0.0
 11
165.599
 21
146.5759999999999
 31
0.0
  0
LINE
  5
243
330
18
100
AcDbEntity
  8
0
100
AcDbLine
 10
165.599
 20
146.5759999999999
 30
0.0
 11
165.8249999999999
 21
146.625
 31
0.0
  0
ARC
  5
244
330
18
100
AcDbEntity
  8
0
100
AcDbCircle
 10
165.681421
 20
147.2764479999999
 30
0.0
 40
0.6667600000000001
100
AcDbArc
 50
282.3930299999999
 51
322.496389
  0
ARC
  5
245
330
18
100
AcDbEntity
  8
0
100
AcDbCircle
 10
165.806485
 20
147.1997639999999
 30
0.0
 40
0.5210840000000001
100
AcDbArc
 50
320.81311
 51
336.632384
  0
ARC
  5
246
330
18
100
AcDbEntity
  8
0
100
AcDbCircle
 10
165.395499
 20
147.379669
 30
0.0
 40
0.9697180000000001
100
AcDbArc
 50
336.505983
 51
350.783401
  0
ARC
  5
247
330
18
100
AcDbEntity
  8
0
100
AcDbCircle
 10
164.387375
 20
147.553339
 30
0.0
 40
1.992668999999999
100
AcDbArc
 50
350.497016
 51
359.247122
  0
ARC
  5
248
330
18
100
AcDbEntity
  8
0
100
AcDbCircle
 10
166.0472579999999
 20
114.809908
 30
0.0
 40
0.4277090000000001
100
AcDbArc
 50
353.479024
 51
36.072774
  0
ARC
  5
249
330
18
100
AcDbEntity
  8
0
100
AcDbCircle
 10
168.3399409999999
 20
114.522652
 30
0.0
 40
1.882929999999999
100
AcDbArc
 50
172.7174919999999
 51
180.326936
  0
ARC
  5
24A
330
18
100
AcDbEntity
  8
0
100
AcDbCircle
 10
218.333438
 20
117.702407
 30
0.0
 40
51.974415
100
AcDbArc
 50
183.519387
 51
183.8162279999999
  0
ARC
  5
24B
330
18
100
AcDbEntity
  8
0
100
AcDbCircle
 10
163.084085
 20
114.014486
 30
0.0
 40
3.397887999999999
100
AcDbArc
 50
357.639899
 51
3.859344
  0
ARC
  5
24C
330
18
100
AcDbEntity
  8
0
100
AcDbCircle
 10
173.001355
 20
113.630016
 30
0.0
 40
6.526847
100
AcDbArc
 50
177.852743
 51
182.717359
  0
ARC
  5
24D
330
18
100
AcDbEntity
  8
0
100
AcDbCircle
 10
180.3019309999999
 20
101.9427329999999
 30
0.0
 40
13.84508599999999
100
AcDbArc
 50
176.5562049999999
 51
179.135927
  0
ARC
  5
24E
330
18
100
AcDbEntity
  8
0
100
AcDbCircle
 10
131.696883
 20
101.8280159999999
 30
0.0
 40
34.76304199999999
100
AcDbArc
 50
359.844993
 51
0.5331960000000001
  0
LINE
  5
24F
330
18
100
AcDbEntity
  8
0
100
AcDbLine
 10
166.46
 20
101.7339999999999
 30
0.0
 11
166.46
 21
101.436
 31
0.0
  0
ARC
  5
250
330
18
100
AcDbEntity
  8
0
100
AcDbCircle
 10
169.173488
 20
101.449577
 30
0.0
 40
2.713725999999999
100
AcDbArc
 50
180.294675
 51
186.5937689999999
  0
ARC
  5
251
330
18
100
AcDbEntity
  8
0
100
AcDbCircle
 10
165.9541609999999
 20
101.0908099999999
 30
0.0
 40
0.525671
100
AcDbArc
 50
324.0805169999999
 51
5.146339
  0
ARC
  5
252
330
18
100
AcDbEntity
  8
0
100
AcDbCircle
 10
164.110631
 20
100.78445
 30
0.0
 40
2.269241
100
AcDbArc
 50
359.948912
 51
7.266990999999999
  0
ARC
  5
253
330
18
100
AcDbEntity
  8
0
100
AcDbCircle
 10
165.44629
 20
100.9671589999999
 30
0.0
 40
0.9212819999999998
100
AcDbArc
 50
6.50267
 51
36.850768
  0
ARC
  5
254
330
18
100
AcDbEntity
  8
0
100
AcDbCircle
 10
165.628734
 20
101.014099
 30
0.0
 40
0.7505850000000001
100
AcDbArc
 50
42.344356
 51
82.396074
  0
ARC
  5
255
330
18
100
AcDbEntity
  8
0
100
AcDbCircle
 10
161.6094229999999
 20
54.89723699999999
 30
0.0
 40
47.041493
100
AcDbArc
 50
84.97713199999999
 51
85.29382
  0
ARC
  5
256
330
18
100
AcDbEntity
  8
0
100
AcDbCircle
 10
-402.572884
 20
-6356.084891
 30
0.0
 40
6482.799721000001
100
AcDbArc
 50
84.97311999999999
 51
84.998202
  0
LINE
  5
257
330
18
100
AcDbEntity
  8
0
100
AcDbLine
 10
162.6419999999999
 20
102.0279999999999
 30
0.0
 11
159.8149999999999
 21
102.276
 31
0.0
  0
ARC
  5
258
330
18
100
AcDbEntity
  8
0
100
AcDbCircle
 10
164.140632
 20
115.059737
 30
0.0
 40
2.252331
100
AcDbArc
 50
352.705744
 51
0.051179
  0
ARC
  5
259
330
18
100
AcDbEntity
  8
0
100
AcDbCircle
 10
165.465214
 20
114.8778389999999
 30
0.0
 40
0.915456
100
AcDbArc
 50
323.027149
 51
353.4724919999999
  0
ARC
  5
25A
330
18
100
AcDbEntity
  8
0
100
AcDbCircle
 10
165.643727
 20
114.828919
 30
0.0
 40
0.7465460000000001
100
AcDbArc
 50
277.5514919999999
 51
317.7793919999999
  0
ARC
  5
25B
330
18
100
AcDbEntity
  8
0
100
AcDbCircle
 10
161.727279
 20
159.609436
 30
0.0
 40
45.697271
100
AcDbArc
 50
274.714862
 51
275.040005
  0
LINE
  5
25C
330
18
100
AcDbEntity
  8
0
100
AcDbLine
 10
165.483
 20
114.067
 30
0.0
 11
162.4499999999999
 21
113.8009999999999
 31
0.0
  0
LINE
  5
25D
330
18
100
AcDbEntity
  8
0
100
AcDbLine
 10
162.4499999999999
 20
113.8009999999999
 30
0.0
 11
159.418
 21
113.535
 31
0.0
  0
ARC
  5
25E
330
18
100
AcDbEntity
  8
0
100
AcDbCircle
 10
164.1342999999999
 20
97.55717400000001
 30
0.0
 40
2.245572
100
AcDbArc
 50
352.6947609999999
 51
0.051073
  0
ARC
  5
25F
330
18
100
AcDbEntity
  8
0
100
AcDbCircle
 10
165.448877
 20
97.376456
 30
0.0
 40
0.9187659999999999
100
AcDbArc
 50
323.089548
 51
353.449047
  0
ARC
  5
260
330
18
100
AcDbEntity
  8
0
100
AcDbCircle
 10
165.6287649999999
 20
97.328056
 30
0.0
 40
0.749081
100
AcDbArc
 50
277.616939
 51
317.7786229999999
  0
ARC
  5
261
330
18
100
AcDbEntity
  8
0
100
AcDbCircle
 10
172.8567239999999
 20
11.29064799999999
 30
0.0
 40
85.59231399999999
100
AcDbArc
 50
94.77747800000001
 51
94.95153
  0
LINE
  5
262
330
18
100
AcDbEntity
  8
0
100
AcDbLine
 10
165.469
 20
96.56350000000001
 30
0.0
 11
163.0109999999999
 21
96.34860000000001
 31
0.0
  0
ARC
  5
263
330
18
100
AcDbEntity
  8
0
100
AcDbCircle
 10
654.788989
 20
-5522.144695
 30
0.0
 40
5639.974453
100
AcDbArc
 50
95.00224900000002
 51
95.027313
  0
ARC
  5
264
330
18
100
AcDbEntity
  8
0
100
AcDbCircle
 10
164.1740809999999
 20
84.23902199999998
 30
0.0
 40
2.218881999999999
100
AcDbArc
 50
359.980971
 51
7.383639999999999
  0
ARC
  5
265
330
18
100
AcDbEntity
  8
0
100
AcDbCircle
 10
165.500133
 20
84.42081100000001
 30
0.0
 40
0.8805189999999999
100
AcDbArc
 50
6.741565
 51
33.97240399999999
  0
ARC
  5
266
330
18
100
AcDbEntity
  8
0
100
AcDbCircle
 10
165.6602359999999
 20
84.460239
 30
0.0
 40
0.727928
100
AcDbArc
 50
38.445058
 51
75.95271499999999
  0
ARC
  5
267
330
18
100
AcDbEntity
  8
0
100
AcDbCircle
 10
171.2667139999999
 20
110.1751429999999
 30
0.0
 40
25.591403
100
AcDbArc
 50
255.826551
 51
257.750312
  0
ARC
  5
268
330
18
100
AcDbEntity
  8
0
100
AcDbCircle
 10
168.821953
 20
101.134516
 30
0.0
 40
16.228119
100
AcDbArc
 50
251.963713
 51
256.379697
  0
ARC
  5
269
330
18
100
AcDbEntity
  8
0
100
AcDbCircle
 10
144.9830189999999
 20
28.25134999999999
 30
0.0
 40
60.454691
100
AcDbArc
 50
71.86753900000001
 51
73.64536700000001
  0
ARC
  5
26A
330
18
100
AcDbEntity
  8
0
100
AcDbCircle
 10
166.1505999999999
 20
84.440562
 30
0.0
 40
0.315683
100
AcDbArc
 50
320.1514729999999
 51
7.957739
  0
ARC
  5
26B
330
18
100
AcDbEntity
  8
0
100
AcDbCircle
 10
168.0421509999999
 20
84.672607
 30
0.0
 40
1.590100999999999
100
AcDbArc
 50
179.1643689999999
 51
186.80243
  0
ARC
  5
26C
330
18
100
AcDbEntity
  8
0
100
AcDbCircle
 10
246.9264569999999
 20
78.704841
 30
0.0
 40
80.696931
100
AcDbArc
 50
175.549105
 51
175.7424139999999
  0
ARC
  5
26D
330
18
100
AcDbEntity
  8
0
100
AcDbCircle
 10
164.052368
 20
85.15375999999999
 30
0.0
 40
2.427694999999999
100
AcDbArc
 50
355.5943619999999
 51
5.183837
  0
ARC
  5
26E
330
18
100
AcDbEntity
  8
0
100
AcDbCircle
 10
168.50439
 20
85.55412
 30
0.0
 40
2.042294
100
AcDbArc
 50
177.287271
 51
185.0849499999999
  0
ARC
  5
26F
330
18
100
AcDbEntity
  8
0
100
AcDbCircle
 10
173.894558
 20
85.421975
 30
0.0
 40
7.433696
100
AcDbArc
 50
175.693862
 51
178.2361919999999
  0
ARC
  5
270
330
18
100
AcDbEntity
  8
0
100
AcDbCircle
 10
166.0052379999999
 20
97.263242
 30
0.0
 40
0.477417
100
AcDbArc
 50
352.994874
 51
38.306154
  0
ARC
  5
271
330
18
100
AcDbEntity
  8
0
100
AcDbCircle
 10
172.179337
 20
96.68610200000001
 30
0.0
 40
5.723816999999999
100
AcDbArc
 50
174.7984689999999
 51
177.784636
  0
LINE
  5
272
330
18
100
AcDbEntity
  8
0
100
AcDbLine
 10
166.46
 20
96.90739999999999
 30
0.0
 11
166.46
 21
96.61039999999999
 31
0.0
  0
ARC
  5
273
330
18
100
AcDbEntity
  8
0
100
AcDbCircle
 10
105.6325799999999
 20
96.60236300000001
 30
0.0
 40
60.82721899999999
100
AcDbArc
 50
359.6142509999999
 51
0.00756
  0
ARC
  5
274
330
18
100
AcDbEntity
  8
0
100
AcDbCircle
 10
173.998164
 20
96.165195
 30
0.0
 40
7.539794999999999
100
AcDbArc
 50
179.7898899999999
 51
184.522705
  0
ARC
  5
275
330
18
100
AcDbEntity
  8
0
100
AcDbCircle
 10
166.2441339999999
 20
-269.0107859999999
 30
0.0
 40
371.785256
100
AcDbArc
 50
89.963356
 51
90.03662400000001
  0
ARC
  5
276
330
18
100
AcDbEntity
  8
0
100
AcDbCircle
 10
165.768707
 20
-267.474091
 30
0.0
 40
370.248561
100
AcDbArc
 50
89.96320400000001
 51
90.03677600000001
  0
ARC
  5
277
330
18
100
AcDbEntity
  8
0
100
AcDbCircle
 10
-66.101618
 20
-2525.506414
 30
0.0
 40
2638.468054
100
AcDbArc
 50
84.963478
 51
85.028664
  0
LINE
  5
278
330
18
100
AcDbEntity
  8
0
100
AcDbLine
 10
162.541
 20
103.0359999999999
 30
0.0
 11
159.55
 21
103.2989999999999
 31
0.0
  0
ARC
  5
279
330
18
100
AcDbEntity
  8
0
100
AcDbCircle
 10
166.2441339999999
 20
-243.976967
 30
0.0
 40
357.2976319999999
100
AcDbArc
 50
89.961871
 51
90.03810900000001
  0
ARC
  5
27A
330
18
100
AcDbEntity
  8
0
100
AcDbCircle
 10
165.768707
 20
-242.5833139999999
 30
0.0
 40
355.9039799999999
100
AcDbArc
 50
89.961721
 51
90.038259
  0
LINE
  5
27B
330
18
100
AcDbEntity
  8
0
100
AcDbLine
 10
165.5309999999999
 20
113.321
 30
0.0
 11
162.359
 21
113.0439999999999
 31
0.0
  0
LINE
  5
27C
330
18
100
AcDbEntity
  8
0
100
AcDbLine
 10
162.359
 20
113.0439999999999
 30
0.0
 11
159.186
 21
112.766
 31
0.0
  0
ARC
  5
27D
330
18
100
AcDbEntity
  8
0
100
AcDbCircle
 10
166.2441339999999
 20
-321.556483
 30
0.0
 40
407.536689
100
AcDbArc
 50
89.96656999999999
 51
90.03341
  0
ARC
  5
27E
330
18
100
AcDbEntity
  8
0
100
AcDbCircle
 10
165.768707
 20
-319.719535
 30
0.0
 40
405.699741
100
AcDbArc
 50
89.96641899999998
 51
90.03356200000002
  0
LINE
  5
27F
330
18
100
AcDbEntity
  8
0
100
AcDbLine
 10
165.5309999999999
 20
85.9801
 30
0.0
 11
163.835
 21
86.09999999999999
 31
0.0
  0
ARC
  5
280
330
18
100
AcDbEntity
  8
0
100
AcDbCircle
 10
35.29393799999999
 20
-1730.33615
 30
0.0
 40
1820.978655999999
100
AcDbArc
 50
85.952163
 51
86.00564799999999
  0
ARC
  5
281
330
18
100
AcDbEntity
  8
0
100
AcDbCircle
 10
166.2441339999999
 20
-289.2873589999999
 30
0.0
 40
384.858085
100
AcDbArc
 50
89.964601
 51
90.03538000000002
  0
ARC
  5
282
330
18
100
AcDbEntity
  8
0
100
AcDbCircle
 10
165.768707
 20
-287.634802
 30
0.0
 40
383.2055299999999
100
AcDbArc
 50
89.964448
 51
90.03553199999997
  0
ARC
  5
283
330
18
100
AcDbEntity
  8
0
100
AcDbCircle
 10
-315.645735
 20
5573.502074
 30
0.0
 40
5499.023885
100
AcDbArc
 50
274.992623
 51
275.0199359999999
  0
ARC
  5
284
330
18
100
AcDbEntity
  8
0
100
AcDbCircle
 10
715.8719099999999
 20
-6231.994993
 30
0.0
 40
6351.452463000001
100
AcDbArc
 50
94.99443599999999
 51
95.01808399999999
  0
ARC
  5
285
330
18
100
AcDbEntity
  8
0
100
AcDbCircle
 10
166.2441339999999
 20
-183.4474549999999
 30
0.0
 40
334.1683199999999
100
AcDbArc
 50
89.959232
 51
90.04074799999997
  0
ARC
  5
286
330
18
100
AcDbEntity
  8
0
100
AcDbCircle
 10
165.768707
 20
-182.399662
 30
0.0
 40
333.1205259999999
100
AcDbArc
 50
89.95910400000001
 51
90.040876
  0
LINE
  5
287
330
18
100
AcDbEntity
  8
0
100
AcDbLine
 10
165.5309999999999
 20
150.721
 30
0.0
 11
162.6939999999999
 21
150.972
 31
0.0
  0
LINE
  5
288
330
18
100
AcDbEntity
  8
0
100
AcDbLine
 10
162.6939999999999
 20
150.972
 30
0.0
 11
159.8559999999999
 21
151.222
 31
0.0
  0
ARC
  5
289
330
18
100
AcDbEntity
  8
0
100
AcDbCircle
 10
166.772446
 20
87.665926
 30
0.0
 40
5.588794
100
AcDbArc
 50
258.54581
 51
267.528641
  0
ARC
  5
28A
330
18
100
AcDbEntity
  8
0
100
AcDbCircle
 10
162.9328649999999
 20
72.466973
 30
0.0
 40
10.09744399999999
100
AcDbArc
 50
74.31555
 51
77.676614
  0
ARC
  5
28B
330
18
100
AcDbEntity
  8
0
100
AcDbCircle
 10
132.8990129999999
 20
-62.45790699999999
 30
0.0
 40
148.3245579999999
100
AcDbArc
 50
77.466109
 51
77.701306
  0
ARC
  5
28C
330
18
100
AcDbEntity
  8
0
100
AcDbCircle
 10
247.6683009999999
 20
459.888339
 30
0.0
 40
386.4818379999999
100
AcDbArc
 50
257.476614
 51
257.5721299999999
  0
ARC
  5
28D
330
18
100
AcDbEntity
  8
0
100
AcDbCircle
 10
248.756972
 20
462.1565379999999
 30
0.0
 40
388.932556
100
AcDbArc
 50
257.297526
 51
257.392506
  0
ARC
  5
28E
330
18
100
AcDbEntity
  8
0
100
AcDbCircle
 10
168.588346
 20
106.317103
 30
0.0
 40
24.17415899999999
100
AcDbArc
 50
255.9874299999999
 51
257.2062589999999
  0
ARC
  5
28F
330
18
100
AcDbEntity
  8
0
100
AcDbCircle
 10
162.915817
 20
83.56139699999999
 30
0.0
 40
0.7221130000000001
100
AcDbArc
 50
224.9650799999999
 51
255.4936699999999
  0
ARC
  5
290
330
18
100
AcDbEntity
  8
0
100
AcDbCircle
 10
164.8240619999999
 20
85.523816
 30
0.0
 40
3.459292
100
AcDbArc
 50
219.193823
 51
225.627204
  0
LINE
  5
291
330
18
100
AcDbEntity
  8
0
100
AcDbLine
 10
162.143
 20
83.33769999999999
 30
0.0
 11
161.8449999999999
 21
83.70980000000001
 31
0.0
  0
ARC
  5
292
330
18
100
AcDbEntity
  8
0
100
AcDbCircle
 10
164.641507
 20
85.94324499999999
 30
0.0
 40
3.579144999999999
100
AcDbArc
 50
209.026573
 51
218.6099509999999
  0
ARC
  5
293
330
18
100
AcDbEntity
  8
0
100
AcDbCircle
 10
165.370429
 20
86.37149599999998
 30
0.0
 40
4.424354
100
AcDbArc
 50
201.5347109999999
 51
209.2956469999999
  0
ARC
  5
294
330
18
100
AcDbEntity
  8
0
100
AcDbCircle
 10
144.821886
 20
78.30617099999999
 30
0.0
 40
17.650348
100
AcDbArc
 50
21.403832
 51
24.000737
  0
ARC
  5
295
330
18
100
AcDbEntity
  8
0
100
AcDbCircle
 10
93.50075799999999
 20
56.81162
 30
0.0
 40
73.28760600000001
100
AcDbArc
 50
23.032321
 51
23.54723099999999
  0
ARC
  5
296
330
18
100
AcDbEntity
  8
0
100
AcDbCircle
 10
169.5142379999999
 20
89.907853
 30
0.0
 40
9.618458999999999
100
AcDbArc
 50
189.327031
 51
203.3839389999999
  0
ARC
  5
297
330
18
100
AcDbEntity
  8
0
100
AcDbCircle
 10
208.822791
 20
96.555583
 30
0.0
 40
49.485082
100
AcDbArc
 50
186.808684
 51
189.546029
  0
ARC
  5
298
330
18
100
AcDbEntity
  8
0
100
AcDbCircle
 10
-2318.802064
 20
-204.6432659999999
 30
0.0
 40
2496.022363999999
100
AcDbArc
 50
6.795219
 51
6.827093
  0
ARC
  5
299
330
18
100
AcDbEntity
  8
0
100
AcDbCircle
 10
174.29481
 20
93.83342500000001
 30
0.0
 40
14.877944
100
AcDbArc
 50
185.0739989999999
 51
186.816149
  0
ARC
  5
29A
330
18
100
AcDbEntity
  8
0
100
AcDbCircle
 10
206.1408389999999
 20
96.80593700000001
 30
0.0
 40
46.862297
100
AcDbArc
 50
184.696596
 51
185.250474
  0
ARC
  5
29B
330
18
100
AcDbEntity
  8
0
100
AcDbCircle
 10
79.75142099999999
 20
86.73850599999999
 30
0.0
 40
79.927673
100
AcDbArc
 50
4.470763999999999
 51
4.729426
  0
ARC
  5
29C
330
18
100
AcDbEntity
  8
0
100
AcDbCircle
 10
187.225347
 20
95.69109899999999
 30
0.0
 40
27.918534
100
AcDbArc
 50
184.305329
 51
184.854321
  0
ARC
  5
29D
330
18
100
AcDbEntity
  8
0
100
AcDbCircle
 10
146.947744
 20
92.727231
 30
0.0
 40
12.46809999999999
100
AcDbArc
 50
3.991991
 51
5.214997
  0
ARC
  5
29E
330
18
100
AcDbEntity
  8
0
100
AcDbCircle
 10
774.2209159999999
 20
140.7185899999999
 30
0.0
 40
616.639619
100
AcDbArc
 50
183.994126
 51
184.358094
  0
ARC
  5
29F
330
18
100
AcDbEntity
  8
0
100
AcDbCircle
 10
746.080415
 20
140.3455459999999
 30
0.0
 40
588.543623
100
AcDbArc
 50
183.4121389999999
 51
184.1487159999999
  0
ARC
  5
2A0
330
18
100
AcDbEntity
  8
0
100
AcDbCircle
 10
416.9496109999999
 20
120.6693889999999
 30
0.0
 40
258.825212
100
AcDbArc
 50
181.725913
 51
183.4005769999999
  0
LINE
  5
2A1
330
18
100
AcDbEntity
  8
0
100
AcDbLine
 10
158.242
 20
112.874
 30
0.0
 11
158.0119999999999
 21
120.452
 31
0.0
  0
ARC
  5
2A2
330
18
100
AcDbEntity
  8
0
100
AcDbCircle
 10
503.7009999999999
 20
130.8999159999999
 30
0.0
 40
345.8464809999999
100
AcDbArc
 50
180.472877
 51
181.731174
  0
ARC
  5
2A3
330
18
100
AcDbEntity
  8
0
100
AcDbCircle
 10
495.5143249999999
 20
130.893722
 30
0.0
 40
337.6600379999999
100
AcDbArc
 50
179.194445
 51
180.4832899999999
  0
LINE
  5
2A4
330
18
100
AcDbEntity
  8
0
100
AcDbLine
 10
157.888
 20
135.6409999999999
 30
0.0
 11
157.994
 21
143.2209999999999
 31
0.0
  0
ARC
  5
2A5
330
18
100
AcDbEntity
  8
0
100
AcDbCircle
 10
490.525651
 20
138.589556
 30
0.0
 40
332.5634529999999
100
AcDbArc
 50
177.8978439999999
 51
179.2019479999999
  0
ARC
  5
2A6
330
18
100
AcDbEntity
  8
0
100
AcDbCircle
 10
436.5425769999999
 20
140.5721479999999
 30
0.0
 40
278.543985
100
AcDbArc
 50
176.341134
 51
177.8980719999999
  0
LINE
  5
2A7
330
18
100
AcDbEntity
  8
0
100
AcDbLine
 10
158.566
 20
158.3479999999999
 30
0.0
 11
158.901
 21
163.58
 31
0.0
  0
ARC
  5
2A8
330
18
100
AcDbEntity
  8
0
100
AcDbCircle
 10
767.329197
 20
124.700297
 30
0.0
 40
609.669653
100
AcDbArc
 50
176.069591
 51
176.343645
  0
ARC
  5
2A9
330
18
100
AcDbEntity
  8
0
100
AcDbCircle
 10
567.465931
 20
138.257449
 30
0.0
 40
409.3472229999999
100
AcDbArc
 50
175.636948
 51
176.0452009999999
  0
ARC
  5
2AA
330
18
100
AcDbEntity
  8
0
100
AcDbCircle
 10
1665.720225999999
 20
54.853667
 30
0.0
 40
1510.763877
100
AcDbArc
 50
175.585661
 51
175.651678
  0
ARC
  5
2AB
330
18
100
AcDbEntity
  8
0
100
AcDbCircle
 10
189.294712
 20
168.819897
 30
0.0
 40
29.946334
100
AcDbArc
 50
174.4873049999999
 51
175.5671149999999
  0
ARC
  5
2AC
330
18
100
AcDbEntity
  8
0
100
AcDbCircle
 10
187.8023109999999
 20
168.9967409999999
 30
0.0
 40
28.443865
100
AcDbArc
 50
173.414243
 51
174.553086
  0
ARC
  5
2AD
330
18
100
AcDbEntity
  8
0
100
AcDbCircle
 10
1105.047738
 20
61.16182399999999
 30
0.0
 40
952.006225
100
AcDbArc
 50
173.211558
 51
173.298413
  0
ARC
  5
2AE
330
18
100
AcDbEntity
  8
0
100
AcDbCircle
 10
199.773331
 20
168.957493
 30
0.0
 40
40.336531
100
AcDbArc
 50
169.891755
 51
173.2591509999999
  0
ARC
  5
2AF
330
18
100
AcDbEntity
  8
0
100
AcDbCircle
 10
169.8748249999999
 20
174.292551
 30
0.0
 40
9.965764999999999
100
AcDbArc
 50
156.31521
 51
169.919458
  0
LINE
  5
2B0
330
18
100
AcDbEntity
  8
0
100
AcDbLine
 10
160.7479999999999
 20
178.2959999999999
 30
0.0
 11
161.274
 21
179.4779999999999
 31
0.0
  0
ARC
  5
2B1
330
18
100
AcDbEntity
  8
0
100
AcDbCircle
 10
165.675249
 20
177.5141129999999
 30
0.0
 40
4.819422
100
AcDbArc
 50
152.948678
 51
155.949762
  0
ARC
  5
2B2
330
18
100
AcDbEntity
  8
0
100
AcDbCircle
 10
183.010739
 20
168.500431
 30
0.0
 40
24.358143
100
AcDbArc
 50
152.0178679999999
 51
152.610883
  0
ARC
  5
2B3
330
18
100
AcDbEntity
  8
0
100
AcDbCircle
 10
173.3102409999999
 20
173.545443
 30
0.0
 40
13.424936
100
AcDbArc
 50
149.81001
 51
151.607232
  0
ARC
  5
2B4
330
18
100
AcDbEntity
  8
0
100
AcDbCircle
 10
203.625558
 20
156.382623
 30
0.0
 40
48.260753
100
AcDbArc
 50
149.4328659999999
 51
150.2964419999999
  0
ARC
  5
2B5
330
18
100
AcDbEntity
  8
0
100
AcDbCircle
 10
163.053264
 20
180.350272
 30
0.0
 40
1.13795
100
AcDbArc
 50
126.558606
 51
149.635737
  0
ARC
  5
2B6
330
18
100
AcDbEntity
  8
0
100
AcDbCircle
 10
162.732665
 20
180.7217579999999
 30
0.0
 40
0.649604
100
AcDbArc
 50
100.926343
 51
123.359944
  0
ARC
  5
2B7
330
18
100
AcDbEntity
  8
0
100
AcDbCircle
 10
158.5276629999999
 20
202.847633
 30
0.0
 40
21.872308
100
AcDbArc
 50
280.7557689999999
 51
282.476896
  0
LINE
  5
2B8
330
18
100
AcDbEntity
  8
0
100
AcDbLine
 10
163.2529999999999
 20
181.492
 30
0.0
 11
163.904
 21
181.6349999999999
 31
0.0
  0
ARC
  5
2B9
330
18
100
AcDbEntity
  8
0
100
AcDbCircle
 10
178.883135
 20
112.463018
 30
0.0
 40
70.77488000000001
100
AcDbArc
 50
101.6803469999999
 51
102.219145
  0
ARC
  5
2BA
330
18
100
AcDbEntity
  8
0
100
AcDbCircle
 10
123.136296
 20
384.66982
 30
0.0
 40
207.0818179999999
100
AcDbArc
 50
281.537529
 51
281.7031589999999
  0
ARC
  5
2BB
330
18
100
AcDbEntity
  8
0
100
AcDbCircle
 10
164.0496169999999
 20
187.153812
 30
0.0
 40
5.372936
100
AcDbArc
 50
281.7199059999999
 51
287.878626
  0
ARC
  5
2BC
330
18
100
AcDbEntity
  8
0
100
AcDbCircle
 10
166.1373189999999
 20
180.625006
 30
0.0
 40
1.481619
100
AcDbArc
 50
97.057791
 51
107.203065
  0
ARC
  5
2BD
330
18
100
AcDbEntity
  8
0
100
AcDbCircle
 10
166.3925499999999
 20
178.651418
 30
0.0
 40
3.47163
100
AcDbArc
 50
87.70687499999999
 51
97.23606500000002
  0
LINE
  5
2BE
330
18
100
AcDbEntity
  8
0
  6
AIGENLINE001
100
AcDbLine
 10
155.708
 20
174.868
 30
0.0
 11
151.389
 21
174.868
 31
0.0
  0
LINE
  5
2BF
330
18
100
AcDbEntity
  8
0
100
AcDbLine
 10
164.338
 20
270.8559999999999
 30
0.0
 11
166.549
 21
271.448
 31
0.0
  0
LINE
  5
2C0
330
18
100
AcDbEntity
  8
0
100
AcDbLine
 10
166.549
 20
271.448
 30
0.0
 11
164.338
 21
272.041
 31
0.0
  0
LINE
  5
2C1
330
18
100
AcDbEntity
  8
0
100
AcDbLine
 10
164.338
 20
272.041
 30
0.0
 11
164.338
 21
270.8559999999999
 31
0.0
  0
LINE
  5
2C2
330
18
100
AcDbEntity
  8
0
100
AcDbLine
 10
150.7609999999999
 20
272.026
 30
0.0
 11
148.549
 21
271.434
 31
0.0
  0
LINE
  5
2C3
330
18
100
AcDbEntity
  8
0
100
AcDbLine
 10
148.549
 20
271.434
 30
0.0
 11
150.7609999999999
 21
270.841
 31
0.0
  0
LINE
  5
2C4
330
18
100
AcDbEntity
  8
0
100
AcDbLine
 10
150.7609999999999
 20
270.841
 30
0.0
 11
150.7609999999999
 21
272.026
 31
0.0
  0
LINE
  5
2C5
330
18
100
AcDbEntity
  8
0
100
AcDbLine
 10
166.549
 20
271.434
 30
0.0
 11
148.549
 21
271.434
 31
0.0
  0
LINE
  5
2C6
330
18
100
AcDbEntity
  8
0
100
AcDbLine
 10
166.549
 20
272.134
 30
0.0
 11
166.549
 21
265.579
 31
0.0
  0
LINE
  5
2C7
330
18
100
AcDbEntity
  8
0
100
AcDbLine
 10
148.549
 20
272.134
 30
0.0
 11
148.549
 21
265.579
 31
0.0
  0
LINE
  5
2C8
330
18
100
AcDbEntity
  8
0
  6
AIGENLINE001
100
AcDbLine
 10
153.5409999999999
 20
262.644
 30
0.0
 11
153.5409999999999
 21
266.725
 31
0.0
  0
LINE
  5
2C9
330
18
100
AcDbEntity
  8
0
  6
AIGENLINE001
100
AcDbLine
 10
145.5929999999999
 20
255.879
 30
0.0
 11
150.896
 21
255.879
 31
0.0
  0
LINE
  5
2CA
330
18
100
AcDbEntity
  8
0
100
AcDbLine
 10
175.4979999999999
 20
244.09
 30
0.0
 11
176.09
 21
241.879
 31
0.0
  0
LINE
  5
2CB
330
18
100
AcDbEntity
  8
0
100
AcDbLine
 10
176.09
 20
241.879
 30
0.0
 11
176.6829999999999
 21
244.09
 31
0.0
  0
LINE
  5
2CC
330
18
100
AcDbEntity
  8
0
100
AcDbLine
 10
176.6829999999999
 20
244.09
 30
0.0
 11
175.4979999999999
 21
244.09
 31
0.0
  0
LINE
  5
2CD
330
18
100
AcDbEntity
  8
0
100
AcDbLine
 10
176.668
 20
262.667
 30
0.0
 11
176.0759999999999
 21
264.879
 31
0.0
  0
LINE
  5
2CE
330
18
100
AcDbEntity
  8
0
100
AcDbLine
 10
176.0759999999999
 20
264.879
 30
0.0
 11
175.483
 21
262.667
 31
0.0
  0
LINE
  5
2CF
330
18
100
AcDbEntity
  8
0
100
AcDbLine
 10
175.483
 20
262.667
 30
0.0
 11
176.668
 21
262.667
 31
0.0
  0
LINE
  5
2D0
330
18
100
AcDbEntity
  8
0
100
AcDbLine
 10
176.0759999999999
 20
241.879
 30
0.0
 11
176.0759999999999
 21
264.879
 31
0.0
  0
LINE
  5
2D1
330
18
100
AcDbEntity
  8
0
100
AcDbLine
 10
176.7759999999999
 20
241.879
 30
0.0
 11
166.6629999999999
 21
241.879
 31
0.0
  0
LINE
  5
2D2
330
18
100
AcDbEntity
  8
0
100
AcDbLine
 10
176.7759999999999
 20
264.879
 30
0.0
 11
167.393
 21
264.879
 31
0.0
  0
LINE
  5
2D3
330
18
100
AcDbEntity
  8
0
100
AcDbLine
 10
152.15
 20
214.9519999999999
 30
0.0
 11
149.3609999999999
 21
214.879
 31
0.0
  0
ARC
  5
2D4
330
18
100
AcDbEntity
  8
0
100
AcDbCircle
 10
149.31783
 20
216.660972
 30
0.0
 40
1.782984999999999
100
AcDbArc
 50
263.1373879999999
 51
271.3871329999999
  0
ARC
  5
2D5
330
18
100
AcDbEntity
  8
0
100
AcDbCircle
 10
149.1810659999999
 20
215.600556
 30
0.0
 40
0.713882
100
AcDbArc
 50
231.507479
 51
263.865864
  0
ARC
  5
2D6
330
18
100
AcDbEntity
  8
0
100
AcDbCircle
 10
149.1613139999999
 20
215.48845
 30
0.0
 40
0.616242
100
AcDbArc
 50
184.824777
 51
226.4507669999999
  0
ARC
  5
2D7
330
18
100
AcDbEntity
  8
0
100
AcDbCircle
 10
212.0166929999999
 20
217.501597
 30
0.0
 40
63.503021
100
AcDbArc
 50
181.661341
 51
181.86348
  0
LINE
  5
2D8
330
18
100
AcDbEntity
  8
0
100
AcDbLine
 10
148.54
 20
215.6609999999999
 30
0.0
 11
148.54
 21
215.667
 31
0.0
  0
LINE
  5
2D9
330
18
100
AcDbEntity
  8
0
100
AcDbLine
 10
148.54
 20
215.667
 30
0.0
 11
148.54
 21
215.6779999999999
 31
0.0
  0
LINE
  5
2DA
330
18
100
AcDbEntity
  8
0
100
AcDbLine
 10
164.048
 20
241.183
 30
0.0
 11
164.048
 21
239.047
 31
0.0
  0
LINE
  5
2DB
330
18
100
AcDbEntity
  8
0
100
AcDbLine
 10
163.771
 20
238.748
 30
0.0
 11
163.402
 21
238.722
 31
0.0
  0
LINE
  5
2DC
330
18
100
AcDbEntity
  8
0
100
AcDbLine
 10
152.5389999999999
 20
264.3769999999999
 30
0.0
 11
152.5389999999999
 21
220.854
 31
0.0
  0
LINE
  5
2DD
330
18
100
AcDbEntity
  8
0
100
AcDbLine
 10
148.54
 20
215.6779999999999
 30
0.0
 11
148.549
 21
264.879
 31
0.0
  0
LINE
  5
2DE
330
18
100
AcDbEntity
  8
0
100
AcDbLine
 10
152.5389999999999
 20
220.854
 30
0.0
 11
152.5389999999999
 21
215.3519999999999
 31
0.0
  0
LINE
  5
2DF
330
18
100
AcDbEntity
  8
0
100
AcDbLine
 10
148.549
 20
264.879
 30
0.0
 11
166.02
 21
264.879
 31
0.0
  0
ARC
  5
2E0
330
18
100
AcDbEntity
  8
0
100
AcDbCircle
 10
166.062222
 20
264.298183
 30
0.0
 40
0.58226
100
AcDbArc
 50
53.55413000000001
 51
94.20651600000001
  0
ARC
  5
2E1
330
18
100
AcDbEntity
  8
0
100
AcDbCircle
 10
166.1357
 20
264.4951359999999
 30
0.0
 40
0.38456
100
AcDbArc
 50
2.971356999999999
 51
44.89534299999999
  0
LINE
  5
2E2
330
18
100
AcDbEntity
  8
0
100
AcDbLine
 10
166.52
 20
264.515
 30
0.0
 11
166.52
 21
264.375
 31
0.0
  0
LINE
  5
2E3
330
18
100
AcDbEntity
  8
0
100
AcDbLine
 10
166.52
 20
264.375
 30
0.0
 11
166.52
 21
264.3699999999999
 31
0.0
  0
LINE
  5
2E4
330
18
100
AcDbEntity
  8
0
100
AcDbLine
 10
166.52
 20
264.3699999999999
 30
0.0
 11
166.52
 21
264.366
 31
0.0
  0
ARC
  5
2E5
330
18
100
AcDbEntity
  8
0
100
AcDbCircle
 10
-12596.222706
 20
632.330471
 30
0.0
 40
12768.045778
100
AcDbArc
 50
358.3199399999999
 51
358.3485529999999
  0
ARC
  5
2E6
330
18
100
AcDbEntity
  8
0
100
AcDbCircle
 10
86.49217400000001
 20
260.3117319999999
 30
0.0
 40
79.875911
100
AcDbArc
 50
349.1828139999999
 51
358.33586
  0
ARC
  5
2E7
330
18
100
AcDbEntity
  8
0
100
AcDbCircle
 10
86.01106899999999
 20
260.36133
 30
0.0
 40
80.357786
100
AcDbArc
 50
340.1143279999999
 51
349.212458
  0
LINE
  5
2E8
330
18
100
AcDbEntity
  8
0
100
AcDbLine
 10
161.5769999999999
 20
233.028
 30
0.0
 11
159.407
 21
227.035
 31
0.0
  0
ARC
  5
2E9
330
18
100
AcDbEntity
  8
0
100
AcDbCircle
 10
163.738734
 20
225.4043129999999
 30
0.0
 40
4.62853
100
AcDbArc
 50
159.3718419999999
 51
160.515933
  0
ARC
  5
2EA
330
18
100
AcDbEntity
  8
0
100
AcDbCircle
 10
122.8619679999999
 20
239.836667
 30
0.0
 40
38.721244
100
AcDbArc
 50
340.420517
 51
340.557888
  0
ARC
  5
2EB
330
18
100
AcDbEntity
  8
0
100
AcDbCircle
 10
-532.5538230000001
 20
478.364892
 30
0.0
 40
736.1911049999999
100
AcDbArc
 50
339.970546
 51
340.023847
  0
ARC
  5
2EC
330
18
100
AcDbEntity
  8
0
100
AcDbCircle
 10
73.676262
 20
257.4029429999999
 30
0.0
 40
90.94767199999999
100
AcDbArc
 50
339.083127
 51
339.946408
  0
ARC
  5
2ED
330
18
100
AcDbEntity
  8
0
100
AcDbCircle
 10
86.072298
 20
252.780662
 30
0.0
 40
77.718403
100
AcDbArc
 50
337.9919179999999
 51
339.003596
  0
LINE
  5
2EE
330
18
100
AcDbEntity
  8
0
100
AcDbLine
 10
158.127
 20
223.6569999999999
 30
0.0
 11
157.8239999999999
 21
222.9049999999999
 31
0.0
  0
ARC
  5
2EF
330
18
100
AcDbEntity
  8
0
100
AcDbCircle
 10
157.161926
 20
223.177066
 30
0.0
 40
0.7160630000000001
100
AcDbArc
 50
317.5869419999999
 51
337.664739
  0
ARC
  5
2F0
330
18
100
AcDbEntity
  8
0
100
AcDbCircle
 10
157.2024639999999
 20
223.139495
 30
0.0
 40
0.6607930000000001
100
AcDbArc
 50
295.802769
 51
317.62136
  0
ARC
  5
2F1
330
18
100
AcDbEntity
  8
0
100
AcDbCircle
 10
116.579549
 20
307.788315
 30
0.0
 40
94.552451
100
AcDbArc
 50
295.043384
 51
295.63749
  0
ARC
  5
2F2
330
18
100
AcDbEntity
  8
0
100
AcDbCircle
 10
150.3047929999999
 20
235.433345
 30
0.0
 40
14.723891
100
AcDbArc
 50
288.685815
 51
295.329464
  0
ARC
  5
2F3
330
18
100
AcDbEntity
  8
0
100
AcDbCircle
 10
151.8328709999999
 20
230.92787
 30
0.0
 40
9.966338
100
AcDbArc
 50
285.213445
 51
288.662385
  0
ARC
  5
2F4
330
18
100
AcDbEntity
  8
0
100
AcDbCircle
 10
146.5005679999999
 20
250.2946689999999
 30
0.0
 40
30.053773
100
AcDbArc
 50
281.5903759999999
 51
285.3340929999999
  0
LINE
  5
2F5
330
18
100
AcDbEntity
  8
0
  6
AIGENLINE001
100
AcDbLine
 10
159.7649999999999
 20
241.879
 30
0.0
 11
165.9629999999999
 21
241.879
 31
0.0
  0
ARC
  5
2F6
330
18
100
AcDbEntity
  8
0
100
AcDbCircle
 10
151.728525
 20
215.3498759999999
 30
0.0
 40
0.810246
100
AcDbArc
 50
347.690414
 51
0.140908
  0
ARC
  5
2F7
330
18
100
AcDbEntity
  8
0
100
AcDbCircle
 10
152.236197
 20
215.2390019999999
 30
0.0
 40
0.290608
100
AcDbArc
 50
318.550386
 51
347.70859
  0
ARC
  5
2F8
330
18
100
AcDbEntity
  8
0
100
AcDbCircle
 10
152.28726
 20
215.2061779999999
 30
0.0
 40
0.230789
100
AcDbArc
 50
291.4244229999999
 51
316.265906
  0
ARC
  5
2F9
330
18
100
AcDbEntity
  8
0
100
AcDbCircle
 10
152.162412
 20
215.529218
 30
0.0
 40
0.577113
100
AcDbArc
 50
268.7834619999999
 51
291.2480909999999
  0
ARC
  5
2FA
330
18
100
AcDbEntity
  8
0
100
AcDbCircle
 10
152.081624
 20
264.299224
 30
0.0
 40
0.5811980000000001
100
AcDbArc
 50
53.522999
 51
94.18336600000001
  0
ARC
  5
2FB
330
18
100
AcDbEntity
  8
0
100
AcDbCircle
 10
152.215062
 20
264.558467
 30
0.0
 40
0.297127
100
AcDbArc
 50
22.51247499999999
 51
44.45621699999999
  0
ARC
  5
2FC
330
18
100
AcDbEntity
  8
0
100
AcDbCircle
 10
151.851711
 20
264.4141169999999
 30
0.0
 40
0.6880810000000001
100
AcDbArc
 50
356.8724629999999
 51
22.031879
  0
ARC
  5
2FD
330
18
100
AcDbEntity
  8
0
100
AcDbCircle
 10
163.620567
 20
239.043703
 30
0.0
 40
0.426971
100
AcDbArc
 50
329.2693779999999
 51
0.401703
  0
ARC
  5
2FE
330
18
100
AcDbEntity
  8
0
100
AcDbCircle
 10
163.851244
 20
238.951752
 30
0.0
 40
0.185803
100
AcDbArc
 50
289.6122169999999
 51
317.204187
  0
ARC
  5
2FF
330
18
100
AcDbEntity
  8
0
100
AcDbCircle
 10
163.751061
 20
239.2208839999999
 30
0.0
 40
0.472965
100
AcDbArc
 50
272.4438129999999
 51
290.1010759999999
  0
LINE
  5
300
330
18
100
AcDbEntity
  8
0
100
AcDbLine
 10
46.671
 20
193.867
 30
0.0
 11
94.67109999999999
 21
193.867
 31
0.0
  0
LINE
  5
301
330
18
100
AcDbEntity
  8
0
100
AcDbLine
 10
95.6709
 20
74.8669
 30
0.0
 11
95.6709
 21
192.8679999999999
 31
0.0
  0
ARC
  5
302
330
18
100
AcDbEntity
  8
0
100
AcDbCircle
 10
94.63250399999999
 20
192.8290259999999
 30
0.0
 40
1.039120999999999
100
AcDbArc
 50
2.130487
 51
87.869503
  0
LINE
  5
303
330
18
100
AcDbEntity
  8
0
100
AcDbLine
 10
45.6705
 20
74.8669
 30
0.0
 11
45.6705
 21
192.8679999999999
 31
0.0
  0
ARC
  5
304
330
18
100
AcDbEntity
  8
0
100
AcDbCircle
 10
46.70960499999999
 20
192.828338
 30
0.0
 40
1.039806999999999
100
AcDbArc
 50
92.127519
 51
177.8329779999999
  0
LINE
  5
305
330
18
100
AcDbEntity
  8
0
100
AcDbLine
 10
46.671
 20
73.86639999999999
 30
0.0
 11
94.67109999999999
 21
73.86639999999999
 31
0.0
  0
ARC
  5
306
330
18
100
AcDbEntity
  8
0
100
AcDbCircle
 10
46.671003
 20
74.866877
 30
0.0
 40
1.000462
100
AcDbArc
 50
179.9999699999999
 51
270.00002
  0
ARC
  5
307
330
18
100
AcDbEntity
  8
0
100
AcDbCircle
 10
94.632847
 20
74.904448
 30
0.0
 40
1.038738999999999
100
AcDbArc
 50
272.11232
 51
357.927163
  0
LINE
  5
308
330
18
100
AcDbEntity
  8
0
  6
AIGENLINE001
100
AcDbLine
 10
57.4818
 20
122.3689999999999
 30
0.0
 11
54.6706
 21
122.3689999999999
 31
0.0
  0
LINE
  5
309
330
18
100
AcDbEntity
  8
0
  6
AIGENLINE001
100
AcDbLine
 10
54.6706
 20
122.3689999999999
 30
0.0
 11
51.8607
 21
122.3689999999999
 31
0.0
  0
LINE
  5
30A
330
18
100
AcDbEntity
  8
0
  6
AIGENLINE001
100
AcDbLine
 10
54.6706
 20
125.1759999999999
 30
0.0
 11
54.6706
 21
122.3689999999999
 31
0.0
  0
LINE
  5
30B
330
18
100
AcDbEntity
  8
0
  6
AIGENLINE001
100
AcDbLine
 10
54.6706
 20
122.3689999999999
 30
0.0
 11
54.6706
 21
119.5599999999999
 31
0.0
  0
LINE
  5
30C
330
18
100
AcDbEntity
  8
0
  6
AIGENLINE001
100
AcDbLine
 10
68.6708
 20
137.492
 30
0.0
 11
68.6708
 21
125.9749999999999
 31
0.0
  0
LINE
  5
30D
330
18
100
AcDbEntity
  8
0
  6
AIGENLINE001
100
AcDbLine
 10
63.0532
 20
131.867
 30
0.0
 11
68.6708
 21
131.867
 31
0.0
  0
LINE
  5
30E
330
18
100
AcDbEntity
  8
0
  6
AIGENLINE001
100
AcDbLine
 10
68.6708
 20
131.867
 30
0.0
 11
74.2898
 21
131.867
 31
0.0
  0
ARC
  5
30F
330
18
100
AcDbEntity
  8
0
100
AcDbCircle
 10
68.58268999999999
 20
131.778887
 30
0.0
 40
2.38973
100
AcDbArc
 50
2.113801
 51
87.88618900000001
  0
ARC
  5
310
330
18
100
AcDbEntity
  8
0
100
AcDbCircle
 10
68.75858499999999
 20
131.77928
 30
0.0
 40
2.389323
100
AcDbArc
 50
92.10473
 51
177.89524
  0
ARC
  5
311
330
18
100
AcDbEntity
  8
0
100
AcDbCircle
 10
68.75899699999999
 20
131.9551939999999
 30
0.0
 40
2.389749999999999
100
AcDbArc
 50
182.114267
 51
267.8857629999999
  0
ARC
  5
312
330
18
100
AcDbEntity
  8
0
100
AcDbCircle
 10
68.58308100000001
 20
131.954783
 30
0.0
 40
2.389324
100
AcDbArc
 50
272.1047669999999
 51
357.895243
  0
ARC
  5
313
330
18
100
AcDbEntity
  8
0
100
AcDbCircle
 10
68.670833
 20
131.8670299999999
 30
0.0
 40
3.750355
100
AcDbArc
 50
0.00001
 51
89.99998000000001
  0
ARC
  5
314
330
18
100
AcDbEntity
  8
0
100
AcDbCircle
 10
68.67117900000001
 20
131.867375
 30
0.0
 40
3.750011
100
AcDbArc
 50
90.00526399999998
 51
180.005274
  0
ARC
  5
315
330
18
100
AcDbEntity
  8
0
100
AcDbCircle
 10
68.670833
 20
131.8670299999999
 30
0.0
 40
3.749665
100
AcDbArc
 50
179.9999699999999
 51
270.00002
  0
ARC
  5
316
330
18
100
AcDbEntity
  8
0
100
AcDbCircle
 10
68.671177
 20
131.867376
 30
0.0
 40
3.750011
100
AcDbArc
 50
269.994756
 51
359.9947259999999
  0
ARC
  5
317
330
18
100
AcDbEntity
  8
0
100
AcDbCircle
 10
106.416882
 20
134.803061
 30
0.0
 40
50.382399
100
AcDbArc
 50
183.701159
 51
185.2246629999999
  0
ARC
  5
318
330
18
100
AcDbEntity
  8
0
100
AcDbCircle
 10
67.45624000000001
 20
131.1943139999999
 30
0.0
 40
11.255104
100
AcDbArc
 50
184.990681
 51
189.534287
  0
ARC
  5
319
330
18
100
AcDbEntity
  8
0
100
AcDbCircle
 10
64.026803
 20
130.712206
 30
0.0
 40
7.793733999999999
100
AcDbArc
 50
190.2150159999999
 51
199.1092179999999
  0
ARC
  5
31A
330
18
100
AcDbEntity
  8
0
100
AcDbCircle
 10
863.035117
 20
412.57833
 30
0.0
 40
855.0614539999999
100
AcDbArc
 50
199.4283919999999
 51
199.511642
  0
ARC
  5
31B
330
18
100
AcDbEntity
  8
0
100
AcDbCircle
 10
65.38110500000001
 20
129.918196
 30
0.0
 40
8.805785
100
AcDbArc
 50
199.426387
 51
208.044236
  0
ARC
  5
31C
330
18
100
AcDbEntity
  8
0
100
AcDbCircle
 10
65.854224
 20
130.177739
 30
0.0
 40
9.34538
100
AcDbArc
 50
208.084886
 51
216.476712
  0
ARC
  5
31D
330
18
100
AcDbEntity
  8
0
100
AcDbCircle
 10
857.7647449999998
 20
707.6690519999999
 30
0.0
 40
989.4566499999999
100
AcDbArc
 50
216.10452
 51
216.2131889999999
  0
ARC
  5
31E
330
18
100
AcDbEntity
  8
0
100
AcDbCircle
 10
68.813934
 20
129.971411
 30
0.0
 40
11.613132
100
AcDbArc
 50
216.235746
 51
228.610806
  0
ARC
  5
31F
330
18
100
AcDbEntity
  8
0
100
AcDbCircle
 10
72.95020699999999
 20
134.289714
 30
0.0
 40
17.589407
100
AcDbArc
 50
227.802797
 51
237.183883
  0
LINE
  5
320
330
18
100
AcDbEntity
  8
0
100
AcDbLine
 10
63.4177
 20
119.507
 30
0.0
 11
65.8148
 21
117.928
 31
0.0
  0
ARC
  5
321
330
18
100
AcDbEntity
  8
0
100
AcDbCircle
 10
75.412097
 20
132.47279
 30
0.0
 40
17.425725
100
AcDbArc
 50
236.581345
 51
245.3953829999999
  0
ARC
  5
322
330
18
100
AcDbEntity
  8
0
100
AcDbCircle
 10
75.69991999999999
 20
133.0225629999999
 30
0.0
 40
18.04544599999999
100
AcDbArc
 50
245.291274
 51
253.887076
  0
ARC
  5
323
330
18
100
AcDbEntity
  8
0
100
AcDbCircle
 10
-1650.647282
 20
-5827.514322999999
 30
0.0
 40
6187.458134
100
AcDbArc
 50
73.823261
 51
73.84730199999999
  0
ARC
  5
324
330
18
100
AcDbEntity
  8
0
100
AcDbCircle
 10
80.18306499999999
 20
139.189233
 30
0.0
 40
25.216428
100
AcDbArc
 50
253.8885069999999
 51
259.7821809999999
  0
ARC
  5
325
330
18
100
AcDbEntity
  8
0
100
AcDbCircle
 10
81.62976399999999
 20
146.599929
 30
0.0
 40
32.766407
100
AcDbArc
 50
259.591295
 51
264.517263
  0
ARC
  5
326
330
18
100
AcDbEntity
  8
0
100
AcDbCircle
 10
444.7964299999999
 20
3832.588559999999
 30
0.0
 40
3736.602453999999
100
AcDbArc
 50
264.374297
 51
264.4065069999999
  0
ARC
  5
327
330
18
100
AcDbEntity
  8
0
100
AcDbCircle
 10
83.279951
 20
141.133646
 30
0.0
 40
27.487528
100
AcDbArc
 50
264.3830939999999
 51
267.144137
  0
ARC
  5
328
330
18
100
AcDbEntity
  8
0
100
AcDbCircle
 10
82.14095699999999
 20
118.170973
 30
0.0
 40
4.49663
100
AcDbArc
 50
267.0612269999999
 51
284.3133819999999
  0
ARC
  5
329
330
18
100
AcDbEntity
  8
0
100
AcDbCircle
 10
-153.954798
 20
1049.486461999999
 30
0.0
 40
965.2722199999999
100
AcDbArc
 50
284.2256659999999
 51
284.307154
  0
ARC
  5
32A
330
18
100
AcDbEntity
  8
0
100
AcDbCircle
 10
83.444268
 20
118.6376909999999
 30
0.0
 40
4.627777
100
AcDbArc
 50
284.2465669999999
 51
300.787898
  0
ARC
  5
32B
330
18
100
AcDbEntity
  8
0
100
AcDbCircle
 10
83.66393100000001
 20
118.211302
 30
0.0
 40
4.149148
100
AcDbArc
 50
301.1959059999999
 51
319.2090089999999
  0
LINE
  5
32C
330
18
100
AcDbEntity
  8
0
100
AcDbLine
 10
86.80519999999999
 20
115.501
 30
0.0
 11
88.1888
 21
117.0949999999999
 31
0.0
  0
ARC
  5
32D
330
18
100
AcDbEntity
  8
0
100
AcDbCircle
 10
85.08562299999999
 20
119.774062
 30
0.0
 40
4.099607999999999
100
AcDbArc
 50
319.195629
 51
357.860556
  0
ARC
  5
32E
330
18
100
AcDbEntity
  8
0
100
AcDbCircle
 10
59.32841800000001
 20
120.4880199999999
 30
0.0
 40
29.86654099999999
100
AcDbArc
 50
358.336514
 51
3.487381999999999
  0
ARC
  5
32F
330
18
100
AcDbEntity
  8
0
100
AcDbCircle
 10
-2335.188900999999
 20
-39.575344
 30
0.0
 40
2429.727167
100
AcDbArc
 50
3.820149999999999
 51
3.849787
  0
ARC
  5
330
330
18
100
AcDbEntity
  8
0
100
AcDbCircle
 10
-63.52414599999999
 20
111.944551
 30
0.0
 40
153.021132
100
AcDbArc
 50
4.352909999999999
 51
4.532753999999999
  0
ARC
  5
331
330
18
100
AcDbEntity
  8
0
100
AcDbCircle
 10
-170.7621929999999
 20
104.4389919999999
 30
0.0
 40
260.518822
100
AcDbArc
 50
4.314401000000001
 51
4.419872999999999
  0
LINE
  5
332
330
18
100
AcDbEntity
  8
0
100
AcDbLine
 10
88.98189999999999
 20
124.516
 30
0.0
 11
88.8558
 21
126.247
 31
0.0
  0
LINE
  5
333
330
18
100
AcDbEntity
  8
0
100
AcDbLine
 10
88.8558
 20
126.247
 30
0.0
 11
88.73040000000001
 21
127.977
 31
0.0
  0
ARC
  5
334
330
18
100
AcDbEntity
  8
0
100
AcDbCircle
 10
2630.265829
 20
321.2898549999999
 30
0.0
 40
2548.876643
100
AcDbArc
 50
184.2999279999999
 51
184.349633
  0
LINE
  5
335
330
18
100
AcDbEntity
  8
0
100
AcDbLine
 10
88.5636
 20
130.182
 30
0.0
 11
88.3976
 21
132.388
 31
0.0
  0
ARC
  5
336
330
18
100
AcDbEntity
  8
0
100
AcDbCircle
 10
-2865.519604
 20
-131.9351179999999
 30
0.0
 40
2965.719705999999
100
AcDbArc
 50
5.113334
 51
5.142376
  0
ARC
  5
337
330
18
100
AcDbEntity
  8
0
100
AcDbCircle
 10
-812.2146019999998
 20
52.43093199999999
 30
0.0
 40
904.1543529999998
100
AcDbArc
 50
5.168719
 51
5.344108999999999
  0
ARC
  5
338
330
18
100
AcDbEntity
  8
0
100
AcDbCircle
 10
-77.12695899999999
 20
120.915249
 30
0.0
 40
165.883721
100
AcDbArc
 50
5.439894
 51
6.320326999999999
  0
ARC
  5
339
330
18
100
AcDbEntity
  8
0
100
AcDbCircle
 10
-5534.170084
 20
-483.6195269999999
 30
0.0
 40
5656.310113
100
AcDbArc
 50
6.321452999999999
 51
6.349472
  0
ARC
  5
33A
330
18
100
AcDbEntity
  8
0
100
AcDbCircle
 10
-153.1095089999999
 20
115.2596249999999
 30
0.0
 40
242.0263269999999
100
AcDbArc
 50
6.325690999999999
 51
6.992439999999999
  0
ARC
  5
33B
330
18
100
AcDbEntity
  8
0
100
AcDbCircle
 10
-119.537808
 20
119.26487
 30
0.0
 40
208.216762
100
AcDbArc
 50
7.023124
 51
7.738927
  0
ARC
  5
33C
330
18
100
AcDbEntity
  8
0
100
AcDbCircle
 10
2732.250884
 20
509.048949
 30
0.0
 40
2670.086688
100
AcDbArc
 50
187.7261929999999
 51
187.786447
  0
ARC
  5
33D
330
18
100
AcDbEntity
  8
0
100
AcDbCircle
 10
-205.5312439999999
 20
110.396051
 30
0.0
 40
294.6203849999999
100
AcDbArc
 50
7.742072999999999
 51
8.287002000000001
  0
ARC
  5
33E
330
18
100
AcDbEntity
  8
0
100
AcDbCircle
 10
-100.005914
 20
125.5537389999999
 30
0.0
 40
188.01231
100
AcDbArc
 50
8.351038
 51
9.089244
  0
ARC
  5
33F
330
18
100
AcDbEntity
  8
0
100
AcDbCircle
 10
2104.458848999999
 20
480.839405
 30
0.0
 40
2044.899109
100
AcDbArc
 50
189.087757
 51
189.1615309999999
  0
ARC
  5
340
330
18
100
AcDbEntity
  8
0
100
AcDbCircle
 10
-701.454565
 20
31.854633
 30
0.0
 40
796.709146
100
AcDbArc
 50
9.099535000000001
 51
9.300675
  0
ARC
  5
341
330
18
100
AcDbEntity
  8
0
100
AcDbCircle
 10
11.78819999999999
 20
148.6265549999999
 30
0.0
 40
73.97066600000001
100
AcDbArc
 50
9.327204
 51
11.40367199999999
  0
ARC
  5
342
330
18
100
AcDbEntity
  8
0
100
AcDbCircle
 10
2692.489221
 20
689.6426619999999
 30
0.0
 40
2660.77912
100
AcDbArc
 50
191.355423
 51
191.410301
  0
ARC
  5
343
330
18
100
AcDbEntity
  8
0
100
AcDbCircle
 10
24.258199
 20
153.778983
 30
0.0
 40
60.729042
100
AcDbArc
 50
11.369129
 51
13.817212
  0
ARC
  5
344
330
18
100
AcDbEntity
  8
0
100
AcDbCircle
 10
72.91939499999999
 20
165.7730209999999
 30
0.0
 40
10.611528
100
AcDbArc
 50
13.679847
 51
28.621148
  0
LINE
  5
345
330
18
100
AcDbEntity
  8
0
100
AcDbLine
 10
82.2343
 20
170.856
 30
0.0
 11
81.05119999999999
 21
173.0149999999999
 31
0.0
  0
ARC
  5
346
330
18
100
AcDbEntity
  8
0
100
AcDbCircle
 10
70.597812
 20
167.281112
 30
0.0
 40
11.92278699999999
100
AcDbArc
 50
28.746316
 51
31.93404699999999
  0
ARC
  5
347
330
18
100
AcDbEntity
  8
0
100
AcDbCircle
 10
63.016218
 20
162.5503769999999
 30
0.0
 40
20.85925199999999
100
AcDbArc
 50
31.946528
 51
37.37230800000001
  0
ARC
  5
348
330
18
100
AcDbEntity
  8
0
100
AcDbCircle
 10
75.23355399999999
 20
171.9229909999999
 30
0.0
 40
5.461033999999999
100
AcDbArc
 50
37.02957
 51
69.73389
  0
LINE
  5
349
330
18
100
AcDbEntity
  8
0
100
AcDbLine
 10
77.12520000000001
 20
177.0459999999999
 30
0.0
 11
74.31529999999999
 21
178.1179999999999
 31
0.0
  0
ARC
  5
34A
330
18
100
AcDbEntity
  8
0
100
AcDbCircle
 10
71.768575
 20
171.437534
 30
0.0
 40
7.149833
100
AcDbArc
 50
69.133256
 51
91.70553299999999
  0
ARC
  5
34B
330
18
100
AcDbEntity
  8
0
100
AcDbCircle
 10
71.68388
 20
170.709526
 30
0.0
 40
7.875714999999999
100
AcDbArc
 50
90.93199399999999
 51
111.638618
  0
ARC
  5
34C
330
18
100
AcDbEntity
  8
0
100
AcDbCircle
 10
-1191.187756
 20
3254.382521
 30
0.0
 40
3324.373841999999
100
AcDbArc
 50
292.2245479999999
 51
292.2723159999999
  0
ARC
  5
34D
330
18
100
AcDbEntity
  8
0
100
AcDbCircle
 10
69.434432
 20
169.1113389999999
 30
0.0
 40
8.502778999999998
100
AcDbArc
 50
112.25291
 51
130.798786
  0
ARC
  5
34E
330
18
100
AcDbEntity
  8
0
100
AcDbCircle
 10
69.79938299999999
 20
168.6294
 30
0.0
 40
9.106154
100
AcDbArc
 50
130.555726
 51
148.238594
  0
ARC
  5
34F
330
18
100
AcDbEntity
  8
0
100
AcDbCircle
 10
5118.295484
 20
-2971.989744
 30
0.0
 40
5954.760133
100
AcDbArc
 50
148.1148409999999
 51
148.140003
  0
ARC
  5
350
330
18
100
AcDbEntity
  8
0
100
AcDbCircle
 10
70.38914
 20
165.1565219999999
 30
0.0
 40
11.440764
100
AcDbArc
 50
148.101509
 51
160.242261
  0
ARC
  5
351
330
18
100
AcDbEntity
  8
0
100
AcDbCircle
 10
74.04361800000001
 20
163.7596169999999
 30
0.0
 40
15.352524
100
AcDbArc
 50
159.9463199999999
 51
166.6673669999999
  0
ARC
  5
352
330
18
100
AcDbEntity
  8
0
100
AcDbCircle
 10
84.27710799999999
 20
161.095309
 30
0.0
 40
25.925641
100
AcDbArc
 50
166.1532729999999
 51
168.5425659999999
  0
ARC
  5
353
330
18
100
AcDbEntity
  8
0
100
AcDbCircle
 10
-1609.50093
 20
504.492803
 30
0.0
 40
1702.312155
100
AcDbArc
 50
348.4836899999999
 51
348.539114
  0
ARC
  5
354
330
18
100
AcDbEntity
  8
0
100
AcDbCircle
 10
90.606898
 20
158.596159
 30
0.0
 40
32.62979
100
AcDbArc
 50
169.340986
 51
170.400431
  0
LINE
  5
355
330
18
100
AcDbEntity
  8
0
100
AcDbLine
 10
58.43399999999999
 20
164.0379999999999
 30
0.0
 11
58.3286
 21
163.4459999999999
 31
0.0
  0
ARC
  5
356
330
18
100
AcDbEntity
  8
0
100
AcDbCircle
 10
1088.713715999999
 20
-15.3826
 30
0.0
 40
1045.788363
100
AcDbArc
 50
170.1540629999999
 51
170.225625
  0
ARC
  5
357
330
18
100
AcDbEntity
  8
0
100
AcDbCircle
 10
102.425356
 20
154.549035
 30
0.0
 40
44.967961
100
AcDbArc
 50
170.2565469999999
 51
173.610487
  0
LINE
  5
358
330
18
100
AcDbEntity
  8
0
100
AcDbLine
 10
57.7367
 20
159.553
 30
0.0
 11
57.44600000000001
 21
156.96
 31
0.0
  0
LINE
  5
359
330
18
100
AcDbEntity
  8
0
100
AcDbLine
 10
57.44600000000001
 20
156.96
 30
0.0
 11
57.3033
 21
155.685
 31
0.0
  0
ARC
  5
35A
330
18
100
AcDbEntity
  8
0
100
AcDbCircle
 10
76.623041
 20
153.4043259999999
 30
0.0
 40
19.453889
100
AcDbArc
 50
173.266862
 51
173.6774179999999
  0
ARC
  5
35B
330
18
100
AcDbEntity
  8
0
100
AcDbCircle
 10
44.133516
 20
156.908893
 30
0.0
 40
13.224306
100
AcDbArc
 50
353.481068
 51
354.087661
  0
ARC
  5
35C
330
18
100
AcDbEntity
  8
0
100
AcDbCircle
 10
1144.494277
 20
33.372027
 30
0.0
 40
1094.049473
100
AcDbArc
 50
173.5956089999999
 51
173.6567169999999
  0
ARC
  5
35D
330
18
100
AcDbEntity
  8
0
100
AcDbCircle
 10
164.631533
 20
142.270728
 30
0.0
 40
108.153983
100
AcDbArc
 50
173.641904
 51
174.9368709999999
  0
ARC
  5
35E
330
18
100
AcDbEntity
  8
0
100
AcDbCircle
 10
210.590635
 20
138.0980539999999
 30
0.0
 40
154.302041
100
AcDbArc
 50
174.899603
 51
175.9591349999999
  0
LINE
  5
35F
330
18
100
AcDbEntity
  8
0
100
AcDbLine
 10
56.6722
 20
148.971
 30
0.0
 11
56.4758
 21
146.2609999999999
 31
0.0
  0
ARC
  5
360
330
18
100
AcDbEntity
  8
0
100
AcDbCircle
 10
159.71773
 20
138.859561
 30
0.0
 40
103.5068689999999
100
AcDbArc
 50
175.899596
 51
177.2063959999999
  0
ARC
  5
361
330
18
100
AcDbEntity
  8
0
100
AcDbCircle
 10
213.105508
 20
136.180325
 30
0.0
 40
156.9617989999999
100
AcDbArc
 50
177.179369
 51
178.2033739999999
  0
ARC
  5
362
330
18
100
AcDbEntity
  8
0
100
AcDbCircle
 10
2395.631633
 20
62.089645
 30
0.0
 40
2340.744662
100
AcDbArc
 50
178.0655979999999
 51
178.104461
  0
ARC
  5
363
330
18
100
AcDbEntity
  8
0
100
AcDbCircle
 10
135.0344259999999
 20
136.787145
 30
0.0
 40
78.91375699999999
100
AcDbArc
 50
178.0193719999999
 51
178.2336019999999
  0
ARC
  5
364
330
18
100
AcDbEntity
  8
0
100
AcDbCircle
 10
187.372509
 20
135.086531
 30
0.0
 40
131.2794189999999
100
AcDbArc
 50
178.1958389999999
 51
178.324606
  0
LINE
  5
365
330
18
100
AcDbEntity
  8
0
100
AcDbLine
 10
56.1492
 20
138.925
 30
0.0
 11
56.1079
 21
137.715
 31
0.0
  0
ARC
  5
366
330
18
100
AcDbEntity
  8
0
100
AcDbCircle
 10
4511.982474999999
 20
-14.458116
 30
0.0
 40
4458.472281999999
100
AcDbArc
 50
178.044028
 51
178.0756749999999
  0
ARC
  5
367
330
18
100
AcDbEntity
  8
0
100
AcDbCircle
 10
72.704702
 20
134.689906
 30
0.0
 40
16.68972699999999
100
AcDbArc
 50
178.0645169999999
 51
180.7214899999999
  0
ARC
  5
368
330
18
100
AcDbEntity
  8
0
100
AcDbCircle
 10
104.293159
 20
135.044381
 30
0.0
 40
48.280163
100
AcDbArc
 50
180.670098
 51
184.1496389999999
  0
ARC
  5
369
330
18
100
AcDbEntity
  8
0
100
AcDbCircle
 10
54.670566
 20
122.3688419999999
 30
0.0
 40
1.75012
100
AcDbArc
 50
0.00001
 51
89.99998000000001
  0
ARC
  5
36A
330
18
100
AcDbEntity
  8
0
100
AcDbCircle
 10
54.670566
 20
122.3688419999999
 30
0.0
 40
1.75012
100
AcDbArc
 50
90.0
 51
179.9999699999999
  0
ARC
  5
36B
330
18
100
AcDbEntity
  8
0
100
AcDbCircle
 10
54.670566
 20
122.3688419999999
 30
0.0
 40
1.750118999999999
100
AcDbArc
 50
179.9999699999999
 51
270.00002
  0
ARC
  5
36C
330
18
100
AcDbEntity
  8
0
100
AcDbCircle
 10
54.670566
 20
122.3688429999999
 30
0.0
 40
1.75012
100
AcDbArc
 50
270.00002
 51
359.9999899999999
  0
TEXT
  5
36D
330
18
100
AcDbEntity
  8
_________2
100
AcDbText
 10
34.6498
 20
60.0729
 30
0.0
 40
4.216819999999999
  1
・壁取付部には厚さ30mm以上の補強木を入れてください。
 41
0.5
100
AcDbText
  0
LINE
  5
36E
330
18
100
AcDbEntity
  8
_________2
100
AcDbLine
 10
210.0009999999999
 20
148.482
 30
0.0
 11
188.2509999999999
 21
148.482
 31
0.0
  0
LINE
  5
36F
330
18
100
AcDbEntity
  8
_________2
100
AcDbLine
 10
105.0
 20
16.9799
 30
0.0
 11
105.0
 21
-0.000344512
 31
0.0
  0
LINE
  5
370
330
18
100
AcDbEntity
  8
_________2
100
AcDbLine
 10
105.0
 20
297.002
 30
0.0
 11
105.0
 21
279.982
 31
0.0
  0
LINE
  5
371
330
18
100
AcDbEntity
  8
_________2
100
AcDbLine
 10
21.7497
 20
148.482
 30
0.0
 11
-0.000689023
 21
148.482
 31
0.0
  0
LINE
  5
372
330
18
100
AcDbEntity
  8
_________2
100
AcDbLine
 10
81.44119999999999
 20
50.87579999999999
 30
0.0
 11
79.2549
 21
50.87579999999999
 31
0.0
  0
LINE
  5
373
330
18
100
AcDbEntity
  8
_________2
100
AcDbLine
 10
81.93380000000001
 20
50.87579999999999
 30
0.0
 11
81.68170000000001
 21
50.87579999999999
 31
0.0
  0
LINE
  5
374
330
18
100
AcDbEntity
  8
_________2
100
AcDbLine
 10
82.42650000000001
 20
50.87579999999999
 30
0.0
 11
85.3514
 21
50.87579999999999
 31
0.0
  0
LINE
  5
375
330
18
100
AcDbEntity
  8
_________2
100
AcDbLine
 10
81.93380000000001
 20
50.87579999999999
 30
0.0
 11
82.186
 21
50.87579999999999
 31
0.0
  0
LINE
  5
376
330
18
100
AcDbEntity
  8
_________2
100
AcDbLine
 10
75.5376
 20
50.87579999999999
 30
0.0
 11
73.3507
 21
50.87579999999999
 31
0.0
  0
LINE
  5
377
330
18
100
AcDbEntity
  8
_________2
100
AcDbLine
 10
76.0296
 20
50.87579999999999
 30
0.0
 11
75.77809999999999
 21
50.87579999999999
 31
0.0
  0
LINE
  5
378
330
18
100
AcDbEntity
  8
_________2
100
AcDbLine
 10
76.0296
 20
51.3684
 30
0.0
 11
76.0296
 21
53.5554
 31
0.0
  0
LINE
  5
379
330
18
100
AcDbEntity
  8
_________2
100
AcDbLine
 10
76.0296
 20
50.87579999999999
 30
0.0
 11
76.0296
 21
51.128
 31
0.0
  0
LINE
  5
37A
330
18
100
AcDbEntity
  8
_________2
100
AcDbLine
 10
76.5223
 20
50.87579999999999
 30
0.0
 11
78.70919999999999
 21
50.87579999999999
 31
0.0
  0
LINE
  5
37B
330
18
100
AcDbEntity
  8
_________2
100
AcDbLine
 10
76.0296
 20
50.87579999999999
 30
0.0
 11
76.2818
 21
50.87579999999999
 31
0.0
  0
LINE
  5
37C
330
18
100
AcDbEntity
  8
_________2
100
AcDbLine
 10
76.0296
 20
50.3838
 30
0.0
 11
76.0296
 21
48.1968
 31
0.0
  0
LINE
  5
37D
330
18
100
AcDbEntity
  8
_________2
100
AcDbLine
 10
76.0296
 20
50.87579999999999
 30
0.0
 11
76.0296
 21
50.62429999999999
 31
0.0
  0
LINE
  5
37E
330
18
100
AcDbEntity
  8
_________2
100
AcDbLine
 10
79.74070000000001
 20
49.6562
 30
0.0
 11
84.9187
 21
48.7915
 31
0.0
  0
LINE
  5
37F
330
18
100
AcDbEntity
  8
_________2
100
AcDbLine
 10
79.74070000000001
 20
52.0953
 30
0.0
 11
84.9187
 21
52.96079999999999
 31
0.0
  0
LINE
  5
380
330
18
100
AcDbEntity
  8
_________2
100
AcDbLine
 10
84.9187
 20
48.7915
 30
0.0
 11
84.9187
 21
52.96079999999999
 31
0.0
  0
LINE
  5
381
330
18
100
AcDbEntity
  8
_________2
100
AcDbLine
 10
79.74070000000001
 20
49.6562
 30
0.0
 11
79.74070000000001
 21
52.0953
 31
0.0
  0
ARC
  5
382
330
18
100
AcDbEntity
  8
_________2
100
AcDbCircle
 10
75.98336299999999
 20
50.828813
 30
0.0
 40
1.267370999999999
100
AcDbArc
 50
2.123295
 51
87.909056
  0
ARC
  5
383
330
18
100
AcDbEntity
  8
_________2
100
AcDbCircle
 10
76.076527
 20
50.828847
 30
0.0
 40
1.267363
100
AcDbArc
 50
92.12178599999999
 51
177.878185
  0
ARC
  5
384
330
18
100
AcDbEntity
  8
_________2
100
AcDbCircle
 10
76.076527
 20
50.922692
 30
0.0
 40
1.267363
100
AcDbArc
 50
182.1218149999999
 51
267.878214
  0
ARC
  5
385
330
18
100
AcDbEntity
  8
_________2
100
AcDbCircle
 10
75.982714
 20
50.923374
 30
0.0
 40
1.268043999999999
100
AcDbArc
 50
272.119164
 51
357.8484849999999
  0
ARC
  5
386
330
18
100
AcDbEntity
  8
_________2
100
AcDbCircle
 10
76.029604
 20
50.875769
 30
0.0
 40
2.084984999999999
100
AcDbArc
 50
0.00001
 51
89.99998000000001
  0
ARC
  5
387
330
18
100
AcDbEntity
  8
_________2
100
AcDbCircle
 10
76.109641
 20
50.796447
 30
0.0
 40
2.165786
100
AcDbArc
 50
92.11785500000003
 51
177.9010529999999
  0
ARC
  5
388
330
18
100
AcDbEntity
  8
_________2
100
AcDbCircle
 10
76.10960799999999
 20
50.955773
 30
0.0
 40
2.165777999999999
100
AcDbArc
 50
182.117004
 51
267.8830249999999
  0
ARC
  5
389
330
18
100
AcDbEntity
  8
_________2
100
AcDbCircle
 10
75.94963299999999
 20
50.956456
 30
0.0
 40
2.166459
100
AcDbArc
 50
272.115468
 51
357.865604
  0
TEXT
  5
38A
330
18
100
AcDbEntity
  8
_________2
100
AcDbText
 10
109.305
 20
22.75049999999999
 30
0.0
 40
3.09234
  1
図番
 41
0.5
100
AcDbText
  0
LINE
  5
38B
330
18
100
AcDbEntity
  8
_________2
100
AcDbLine
 10
108.25
 20
26.9797
 30
0.0
 11
188.2509999999999
 21
26.9797
 31
0.0
  0
TEXT
  5
38C
330
18
100
AcDbEntity
  8
_________2
100
AcDbText
 10
109.305
 20
32.7503
 30
0.0
 40
3.09234
  1
品番
 41
0.5
100
AcDbText
  0
TEXT
  5
38D
330
18
100
AcDbEntity
  8
_________2
100
AcDbText
 10
109.305
 20
52.8891
 30
0.0
 40
3.09234
  1
名称
 41
0.5
100
AcDbText
  0
TEXT
  5
38E
330
18
100
AcDbEntity
  8
_________2
100
AcDbText
 10
96.54525833333334
 20
47.89299999999999
 30
0.0
 40
3.65458
  1
mm
 41
0.5
 72
     1
 11
98.068
 21
47.89299999999999
 31
0.0
100
AcDbText
  0
TEXT
  5
38F
330
18
100
AcDbEntity
  8
_________2
100
AcDbText
 10
90.3434
 20
52.8891
 30
0.0
 40
3.09234
  1
単位
 41
0.5
100
AcDbText
  0
TEXT
  5
390
330
18
100
AcDbEntity
  8
_________2
100
AcDbText
 10
90.3434
 20
40.4819
 30
0.0
 40
3.09234
  1
尺度
 41
0.5
100
AcDbText
  0
TEXT
  5
391
330
18
100
AcDbEntity
  8
_________2
100
AcDbText
 10
94.79213616666667
 20
34.28889999999999
 30
0.0
 40
3.65458
  1
1 ： 10
 41
0.5
 72
     1
 11
98.6599
 21
34.28889999999999
 31
0.0
100
AcDbText
  0
TEXT
  5
392
330
18
100
AcDbEntity
  8
_________2
100
AcDbText
 10
142.1824624999999
 20
30.17889999999999
 30
0.0
 40
3.9357
  1
AU14806
 41
0.5
 72
     1
 11
148.2499999999999
 21
30.17889999999999
 31
0.0
100
AcDbText
  0
TEXT
  5
393
330
18
100
AcDbEntity
  8
_________2
100
AcDbText
 10
142.1824624999999
 20
20.1784
 30
0.0
 40
3.9357
  1
AU14806
 41
0.5
 72
     1
 11
148.2499999999999
 21
20.1784
 31
0.0
100
AcDbText
  0
TEXT
  5
394
330
18
100
AcDbEntity
  8
_________2
100
AcDbText
 10
29.28689999999999
 20
21.7783
 30
0.0
 40
3.9357
  1
実容量：6L、重量34kg、オーバーフロー付
 41
0.5
100
AcDbText
  0
TEXT
  5
395
330
18
100
AcDbEntity
  8
_________2
100
AcDbText
 10
113.8789999999999
 20
45.2967
 30
0.0
 40
3.9357
  1
バロンバ コレクション壁掛式洗面器
 41
0.5
100
AcDbText
  0
TEXT
  5
396
330
18
100
AcDbEntity
  8
_________2
100
AcDbText
 10
44.003681
 20
34.6741
 30
0.0
 40
3.65458
  1
田尻
 41
0.5
 72
     1
 11
46.0137
 21
34.6741
 31
0.0
100
AcDbText
  0
TEXT
  5
397
330
18
100
AcDbEntity
  8
_________2
100
AcDbText
 10
25.49059066666666
 20
34.6741
 30
0.0
 40
3.65458
  1
石原
 41
0.5
 72
     1
 11
27.4397
 21
34.6741
 31
0.0
100
AcDbText
  0
TEXT
  5
398
330
18
100
AcDbEntity
  8
_________2
100
AcDbText
 10
72.486
 20
34.28889999999999
 30
0.0
 40
3.65458
  1
10.01.14
 41
0.5
100
AcDbText
  0
TEXT
  5
399
330
18
100
AcDbEntity
  8
_________2
100
AcDbText
 10
71.2933
 20
40.4819
 30
0.0
 40
3.09234
  1
日付
 41
0.5
100
AcDbText
  0
TEXT
  5
39A
330
18
100
AcDbEntity
  8
_________2
100
AcDbText
 10
34.33959999999999
 20
40.4819
 30
0.0
 40
3.09234
  1
検図
 41
0.5
100
AcDbText
  0
TEXT
  5
39B
330
18
100
AcDbEntity
  8
_________2
100
AcDbText
 10
22.7212
 20
26.28249999999999
 30
0.0
 40
3.09234
  1
備考
 41
0.5
100
AcDbText
  0
TEXT
  5
39C
330
18
100
AcDbEntity
  8
_________2
100
AcDbText
 10
22.7212
 20
40.4819
 30
0.0
 40
3.09234
  1
製図
 41
0.5
100
AcDbText
  0
TEXT
  5
39D
330
18
100
AcDbEntity
  8
_________2
100
AcDbText
 10
28.56363099999999
 20
49.00780000000001
 30
0.0
 40
4.497939999999999
  1
セラトレーディング株式会社
 41
0.5
 72
     1
 11
45.8807
 21
49.00780000000001
 31
0.0
100
AcDbText
  0
LINE
  5
39E
330
18
100
AcDbEntity
  8
_________2
100
AcDbLine
 10
188.2509999999999
 20
16.9799
 30
0.0
 11
21.7497
 21
16.9799
 31
0.0
  0
LINE
  5
39F
330
18
100
AcDbEntity
  8
_________2
100
AcDbLine
 10
21.7497
 20
16.9799
 30
0.0
 11
21.7497
 21
279.982
 31
0.0
  0
LINE
  5
3A0
330
18
100
AcDbEntity
  8
_________2
100
AcDbLine
 10
21.7497
 20
279.982
 30
0.0
 11
188.2509999999999
 21
279.982
 31
0.0
  0
LINE
  5
3A1
330
18
100
AcDbEntity
  8
_________2
100
AcDbLine
 10
188.2509999999999
 20
279.982
 30
0.0
 11
188.2509999999999
 21
16.9799
 31
0.0
  0
LINE
  5
3A2
330
18
100
AcDbEntity
  8
_________2
100
AcDbLine
 10
70.2501
 20
30.48
 30
0.0
 11
70.2501
 21
56.9798
 31
0.0
  0
LINE
  5
3A3
330
18
100
AcDbEntity
  8
_________2
100
AcDbLine
 10
89.24989999999999
 20
30.48
 30
0.0
 11
89.24989999999999
 21
56.9798
 31
0.0
  0
LINE
  5
3A4
330
18
100
AcDbEntity
  8
_________2
100
AcDbLine
 10
108.25
 20
16.9799
 30
0.0
 11
108.25
 21
56.9798
 31
0.0
  0
LINE
  5
3A5
330
18
100
AcDbEntity
  8
_________2
100
AcDbLine
 10
33.24949999999999
 20
30.48
 30
0.0
 11
33.24949999999999
 21
44.4803
 31
0.0
  0
LINE
  5
3A6
330
18
100
AcDbEntity
  8
_________2
100
AcDbLine
 10
21.7497
 20
30.48
 30
0.0
 11
108.25
 21
30.48
 31
0.0
  0
LINE
  5
3A7
330
18
100
AcDbEntity
  8
_________2
100
AcDbLine
 10
21.7497
 20
44.4803
 30
0.0
 11
108.25
 21
44.4803
 31
0.0
  0
LINE
  5
3A8
330
18
100
AcDbEntity
  8
_________2
100
AcDbLine
 10
108.25
 20
36.9795
 30
0.0
 11
188.2509999999999
 21
36.9795
 31
0.0
  0
LINE
  5
3A9
330
18
100
AcDbEntity
  8
_________2
100
AcDbLine
 10
21.7497
 20
56.9798
 30
0.0
 11
188.2509999999999
 21
56.9798
 31
0.0
  0
ENDSEC
  0
SECTION
  2
OBJECTS
  0
DICTIONARY
  5
C
330
0
100
AcDbDictionary
281
     1
  3
ACAD_GROUP
350
D
  3
ACAD_MLINESTYLE
350
1B
  3
ACAD_PLOTSTYLENAME
350
3AD
  3
ACAD_LAYOUT
350
3AF
  3
ACAD_PLOTSETTINGS
350
3B0
  0
DICTIONARY
  5
D
102
{ACAD_REACTORS
330
C
102
}
330
C
100
AcDbDictionary
281
     1
  0
DICTIONARY
  5
1B
102
{ACAD_REACTORS
330
C
102
}
330
C
100
AcDbDictionary
281
     1
  3
STANDARD
350
1C
  0
ACDBDICTIONARYWDFLT
  5
3AD
102
{ACAD_REACTORS
330
C
102
}
330
C
100
AcDbDictionary
281
     1
  3
Normal
350
3AE
100
AcDbDictionaryWithDefault
340
3AE
  0
DICTIONARY
  5
3AF
102
{ACAD_REACTORS
330
C
102
}
330
C
100
AcDbDictionary
281
     1
  3
Model
350
3B1
  3
ﾚｲｱｳﾄ1
350
3B2
  0
DICTIONARY
  5
3B0
102
{ACAD_REACTORS
330
C
102
}
330
C
100
AcDbDictionary
281
     1
  0
MLINESTYLE
  5
1C
102
{ACAD_REACTORS
330
1B
102
}
330
1B
100
AcDbMlineStyle
  2
STANDARD
 70
     0
  3

 62
   256
 51
90.0
 52
90.0
 71
     2
 49
0.5
 62
   256
  6
BYLAYER
 49
-0.5
 62
   256
  6
BYLAYER
  0
ACDBPLACEHOLDER
  5
3AE
102
{ACAD_REACTORS
330
3AD
102
}
330
3AD
  0
LAYOUT
  5
3B1
102
{ACAD_REACTORS
330
3AF
102
}
330
3AF
100
AcDbPlotSettings
  1

  2
Canon LASER SHOT LBP-880
  4

  6

 40
0.0
 41
0.0
 42
0.0
 43
0.0
 44
0.0
 45
0.0
 46
0.0
 47
0.0
 48
0.0
 49
0.0
140
0.0
141
0.0
142
1.0
143
1.0
 70
  1712
 72
     0
 73
     0
 74
     0
  7

 75
     0
147
1.0
148
0.0
149
0.0
100
AcDbLayout
  1
Model
 70
     1
 71
     0
 10
0.0
 20
0.0
 11
12.0
 21
9.0
 12
0.0
 22
0.0
 32
0.0
 14
0.0
 24
0.0
 34
0.0
 15
0.0
 25
0.0
 35
0.0
146
0.0
 13
0.0
 23
0.0
 33
0.0
 16
1.0
 26
0.0
 36
0.0
 17
0.0
 27
1.0
 37
0.0
 76
     0
330
18
  0
LAYOUT
  5
3B2
102
{ACAD_REACTORS
330
3AF
102
}
330
3AF
100
AcDbPlotSettings
  1

  2
Canon LASER SHOT LBP-880
  4

  6

 40
0.0
 41
0.0
 42
0.0
 43
0.0
 44
0.0
 45
0.0
 46
0.0
 47
0.0
 48
0.0
 49
0.0
140
0.0
141
0.0
142
1.0
143
1.0
 70
   688
 72
     0
 73
     0
 74
     5
  7

 75
    16
147
1.0
148
0.0
149
0.0
100
AcDbLayout
  1
ﾚｲｱｳﾄ1
 70
     1
 71
     1
 10
0.0
 20
0.0
 11
12.0
 21
9.0
 12
0.0
 22
0.0
 32
0.0
 14
1.000000000000000E+20
 24
1.000000000000000E+20
 34
1.000000000000000E+20
 15
-1.000000000000000E+20
 25
-1.000000000000000E+20
 35
-1.000000000000000E+20
146
0.0
 13
0.0
 23
0.0
 33
0.0
 16
1.0
 26
0.0
 36
0.0
 17
0.0
 27
1.0
 37
0.0
 76
     0
330
15
  0
ENDSEC
  0
EOF
