  0
SECTION
  2
HEADER
  9
$ACADVER
  1
AC1009
  9
$INSBASE
 10
0.0
 20
0.0
 30
0.0
  9
$EXTMIN
 10
-4.70052
 20
-21.071400000000001
 30
0.0
  9
$EXTMAX
 10
205.30099999999999
 20
275.93099999999993
 30
0.0
  9
$LIMMIN
 10
0.0
 20
0.0
  9
$LIMMAX
 10
12.0
 20
9.0
  9
$ORTHOMODE
 70
     0
  9
$REGENMODE
 70
     1
  9
$FILLMODE
 70
     1
  9
$QTEXTMODE
 70
     0
  9
$MIRRTEXT
 70
     1
  9
$DRAGMODE
 70
     2
  9
$LTSCALE
 40
1.0
  9
$OSMODE
 70
    37
  9
$ATTMODE
 70
     1
  9
$TEXTSIZE
 40
0.0
  9
$TRACEWID
 40
0.05
  9
$TEXTSTYLE
  7
STANDARD
  9
$CLAYER
  8
0
  9
$CELTYPE
  6
CONTINUOUS
  9
$CECOLOR
 62
   256
  9
$DIMSCALE
 40
1.0
  9
$DIMASZ
 40
0.18
  9
$DIMEXO
 40
0.0625
  9
$DIMDLI
 40
0.38
  9
$DIMRND
 40
0.0
  9
$DIMDLE
 40
0.0
  9
$DIMEXE
 40
0.18
  9
$DIMTP
 40
0.0
  9
$DIMTM
 40
0.0
  9
$DIMTXT
 40
0.18
  9
$DIMCEN
 40
0.09
  9
$DIMTSZ
 40
0.0
  9
$DIMTOL
 70
     0
  9
$DIMLIM
 70
     0
  9
$DIMTIH
 70
     1
  9
$DIMTOH
 70
     1
  9
$DIMSE1
 70
     0
  9
$DIMSE2
 70
     0
  9
$DIMTAD
 70
     0
  9
$DIMZIN
 70
     0
  9
$DIMBLK
  1

  9
$DIMASO
 70
     1
  9
$DIMSHO
 70
     1
  9
$DIMPOST
  1

  9
$DIMAPOST
  1

  9
$DIMALT
 70
     0
  9
$DIMALTD
 70
     2
  9
$DIMALTF
 40
25.399999999999999
  9
$DIMLFAC
 40
1.0
  9
$DIMTOFL
 70
     0
  9
$DIMTVP
 40
0.0
  9
$DIMTIX
 70
     0
  9
$DIMSOXD
 70
     0
  9
$DIMSAH
 70
     0
  9
$DIMBLK1
  1

  9
$DIMBLK2
  1

  9
$DIMSTYLE
  2
STANDARD
  9
$DIMCLRD
 70
     0
  9
$DIMCLRE
 70
     0
  9
$DIMCLRT
 70
     0
  9
$DIMTFAC
 40
1.0
  9
$DIMGAP
 40
0.09
  9
$LUNITS
 70
     2
  9
$LUPREC
 70
     4
  9
$SKETCHINC
 40
0.1
  9
$FILLETRAD
 40
0.0
  9
$AUNITS
 70
     0
  9
$AUPREC
 70
     0
  9
$MENU
  1
.
  9
$ELEVATION
 40
0.0
  9
$PELEVATION
 40
0.0
  9
$THICKNESS
 40
0.0
  9
$LIMCHECK
 70
     0
  9
$BLIPMODE
 70
     0
  9
$CHAMFERA
 40
0.0
  9
$CHAMFERB
 40
0.0
  9
$SKPOLY
 70
     0
  9
$TDCREATE
 40
2444972.375
  9
$TDUPDATE
 40
2454037.2543928931
  9
$TDINDWG
 40
0.000017581
  9
$TDUSRTIMER
 40
0.000017581
  9
$USRTIMER
 70
     1
  9
$ANGBASE
 50
0.0
  9
$ANGDIR
 70
     0
  9
$PDMODE
 70
     0
  9
$PDSIZE
 40
0.0
  9
$PLINEWID
 40
0.0
  9
$COORDS
 70
     1
  9
$SPLFRAME
 70
     0
  9
$SPLINETYPE
 70
     6
  9
$SPLINESEGS
 70
     8
  9
$ATTDIA
 70
     0
  9
$ATTREQ
 70
     1
  9
$HANDLING
 70
     1
  9
$HANDSEED
  5
236
  9
$SURFTAB1
 70
     6
  9
$SURFTAB2
 70
     6
  9
$SURFTYPE
 70
     6
  9
$SURFU
 70
     6
  9
$SURFV
 70
     6
  9
$UCSNAME
  2

  9
$UCSORG
 10
0.0
 20
0.0
 30
0.0
  9
$UCSXDIR
 10
1.0
 20
0.0
 30
0.0
  9
$UCSYDIR
 10
0.0
 20
1.0
 30
0.0
  9
$PUCSNAME
  2

  9
$PUCSORG
 10
0.0
 20
0.0
 30
0.0
  9
$PUCSXDIR
 10
1.0
 20
0.0
 30
0.0
  9
$PUCSYDIR
 10
0.0
 20
1.0
 30
0.0
  9
$USERI1
 70
     0
  9
$USERI2
 70
     0
  9
$USERI3
 70
     0
  9
$USERI4
 70
     0
  9
$USERI5
 70
     0
  9
$USERR1
 40
0.0
  9
$USERR2
 40
0.0
  9
$USERR3
 40
0.0
  9
$USERR4
 40
0.0
  9
$USERR5
 40
0.0
  9
$WORLDVIEW
 70
     1
  9
$SHADEDGE
 70
     3
  9
$SHADEDIF
 70
    70
  9
$TILEMODE
 70
     1
  9
$MAXACTVP
 70
    48
  9
$PLIMCHECK
 70
     0
  9
$PEXTMIN
 10
1.0000000000000000E+020
 20
1.0000000000000000E+020
 30
1.0000000000000000E+020
  9
$PEXTMAX
 10
-1.0000000000000000E+020
 20
-1.0000000000000000E+020
 30
-1.0000000000000000E+020
  9
$PLIMMIN
 10
0.0
 20
0.0
  9
$PLIMMAX
 10
12.0
 20
9.0
  9
$UNITMODE
 70
     0
  9
$VISRETAIN
 70
     1
  9
$PLINEGEN
 70
     0
  9
$PSLTSCALE
 70
     1
  0
ENDSEC
  0
SECTION
  2
TABLES
  0
TABLE
  2
VPORT
 70
     2
  0
VPORT
  2
*ACTIVE
 70
     0
 10
0.0
 20
0.0
 11
1.0
 21
1.0
 12
159.8852052981108
 22
127.4297999999999
 13
0.0
 23
0.0
 14
1.0
 24
1.0
 15
0.0
 25
0.0
 16
0.0
 26
0.0
 36
1.0
 17
0.0
 27
0.0
 37
0.0
 40
299.81314826498419
 41
2.1842105263157889
 42
50.0
 43
0.0
 44
0.0
 50
0.0
 51
0.0
 71
     0
 72
   100
 73
     1
 74
     1
 75
     0
 76
     0
 77
     0
 78
     0
  0
ENDTAB
  0
TABLE
  2
LTYPE
 70
     3
  0
LTYPE
  2
CONTINUOUS
 70
     0
  3
Solid line
 72
    65
 73
     0
 40
0.0
  0
LTYPE
  2
AIGENLINE001
 70
     0
  3
generate AI->DXF Converter
 72
    65
 73
     4
 40
5.8561449999999988
 49
3.5278
 49
-0.776115
 49
0.776115
 49
-0.776115
  0
LTYPE
  2
AIGENLINE002
 70
     0
  3
generate AI->DXF Converter
 72
    65
 73
     2
 40
1.5522299999999991
 49
0.776115
 49
-0.776115
  0
ENDTAB
  0
TABLE
  2
LAYER
 70
     4
  0
LAYER
  2
0
 70
     0
 62
     7
  6
CONTINUOUS
  0
LAYER
  2
____
 70
     0
 62
     7
  6
CONTINUOUS
  0
LAYER
  2
_________1
 70
     0
 62
     7
  6
CONTINUOUS
  0
LAYER
  2
_________2
 70
     0
 62
     7
  6
CONTINUOUS
  0
ENDTAB
  0
TABLE
  2
STYLE
 70
     1
  0
STYLE
  2
STANDARD
 70
     0
 40
0.0
 41
0.0
 50
0.0
 71
     0
 42
0.0
  3
TXT
  4
EXTFONT.SHX
  0
ENDTAB
  0
TABLE
  2
VIEW
 70
     0
  0
ENDTAB
  0
TABLE
  2
UCS
 70
     0
  0
ENDTAB
  0
TABLE
  2
APPID
 70
     1
  0
APPID
  2
ACAD
 70
     0
  0
ENDTAB
  0
TABLE
  2
DIMSTYLE
 70
     1
  0
DIMSTYLE
  2
STANDARD
 70
     0
  3

  4

  5

  6

  7

 40
1.0
 41
0.18
 42
0.0625
 43
0.38
 44
0.18
 45
0.0
 46
0.0
 47
0.0
 48
0.0
140
0.18
141
0.09
142
0.0
143
25.399999999999999
144
1.0
145
0.0
146
1.0
147
0.09
 71
     0
 72
     0
 73
     1
 74
     1
 75
     0
 76
     0
 77
     0
 78
     0
170
     0
171
     2
172
     0
173
     0
174
     0
175
     0
176
     0
177
     0
178
     0
  0
ENDTAB
  0
ENDSEC
  0
SECTION
  2
BLOCKS
  0
BLOCK
  8
0
  2
$MODEL_SPACE
 70
     0
 10
0.0
 20
0.0
 30
0.0
  3
$MODEL_SPACE
  1

  0
ENDBLK
  5
1A
  8
0
  0
BLOCK
 67
     1
  8
0
  2
$PAPER_SPACE
 70
     0
 10
0.0
 20
0.0
 30
0.0
  3
$PAPER_SPACE
  1

  0
ENDBLK
  5
17
 67
     1
  8
0
  0
ENDSEC
  0
SECTION
  2
ENTITIES
  0
TEXT
  5
25
  8
____
 62
     7
 10
20.353400000000001
 20
38.80749999999999
 30
0.0
 40
3.9357000000000002
  1
・壁取付部には厚さ30mm以上の補強木を入れてください。
 41
0.5
  0
TEXT
  5
26
  8
____
 62
     7
 10
168.83928750000001
 20
84.278199999999998
 30
0.0
 40
3.0923400000000001
  1
230
 41
0.5
 72
     1
 11
170.77199999999999
 21
84.278199999999998
 31
0.0
  0
TEXT
  5
27
  8
____
 62
     7
 10
112.48344
 20
115.7769999999999
 30
0.0
 40
3.0923400000000001
  1
425
 41
0.5
 72
     1
 11
114.545
 21
115.7769999999999
 31
0.0
  0
TEXT
  5
28
  8
____
 62
     7
 10
91.910434999999993
 20
115.7769999999999
 30
0.0
 40
3.0923400000000001
  1
200
 41
0.5
 72
     1
 11
93.714299999999994
 21
115.7769999999999
 31
0.0
  0
TEXT
  5
29
  8
____
 62
     7
 10
48.243134999999988
 20
115.7769999999999
 30
0.0
 40
3.0923400000000001
  1
200
 41
0.5
 72
     1
 11
50.04699999999999
 21
115.7769999999999
 31
0.0
  0
TEXT
  5
2A
  8
____
 62
     7
 10
30.7819875
 20
115.7769999999999
 30
0.0
 40
3.0923400000000001
  1
320
 41
0.5
 72
     1
 11
32.714700000000001
 21
115.7769999999999
 31
0.0
  0
TEXT
  5
2B
  8
____
 62
     7
 10
69.818240000000003
 20
115.7769999999999
 30
0.0
 40
3.0923400000000001
  1
455
 41
0.5
 72
     1
 11
71.879800000000003
 21
115.7769999999999
 31
0.0
  0
TEXT
  5
2C
  8
____
 62
     7
 10
36.2761
 20
107.2349649999999
 30
0.0
 40
3.0923400000000001
  1
180
 50
90.0
 41
0.5
 72
     2
 11
36.2761
 21
110.58499999999989
 31
0.0
  0
TEXT
  5
2D
  8
____
 62
     7
 10
28.7149
 20
107.94974499999989
 30
0.0
 40
3.0923400000000001
  1
40
 50
90.0
 41
0.5
 72
     2
 11
28.7149
 21
110.26899999999991
 31
0.0
  0
TEXT
  5
2E
  8
____
 62
     7
 10
133.501
 20
107.7007449999999
 30
0.0
 40
3.0923400000000001
  1
50
 50
90.0
 41
0.5
 72
     2
 11
133.501
 21
110.02
 31
0.0
  0
TEXT
  5
2F
  8
____
 62
     7
 10
138.96399999999991
 20
96.742035000000001
 30
0.0
 40
3.0923400000000001
  1
155
 50
90.0
 41
0.5
 72
     1
 11
138.96399999999991
 21
98.545900000000003
 31
0.0
  0
TEXT
  5
30
  8
____
 62
     7
 10
48.881
 20
204.1973725
 30
0.0
 40
3.0923400000000001
  1
90
 50
90.0
 41
0.5
 72
     1
 11
48.881
 21
205.357
 31
0.0
  0
TEXT
  5
31
  8
____
 62
     7
 10
73.060045000000002
 20
161.06399999999999
 30
0.0
 40
3.0923400000000001
  1
1600
 41
0.5
 72
     1
 11
75.379300000000001
 21
161.06399999999999
 31
0.0
  0
TEXT
  5
32
  8
____
 62
     7
 10
44.818739999999998
 20
167.434
 30
0.0
 40
3.0923400000000001
  1
745
 41
0.5
 72
     1
 11
46.880299999999998
 21
167.434
 31
0.0
  0
TEXT
  5
33
  8
____
 62
     7
 10
98.151439999999994
 20
167.434
 30
0.0
 40
3.0923400000000001
  1
855
 41
0.5
 72
     1
 11
100.21299999999989
 21
167.434
 31
0.0
  0
TEXT
  5
34
  8
____
 62
     7
 10
135.09100000000001
 20
198.5902874999999
 30
0.0
 40
3.0923400000000001
  1
230
 50
90.0
 41
0.5
 72
     1
 11
135.09100000000001
 21
200.523
 31
0.0
  0
TEXT
  5
35
  8
____
 62
     7
 10
142.208
 20
189.28313499999999
 30
0.0
 40
3.0923400000000001
  1
500
 50
90.0
 41
0.5
 72
     1
 11
142.208
 21
191.08699999999999
 31
0.0
  0
TEXT
  5
36
  8
____
 62
     7
 10
41.781187500000001
 20
215.81
 30
0.0
 40
3.0923400000000001
  1
650
 41
0.5
 72
     1
 11
43.713900000000002
 21
215.81
 31
0.0
  0
TEXT
  5
37
  8
____
 62
     7
 10
80.642079999999979
 20
186.74700000000001
 30
0.0
 40
3.0923400000000001
  1
%%c46
 41
0.5
 72
     2
 11
84.765199999999979
 21
186.74700000000001
 31
0.0
  0
TEXT
  5
38
  8
____
 62
     7
 10
80.184079999999994
 20
216.1999999999999
 30
0.0
 40
3.0923400000000001
  1
%%c35
 41
0.5
 72
     2
 11
84.307199999999995
 21
216.1999999999999
 31
0.0
  0
LINE
  5
39
  8
_________1
 62
     7
 10
43.380699999999997
 20
115.10299999999989
 30
0.0
 11
56.713700000000003
 21
115.10299999999989
 31
0.0
  0
LINE
  5
3A
  8
_________1
 62
     7
 10
56.713700000000003
 20
115.10299999999989
 30
0.0
 11
87.047600000000003
 21
115.10299999999989
 31
0.0
  0
LINE
  5
3B
  8
_________1
 62
     7
 10
100.38
 20
115.10299999999989
 30
0.0
 11
128.71100000000001
 21
115.10299999999989
 31
0.0
  0
LINE
  5
3C
  8
_________1
 62
     7
 10
102.1479999999999
 20
115.577
 30
0.0
 11
100.38
 21
115.10299999999989
 31
0.0
  0
LINE
  5
3D
  8
_________1
 62
     7
 10
100.38
 20
115.10299999999989
 30
0.0
 11
102.1479999999999
 21
114.629
 31
0.0
  0
LINE
  5
3E
  8
_________1
 62
     7
 10
102.1479999999999
 20
114.629
 30
0.0
 11
102.1479999999999
 21
115.577
 31
0.0
  0
LINE
  5
3F
  8
_________1
 62
     7
 10
126.94199999999989
 20
114.6299999999999
 30
0.0
 11
128.71100000000001
 21
115.10299999999989
 31
0.0
  0
LINE
  5
40
  8
_________1
 62
     7
 10
128.71100000000001
 20
115.10299999999989
 30
0.0
 11
126.94199999999989
 21
115.577
 31
0.0
  0
LINE
  5
41
  8
_________1
 62
     7
 10
126.94199999999989
 20
115.577
 30
0.0
 11
126.94199999999989
 21
114.6299999999999
 31
0.0
  0
LINE
  5
42
  8
_________1
 62
     7
 10
128.71100000000001
 20
104.23
 30
0.0
 11
128.71100000000001
 21
115.7699999999999
 31
0.0
  0
LINE
  5
43
  8
_________1
 62
     7
 10
87.047600000000003
 20
115.10299999999989
 30
0.0
 11
100.38
 21
115.10299999999989
 31
0.0
  0
LINE
  5
44
  8
_________1
 62
     7
 10
69.713200000000001
 20
195.67099999999991
 30
0.0
 11
70.629199999999997
 21
194.08500000000001
 31
0.0
  0
LINE
  5
45
  8
_________1
 62
     7
 10
70.629199999999997
 20
194.08500000000001
 30
0.0
 11
69.043400000000005
 21
195.00099999999989
 31
0.0
  0
LINE
  5
46
  8
_________1
 62
     7
 10
69.043400000000005
 20
195.00099999999989
 30
0.0
 11
69.713200000000001
 21
195.67099999999991
 31
0.0
  0
LINE
  5
47
  8
_________1
 62
     7
 10
73.7136
 20
190.3309999999999
 30
0.0
 11
72.797600000000003
 21
191.917
 31
0.0
  0
LINE
  5
48
  8
_________1
 62
     7
 10
72.797600000000003
 20
191.917
 30
0.0
 11
74.383700000000005
 21
191.00099999999989
 31
0.0
  0
LINE
  5
49
  8
_________1
 62
     7
 10
74.383700000000005
 20
191.00099999999989
 30
0.0
 11
73.7136
 21
190.3309999999999
 31
0.0
  0
LINE
  5
4A
  8
_________1
 62
     7
 10
63.639099999999999
 20
199.923
 30
0.0
 11
64.5548
 21
201.50899999999999
 31
0.0
  0
LINE
  5
4B
  8
_________1
 62
     7
 10
64.5548
 20
201.50899999999999
 30
0.0
 11
62.968999999999987
 21
200.5929999999999
 31
0.0
  0
LINE
  5
4C
  8
_________1
 62
     7
 10
62.968999999999987
 20
200.5929999999999
 30
0.0
 11
63.639099999999999
 21
199.923
 31
0.0
  0
LINE
  5
4D
  8
_________1
 62
     7
 10
67.120699999999999
 20
204.744
 30
0.0
 11
66.204599999999999
 21
203.15899999999999
 31
0.0
  0
LINE
  5
4E
  8
_________1
 62
     7
 10
66.204599999999999
 20
203.15899999999999
 30
0.0
 11
67.790400000000005
 21
204.0739999999999
 31
0.0
  0
LINE
  5
4F
  8
_________1
 62
     7
 10
67.790400000000005
 20
204.0739999999999
 30
0.0
 11
67.120699999999999
 21
204.744
 31
0.0
  0
LINE
  5
50
  8
_________1
 62
     7
 10
63.610799999999998
 20
214.86199999999999
 30
0.0
 11
65.379900000000006
 21
215.3359999999999
 31
0.0
  0
LINE
  5
51
  8
_________1
 62
     7
 10
65.379900000000006
 20
215.3359999999999
 30
0.0
 11
63.610799999999998
 21
215.81
 31
0.0
  0
LINE
  5
52
  8
_________1
 62
     7
 10
63.610799999999998
 20
215.81
 30
0.0
 11
63.610799999999998
 21
214.86199999999999
 31
0.0
  0
LINE
  5
53
  8
_________1
 62
     7
 10
23.816600000000001
 20
215.809
 30
0.0
 11
22.047899999999998
 21
215.3359999999999
 31
0.0
  0
LINE
  5
54
  8
_________1
 62
     7
 10
22.047899999999998
 20
215.3359999999999
 30
0.0
 11
23.816600000000001
 21
214.86199999999999
 31
0.0
  0
LINE
  5
55
  8
_________1
 62
     7
 10
23.816600000000001
 20
214.86199999999999
 30
0.0
 11
23.816600000000001
 21
215.809
 31
0.0
  0
LINE
  5
56
  8
_________1
 62
     7
 10
69.943299999999994
 20
166.28499999999991
 30
0.0
 11
71.712699999999984
 21
166.75999999999999
 31
0.0
  0
LINE
  5
57
  8
_________1
 62
     7
 10
71.712699999999984
 20
166.75999999999999
 30
0.0
 11
69.943299999999994
 21
167.23400000000001
 31
0.0
  0
LINE
  5
58
  8
_________1
 62
     7
 10
69.943299999999994
 20
167.23400000000001
 30
0.0
 11
69.943299999999994
 21
166.28499999999991
 31
0.0
  0
LINE
  5
59
  8
_________1
 62
     7
 10
126.94199999999989
 20
166.28499999999991
 30
0.0
 11
128.71100000000001
 21
166.75999999999999
 31
0.0
  0
LINE
  5
5A
  8
_________1
 62
     7
 10
128.71100000000001
 20
166.75999999999999
 30
0.0
 11
126.94199999999989
 21
167.23400000000001
 31
0.0
  0
LINE
  5
5B
  8
_________1
 62
     7
 10
126.94199999999989
 20
167.23400000000001
 30
0.0
 11
126.94199999999989
 21
166.28499999999991
 31
0.0
  0
LINE
  5
5C
  8
_________1
 62
     7
 10
126.94199999999989
 20
159.91599999999991
 30
0.0
 11
128.71100000000001
 21
160.3899999999999
 31
0.0
  0
LINE
  5
5D
  8
_________1
 62
     7
 10
128.71100000000001
 20
160.3899999999999
 30
0.0
 11
126.94199999999989
 21
160.864
 31
0.0
  0
LINE
  5
5E
  8
_________1
 62
     7
 10
126.94199999999989
 20
160.864
 30
0.0
 11
126.94199999999989
 21
159.91599999999991
 31
0.0
  0
LINE
  5
5F
  8
_________1
 62
     7
 10
23.816600000000001
 20
160.864
 30
0.0
 11
22.047899999999998
 21
160.3899999999999
 31
0.0
  0
LINE
  5
60
  8
_________1
 62
     7
 10
22.047899999999998
 20
160.3899999999999
 30
0.0
 11
23.816600000000001
 21
159.91599999999991
 31
0.0
  0
LINE
  5
61
  8
_________1
 62
     7
 10
23.816600000000001
 20
159.91599999999991
 30
0.0
 11
23.816600000000001
 21
160.864
 31
0.0
  0
LINE
  5
62
  8
_________1
 62
     7
 10
73.481399999999994
 20
167.23400000000001
 30
0.0
 11
71.712699999999984
 21
166.75999999999999
 31
0.0
  0
LINE
  5
63
  8
_________1
 62
     7
 10
71.712699999999984
 20
166.75999999999999
 30
0.0
 11
73.481399999999994
 21
166.28499999999991
 31
0.0
  0
LINE
  5
64
  8
_________1
 62
     7
 10
73.481399999999994
 20
166.28499999999991
 30
0.0
 11
73.481399999999994
 21
167.23400000000001
 31
0.0
  0
LINE
  5
65
  8
_________1
 62
     7
 10
23.816600000000001
 20
167.23400000000001
 30
0.0
 11
22.047899999999998
 21
166.75999999999999
 31
0.0
  0
LINE
  5
66
  8
_________1
 62
     7
 10
22.047899999999998
 20
166.75999999999999
 30
0.0
 11
23.816600000000001
 21
166.28499999999991
 31
0.0
  0
LINE
  5
67
  8
_________1
 62
     7
 10
23.816600000000001
 20
166.28499999999991
 30
0.0
 11
23.816600000000001
 21
167.23400000000001
 31
0.0
  0
LINE
  5
68
  8
_________1
 62
     7
 10
85.278700000000001
 20
114.6299999999999
 30
0.0
 11
87.047799999999995
 21
115.10299999999989
 31
0.0
  0
LINE
  5
69
  8
_________1
 62
     7
 10
87.047799999999995
 20
115.10299999999989
 30
0.0
 11
85.278700000000001
 21
115.577
 31
0.0
  0
LINE
  5
6A
  8
_________1
 62
     7
 10
85.278700000000001
 20
115.577
 30
0.0
 11
85.278700000000001
 21
114.6299999999999
 31
0.0
  0
LINE
  5
6B
  8
_________1
 62
     7
 10
88.816699999999983
 20
115.577
 30
0.0
 11
87.047799999999995
 21
115.10299999999989
 31
0.0
  0
LINE
  5
6C
  8
_________1
 62
     7
 10
87.047799999999995
 20
115.10299999999989
 30
0.0
 11
88.816699999999983
 21
114.629
 31
0.0
  0
LINE
  5
6D
  8
_________1
 62
     7
 10
88.816699999999983
 20
114.629
 30
0.0
 11
88.816699999999983
 21
115.577
 31
0.0
  0
LINE
  5
6E
  8
_________1
 62
     7
 10
54.944600000000001
 20
114.6299999999999
 30
0.0
 11
56.713700000000003
 21
115.10299999999989
 31
0.0
  0
LINE
  5
6F
  8
_________1
 62
     7
 10
56.713700000000003
 20
115.10299999999989
 30
0.0
 11
54.944600000000001
 21
115.577
 31
0.0
  0
LINE
  5
70
  8
_________1
 62
     7
 10
54.944600000000001
 20
115.577
 30
0.0
 11
54.944600000000001
 21
114.6299999999999
 31
0.0
  0
LINE
  5
71
  8
_________1
 62
     7
 10
58.482399999999998
 20
115.577
 30
0.0
 11
56.713700000000003
 21
115.10299999999989
 31
0.0
  0
LINE
  5
72
  8
_________1
 62
     7
 10
56.713700000000003
 20
115.10299999999989
 30
0.0
 11
58.482399999999998
 21
114.629
 31
0.0
  0
LINE
  5
73
  8
_________1
 62
     7
 10
58.482399999999998
 20
114.629
 30
0.0
 11
58.482399999999998
 21
115.577
 31
0.0
  0
LINE
  5
74
  8
_________1
 62
     7
 10
98.611700000000013
 20
114.6299999999999
 30
0.0
 11
100.38
 21
115.10299999999989
 31
0.0
  0
LINE
  5
75
  8
_________1
 62
     7
 10
100.38
 20
115.10299999999989
 30
0.0
 11
98.611700000000013
 21
115.577
 31
0.0
  0
LINE
  5
76
  8
_________1
 62
     7
 10
98.611700000000013
 20
115.577
 30
0.0
 11
98.611700000000013
 21
114.6299999999999
 31
0.0
  0
LINE
  5
77
  8
_________1
 62
     7
 10
45.149500000000003
 20
115.577
 30
0.0
 11
43.380699999999997
 21
115.10299999999989
 31
0.0
  0
LINE
  5
78
  8
_________1
 62
     7
 10
43.380699999999997
 20
115.10299999999989
 30
0.0
 11
45.149500000000003
 21
114.629
 31
0.0
  0
LINE
  5
79
  8
_________1
 62
     7
 10
45.149500000000003
 20
114.629
 30
0.0
 11
45.149500000000003
 21
115.577
 31
0.0
  0
LINE
  5
7A
  8
_________1
 62
     7
 10
41.611699999999999
 20
114.6299999999999
 30
0.0
 11
43.380699999999997
 21
115.10299999999989
 31
0.0
  0
LINE
  5
7B
  8
_________1
 62
     7
 10
43.380699999999997
 20
115.10299999999989
 30
0.0
 11
41.611699999999999
 21
115.577
 31
0.0
  0
LINE
  5
7C
  8
_________1
 62
     7
 10
41.611699999999999
 20
115.577
 30
0.0
 11
41.611699999999999
 21
114.6299999999999
 31
0.0
  0
LINE
  5
7D
  8
_________1
 62
     7
 10
23.816600000000001
 20
115.577
 30
0.0
 11
22.047899999999998
 21
115.10299999999989
 31
0.0
  0
LINE
  5
7E
  8
_________1
 62
     7
 10
22.047899999999998
 20
115.10299999999989
 30
0.0
 11
23.816600000000001
 21
114.629
 31
0.0
  0
LINE
  5
7F
  8
_________1
 62
     7
 10
23.816600000000001
 20
114.629
 30
0.0
 11
23.816600000000001
 21
115.577
 31
0.0
  0
LINE
  5
80
  8
_________1
 62
     7
 10
143.357
 20
206.565
 30
0.0
 11
142.8839999999999
 21
208.334
 31
0.0
  0
LINE
  5
81
  8
_________1
 62
     7
 10
142.8839999999999
 20
208.334
 30
0.0
 11
142.40999999999991
 21
206.565
 31
0.0
  0
LINE
  5
82
  8
_________1
 62
     7
 10
142.40999999999991
 20
206.565
 30
0.0
 11
143.357
 21
206.565
 31
0.0
  0
LINE
  5
83
  8
_________1
 62
     7
 10
142.40999999999991
 20
176.77000000000001
 30
0.0
 11
142.8839999999999
 21
175.00099999999989
 31
0.0
  0
LINE
  5
84
  8
_________1
 62
     7
 10
142.8839999999999
 20
175.00099999999989
 30
0.0
 11
143.358
 21
176.77000000000001
 31
0.0
  0
LINE
  5
85
  8
_________1
 62
     7
 10
143.358
 20
176.77000000000001
 30
0.0
 11
142.40999999999991
 21
176.77000000000001
 31
0.0
  0
LINE
  5
86
  8
_________1
 62
     7
 10
136.24000000000001
 20
206.565
 30
0.0
 11
135.76699999999991
 21
208.334
 31
0.0
  0
LINE
  5
87
  8
_________1
 62
     7
 10
135.76699999999991
 20
208.334
 30
0.0
 11
135.29300000000001
 21
206.565
 31
0.0
  0
LINE
  5
88
  8
_________1
 62
     7
 10
135.29300000000001
 20
206.565
 30
0.0
 11
136.24000000000001
 21
206.565
 31
0.0
  0
LINE
  5
89
  8
_________1
 62
     7
 10
135.29300000000001
 20
194.77000000000001
 30
0.0
 11
135.76699999999991
 21
193.00099999999989
 31
0.0
  0
LINE
  5
8A
  8
_________1
 62
     7
 10
135.76699999999991
 20
193.00099999999989
 30
0.0
 11
136.24100000000001
 21
194.77000000000001
 31
0.0
  0
LINE
  5
8B
  8
_________1
 62
     7
 10
136.24100000000001
 20
194.77000000000001
 30
0.0
 11
135.29300000000001
 21
194.77000000000001
 31
0.0
  0
LINE
  5
8C
  8
_________1
 62
     7
 10
50.365699999999997
 20
206.565
 30
0.0
 11
49.892000000000003
 21
208.334
 31
0.0
  0
LINE
  5
8D
  8
_________1
 62
     7
 10
49.892000000000003
 20
208.334
 30
0.0
 11
49.417999999999999
 21
206.565
 31
0.0
  0
LINE
  5
8E
  8
_________1
 62
     7
 10
49.417999999999999
 20
206.565
 30
0.0
 11
50.365699999999997
 21
206.565
 31
0.0
  0
LINE
  5
8F
  8
_________1
 62
     7
 10
49.418999999999997
 20
204.10299999999989
 30
0.0
 11
49.892400000000002
 21
202.334
 31
0.0
  0
LINE
  5
90
  8
_________1
 62
     7
 10
49.892400000000002
 20
202.334
 30
0.0
 11
50.366399999999999
 21
204.10299999999989
 31
0.0
  0
LINE
  5
91
  8
_________1
 62
     7
 10
50.366399999999999
 20
204.10299999999989
 30
0.0
 11
49.418999999999997
 21
204.10299999999989
 31
0.0
  0
LINE
  5
92
  8
_________1
 62
     7
 10
29.702300000000001
 20
99.579700000000017
 30
0.0
 11
29.2285
 21
101.3479999999999
 31
0.0
  0
LINE
  5
93
  8
_________1
 62
     7
 10
29.2285
 20
101.3479999999999
 30
0.0
 11
28.7545
 21
99.579700000000017
 31
0.0
  0
LINE
  5
94
  8
_________1
 62
     7
 10
28.7545
 20
99.579700000000017
 30
0.0
 11
29.702300000000001
 21
99.579700000000017
 31
0.0
  0
LINE
  5
95
  8
_________1
 62
     7
 10
28.755199999999991
 20
105.78399999999991
 30
0.0
 11
29.2285
 21
104.015
 31
0.0
  0
LINE
  5
96
  8
_________1
 62
     7
 10
29.2285
 20
104.015
 30
0.0
 11
29.7026
 21
105.78399999999991
 31
0.0
  0
LINE
  5
97
  8
_________1
 62
     7
 10
29.7026
 20
105.78399999999991
 30
0.0
 11
28.755199999999991
 21
105.78399999999991
 31
0.0
  0
LINE
  5
98
  8
_________1
 62
     7
 10
37.2605
 20
90.246600000000001
 30
0.0
 11
36.787100000000002
 21
92.015299999999996
 31
0.0
  0
LINE
  5
99
  8
_________1
 62
     7
 10
36.787100000000002
 20
92.015299999999996
 30
0.0
 11
36.313099999999999
 21
90.246600000000001
 31
0.0
  0
LINE
  5
9A
  8
_________1
 62
     7
 10
36.313099999999999
 20
90.246600000000001
 30
0.0
 11
37.2605
 21
90.246600000000001
 31
0.0
  0
LINE
  5
9B
  8
_________1
 62
     7
 10
36.313400000000001
 20
105.78399999999991
 30
0.0
 11
36.787100000000002
 21
104.015
 31
0.0
  0
LINE
  5
9C
  8
_________1
 62
     7
 10
36.787100000000002
 20
104.015
 30
0.0
 11
37.261200000000002
 21
105.78399999999991
 31
0.0
  0
LINE
  5
9D
  8
_________1
 62
     7
 10
37.261200000000002
 20
105.78399999999991
 30
0.0
 11
36.313400000000001
 21
105.78399999999991
 31
0.0
  0
LINE
  5
9E
  8
_________1
 62
     7
 10
134.71100000000001
 20
98.9131
 30
0.0
 11
134.238
 21
100.682
 31
0.0
  0
LINE
  5
9F
  8
_________1
 62
     7
 10
134.238
 20
100.682
 30
0.0
 11
133.76400000000001
 21
98.9131
 31
0.0
  0
LINE
  5
A0
  8
_________1
 62
     7
 10
133.76400000000001
 20
98.9131
 30
0.0
 11
134.71100000000001
 21
98.9131
 31
0.0
  0
LINE
  5
A1
  8
_________1
 62
     7
 10
139.953
 20
102.246
 30
0.0
 11
139.4789999999999
 21
104.015
 31
0.0
  0
LINE
  5
A2
  8
_________1
 62
     7
 10
139.4789999999999
 20
104.015
 30
0.0
 11
139.005
 21
102.246
 31
0.0
  0
LINE
  5
A3
  8
_________1
 62
     7
 10
139.005
 20
102.246
 30
0.0
 11
139.953
 21
102.246
 31
0.0
  0
LINE
  5
A4
  8
_________1
 62
     7
 10
133.76400000000001
 20
105.78399999999991
 30
0.0
 11
134.238
 21
104.015
 31
0.0
  0
LINE
  5
A5
  8
_________1
 62
     7
 10
134.238
 20
104.015
 30
0.0
 11
134.71199999999999
 21
105.78399999999991
 31
0.0
  0
LINE
  5
A6
  8
_________1
 62
     7
 10
134.71199999999999
 20
105.78399999999991
 30
0.0
 11
133.76400000000001
 21
105.78399999999991
 31
0.0
  0
LINE
  5
A7
  8
_________1
 62
     7
 10
139.006
 20
95.450400000000002
 30
0.0
 11
139.4789999999999
 21
93.681700000000006
 31
0.0
  0
LINE
  5
A8
  8
_________1
 62
     7
 10
139.4789999999999
 20
93.681700000000006
 30
0.0
 11
139.953
 21
95.450400000000002
 31
0.0
  0
LINE
  5
A9
  8
_________1
 62
     7
 10
139.953
 20
95.450400000000002
 30
0.0
 11
139.006
 21
95.450400000000002
 31
0.0
  0
LINE
  5
AA
  8
_________1
 62
     7
 10
164.874
 20
84.078400000000002
 30
0.0
 11
163.1049999999999
 21
83.605099999999993
 31
0.0
  0
LINE
  5
AB
  8
_________1
 62
     7
 10
163.1049999999999
 20
83.605099999999993
 30
0.0
 11
164.874
 21
83.131
 31
0.0
  0
LINE
  5
AC
  8
_________1
 62
     7
 10
164.874
 20
83.131
 30
0.0
 11
164.874
 21
84.078400000000002
 31
0.0
  0
LINE
  5
AD
  8
_________1
 62
     7
 10
176.66900000000001
 20
83.131399999999999
 30
0.0
 11
178.4379999999999
 21
83.605099999999993
 31
0.0
  0
LINE
  5
AE
  8
_________1
 62
     7
 10
178.4379999999999
 20
83.605099999999993
 30
0.0
 11
176.66900000000001
 21
84.079099999999997
 31
0.0
  0
LINE
  5
AF
  8
_________1
 62
     7
 10
176.66900000000001
 20
84.079099999999997
 30
0.0
 11
176.66900000000001
 21
83.131399999999999
 31
0.0
  0
ARC
  5
B0
  8
_________1
 62
     7
 10
76.233699999999999
 20
93.556792999999999
 30
0.0
 40
2.9319319999999989
 50
39.986404999999998
 51
55.677602999999998
  0
ARC
  5
B1
  8
_________1
 62
     7
 10
73.558644000000001
 20
91.145544999999998
 30
0.0
 40
6.5322969999999989
 50
29.27804699999999
 51
41.11342299999999
  0
ARC
  5
B2
  8
_________1
 62
     7
 10
67.788718000000003
 20
87.651568999999995
 30
0.0
 40
13.275798
 50
26.148871
 51
30.252911999999998
  0
ARC
  5
B3
  8
_________1
 62
     7
 10
54.167656999999998
 20
81.055537999999999
 30
0.0
 40
28.409793000000001
 50
22.688020999999988
 51
25.983637999999988
  0
ARC
  5
B4
  8
_________1
 62
     7
 10
68.150043000000011
 20
93.171031999999997
 30
0.0
 40
3.7685070000000001
 50
120.239043
 51
134.30624399999991
  0
ARC
  5
B5
  8
_________1
 62
     7
 10
70.311153000000004
 20
90.815118999999996
 30
0.0
 40
6.9646639999999991
 50
133.49125000000001
 51
144.845225
  0
ARC
  5
B6
  8
_________1
 62
     7
 10
75.059291000000002
 20
87.296801000000016
 30
0.0
 40
12.873332
 50
144.210272
 51
152.7328399999999
  0
ARC
  5
B7
  8
_________1
 62
     7
 10
80.312581999999992
 20
84.409343000000007
 30
0.0
 40
18.866413999999999
 50
152.24734599999999
 51
156.230603
  0
ARC
  5
B8
  8
_________1
 62
     7
 10
104.681867
 20
100.77015
 30
0.0
 40
3.819172
 50
278.28183799999999
 51
284.08721800000001
  0
ARC
  5
B9
  8
_________1
 62
     7
 10
102.789507
 20
112.745544
 30
0.0
 40
15.942945
 50
275.422775
 51
278.81251099999992
  0
ARC
  5
BA
  8
_________1
 62
     7
 10
99.101354000000015
 20
150.05237
 30
0.0
 40
53.431547999999999
 50
273.6418109999999
 51
275.57934199999988
  0
ARC
  5
BB
  8
_________1
 62
     7
 10
91.367193000000015
 20
269.91346900000002
 30
0.0
 40
173.541901
 50
272.07787999999999
 51
273.67651999999998
  0
ARC
  5
BC
  8
_________1
 62
     7
 10
67.335922999999994
 20
940.61401599999988
 30
0.0
 40
844.67810799999995
 50
271.12164799999999
 51
271.79402399999998
  0
ARC
  5
BD
  8
_________1
 62
     7
 10
123.03928000000001
 20
-2030.2919999999999
 30
0.0
 40
2126.7460000000001
 50
91.135307999999995
 51
91.302827999999991
  0
ARC
  5
BE
  8
_________1
 62
     7
 10
98.202741000000003
 20
96.559511000000015
 30
0.0
 40
0.534814
 50
95.324347000000003
 51
174.42971900000001
  0
ARC
  5
BF
  8
_________1
 62
     7
 10
93.226788999999997
 20
96.559919999999991
 30
0.0
 40
0.532602
 50
4.6190280000000001
 51
86.163487000000003
  0
LINE
  5
C0
  8
_________1
 62
     7
 10
93.2624
 20
97.091300000000004
 30
0.0
 11
93.252999999999986
 21
97.092000000000013
 31
0.0
  0
ARC
  5
C1
  8
_________1
 62
     7
 10
84.506291999999988
 20
96.545663000000005
 30
0.0
 40
0.547641
 50
93.929456000000002
 51
168.09653399999999
  0
ARC
  5
C2
  8
_________1
 62
     7
 10
80.252537000000004
 20
96.543406000000004
 30
0.0
 40
0.5499850000000001
 50
13.195885999999989
 51
85.949386000000004
  0
LINE
  5
C3
  8
_________1
 62
     7
 10
97.380500000000012
 20
92.014600000000002
 30
0.0
 11
97.672999999999973
 21
96.634500000000003
 31
0.0
  0
LINE
  5
C4
  8
_________1
 62
     7
 10
94.047099999999986
 20
92.014600000000002
 30
0.0
 11
93.753999999999991
 21
96.639700000000005
 31
0.0
  0
LINE
  5
C5
  8
_________1
 62
     7
 10
83.381
 20
92.013900000000007
 30
0.0
 11
83.970399999999998
 21
96.658600000000021
 31
0.0
  0
LINE
  5
C6
  8
_________1
 62
     7
 10
81.379000000000005
 20
92.013900000000007
 30
0.0
 11
80.787999999999997
 21
96.668999999999997
 31
0.0
  0
ARC
  5
C7
  8
_________1
 62
     7
 10
45.224111000000001
 20
96.558116999999996
 30
0.0
 40
0.535323
 50
5.640765
 51
86.999483999999995
  0
ARC
  5
C8
  8
_________1
 62
     7
 10
50.201158
 20
96.558511999999993
 30
0.0
 40
0.5334820000000001
 50
92.862577999999985
 51
175.31107
  0
ARC
  5
C9
  8
_________1
 62
     7
 10
58.92118
 20
96.544966000000016
 30
0.0
 40
0.547638
 50
11.904425
 51
86.089155000000005
  0
ARC
  5
CA
  8
_________1
 62
     7
 10
63.171970000000002
 20
96.54441700000001
 30
0.0
 40
0.548227
 50
93.970090999999996
 51
166.9434949999999
  0
ARC
  5
CB
  8
_________1
 62
     7
 10
74.705978999999999
 20
95.377565000000004
 30
0.0
 40
0.527732
 50
92.412096000000005
 51
177.587874
  0
LINE
  5
CC
  8
_________1
 62
     7
 10
46.046900000000001
 20
92.013900000000007
 30
0.0
 11
45.754800000000003
 21
96.634200000000021
 31
0.0
  0
LINE
  5
CD
  8
_________1
 62
     7
 10
49.380099999999999
 20
92.013900000000007
 30
0.0
 11
49.673299999999998
 21
96.638599999999997
 31
0.0
  0
LINE
  5
CE
  8
_________1
 62
     7
 10
60.046500000000002
 20
92.013599999999997
 30
0.0
 11
59.457000000000001
 21
96.657900000000012
 31
0.0
  0
LINE
  5
CF
  8
_________1
 62
     7
 10
62.046399999999998
 20
92.013599999999997
 30
0.0
 11
62.637900000000002
 21
96.668300000000002
 31
0.0
  0
ARC
  5
D0
  8
_________1
 62
     7
 10
65.292331000000004
 20
97.662850000000006
 30
0.0
 40
0.805076
 50
225.22667000000001
 51
237.712334
  0
ARC
  5
D1
  8
_________1
 62
     7
 10
66.127868000000007
 20
98.932506000000004
 30
0.0
 40
2.3249029999999991
 50
237.019049
 51
245.88606300000001
  0
ARC
  5
D2
  8
_________1
 62
     7
 10
67.705713000000003
 20
102.38730099999999
 30
0.0
 40
6.1229139999999989
 50
245.617614
 51
251.48961800000001
  0
ARC
  5
D3
  8
_________1
 62
     7
 10
70.263807
 20
109.97339099999991
 30
0.0
 40
14.128691999999999
 50
251.41927100000001
 51
264.13686899999999
  0
LINE
  5
D4
  8
_________1
 62
     7
 10
100.38
 20
102.5479999999999
 30
0.0
 11
100.38
 21
115.7699999999999
 31
0.0
  0
LINE
  5
D5
  8
_________1
 62
     7
 10
43.380699999999997
 20
102.5479999999999
 30
0.0
 11
43.380699999999997
 21
115.7699999999999
 31
0.0
  0
LINE
  5
D6
  8
_________1
 62
     7
 10
22.047899999999998
 20
115.10299999999989
 30
0.0
 11
43.380699999999997
 21
115.10299999999989
 31
0.0
  0
LINE
  5
D7
  8
_________1
 62
     7
 10
87.047799999999995
 20
102.5479999999999
 30
0.0
 11
87.047799999999995
 21
115.7699999999999
 31
0.0
  0
LINE
  5
D8
  8
_________1
 62
     7
 10
56.713700000000003
 20
102.5479999999999
 30
0.0
 11
56.713700000000003
 21
115.7699999999999
 31
0.0
  0
ARC
  5
D9
  8
_________1
 62
     7
 10
106.3084799999999
 20
187.08623499999999
 30
0.0
 40
12.516196000000001
 50
57.673386999999991
 51
77.232589000000004
  0
ARC
  5
DA
  8
_________1
 62
     7
 10
107.974822
 20
189.9551909999999
 30
0.0
 40
9.2016850000000012
 50
51.738154999999992
 51
56.888319000000003
  0
ARC
  5
DB
  8
_________1
 62
     7
 10
73.252257999999998
 20
108.57580399999991
 30
0.0
 40
92.427625000000006
 50
89.259975999999995
 51
90.439039000000008
  0
ARC
  5
DC
  8
_________1
 62
     7
 10
70.389498000000003
 20
-185.40300999999999
 30
0.0
 40
386.42002300000001
 50
88.702998000000008
 51
89.39850899999999
  0
ARC
  5
DD
  8
_________1
 62
     7
 10
63.783971999999999
 20
-501.10462999999999
 30
0.0
 40
702.19048399999986
 50
87.131894000000003
 51
88.747225000000014
  0
ARC
  5
DE
  8
_________1
 62
     7
 10
85.638265000000004
 20
-51.722518000000001
 30
0.0
 40
252.27862099999999
 50
85.986041999999998
 51
86.982287000000014
  0
ARC
  5
DF
  8
_________1
 62
     7
 10
95.468012000000002
 20
87.505995999999996
 30
0.0
 40
112.7035689999999
 50
84.579418999999987
 51
86.016407999999998
  0
ARC
  5
E0
  8
_________1
 62
     7
 10
102.0306909999999
 20
155.96605999999991
 30
0.0
 40
43.929752000000001
 50
82.342593000000008
 51
84.665761000000003
  0
ARC
  5
E1
  8
_________1
 62
     7
 10
106.28826599999989
 20
187.04495499999999
 30
0.0
 40
12.560927
 50
77.184277000000009
 51
82.700063999999983
  0
ARC
  5
E2
  8
_________1
 62
     7
 10
108.062381
 20
190.23500300000001
 30
0.0
 40
8.9283699999999993
 50
28.206575000000001
 51
51.067378000000012
  0
ARC
  5
E3
  8
_________1
 62
     7
 10
109.48843599999999
 20
191.18705800000001
 30
0.0
 40
7.2235539999999991
 50
359.83659
 51
26.897950000000002
  0
ARC
  5
E4
  8
_________1
 62
     7
 10
78.578029999999998
 20
184.69086399999989
 30
0.0
 40
18.531188
 50
166.78930700000001
 51
179.9782129999999
  0
ARC
  5
E5
  8
_________1
 62
     7
 10
85.077882999999986
 20
183.43700899999999
 30
0.0
 40
25.146971000000001
 50
157.56521299999989
 51
167.39253999999991
  0
ARC
  5
E6
  8
_________1
 62
     7
 10
106.843256
 20
194.2022749999999
 30
0.0
 40
11.087628
 50
300.85203899999999
 51
316.60843799999998
  0
ARC
  5
E7
  8
_________1
 62
     7
 10
109.691506
 20
191.29387600000001
 30
0.0
 40
7.0216099999999999
 50
317.88777900000002
 51
358.96021000000002
  0
ARC
  5
E8
  8
_________1
 62
     7
 10
66.355532999999994
 20
208.352509
 30
0.0
 40
28.68457299999999
 50
270.14866699999988
 51
272.38499999999999
  0
ARC
  5
E9
  8
_________1
 62
     7
 10
58.845889999999997
 20
442.08826999999991
 30
0.0
 40
262.53978499999999
 50
271.89974100000001
 51
272.71908100000002
  0
ARC
  5
EA
  8
_________1
 62
     7
 10
47.716134999999987
 20
686.84400199999993
 30
0.0
 40
507.54818
 50
272.66334499999999
 51
275.262001
  0
ARC
  5
EB
  8
_________1
 62
     7
 10
72.784450000000007
 20
406.09075899999999
 30
0.0
 40
225.68045099999989
 50
275.46135199999992
 51
277.44772599999988
  0
ARC
  5
EC
  8
_________1
 62
     7
 10
88.489012999999986
 20
284.74941199999989
 30
0.0
 40
103.327263
 50
277.53443199999992
 51
280.35942
  0
ARC
  5
ED
  8
_________1
 62
     7
 10
99.549960000000013
 20
223.768235
 30
0.0
 40
41.351216000000001
 50
280.47737899999998
 51
285.16957999999988
  0
ARC
  5
EE
  8
_________1
 62
     7
 10
106.620631
 20
197.31494599999991
 30
0.0
 40
13.969789999999991
 50
285.57115700000003
 51
292.951188
  0
ARC
  5
EF
  8
_________1
 62
     7
 10
109.9961669999999
 20
189.13279199999991
 30
0.0
 40
5.119739
 50
293.87207000000001
 51
299.65437400000002
  0
ARC
  5
F0
  8
_________1
 62
     7
 10
66.419268000000002
 20
196.992932
 30
0.0
 40
17.324902999999999
 50
264.10973499999989
 51
270.03536099999991
  0
ARC
  5
F1
  8
_________1
 62
     7
 10
65.690836000000004
 20
189.46688599999999
 30
0.0
 40
9.763955000000001
 50
254.2853969999999
 51
263.82944399999991
  0
ARC
  5
F2
  8
_________1
 62
     7
 10
64.607031000000006
 20
185.445142
 30
0.0
 40
5.599175999999999
 50
240.73299800000001
 51
253.81490400000001
  0
ARC
  5
F3
  8
_________1
 62
     7
 10
63.626488000000002
 20
183.588021
 30
0.0
 40
3.500141999999999
 50
191.162059
 51
239.87304
  0
ARC
  5
F4
  8
_________1
 62
     7
 10
65.846892999999994
 20
184.10851099999999
 30
0.0
 40
5.7798689999999997
 50
185.84751299999999
 51
191.96313699999999
  0
ARC
  5
F5
  8
_________1
 62
     7
 10
70.416004999999998
 20
184.54997999999989
 30
0.0
 40
10.370217
 50
179.1826649999999
 51
185.70201700000001
  0
ARC
  5
F6
  8
_________1
 62
     7
 10
84.884942000000009
 20
182.36534800000001
 30
0.0
 40
25.399915
 50
147.52419499999999
 51
155.16398000000001
  0
ARC
  5
F7
  8
_________1
 62
     7
 10
76.49521
 20
187.5449659999999
 30
0.0
 40
15.541610999999991
 50
136.61046999999991
 51
147.02580299999991
  0
ARC
  5
F8
  8
_________1
 62
     7
 10
72.290103999999985
 20
191.40226399999989
 30
0.0
 40
9.8363429999999994
 50
117.027691
 51
136.111752
  0
ARC
  5
F9
  8
_________1
 62
     7
 10
71.337818999999996
 20
192.89875799999999
 30
0.0
 40
8.0723000000000003
 50
94.517336999999998
 51
115.833432
  0
ARC
  5
FA
  8
_________1
 62
     7
 10
71.862376999999995
 20
188.09981999999999
 30
0.0
 40
12.89845899999999
 50
90.986814000000024
 51
95.161272999999994
  0
ARC
  5
FB
  8
_________1
 62
     7
 10
72.330778000000009
 20
151.407982
 30
0.0
 40
49.593191999999988
 50
89.753642999999997
 51
90.797812000000008
  0
ARC
  5
FC
  8
_________1
 62
     7
 10
71.617582999999996
 20
193.09609800000001
 30
0.0
 40
2.59735
 50
272.11388899999997
 51
357.886121
  0
ARC
  5
FD
  8
_________1
 62
     7
 10
71.809962999999996
 20
193.096867
 30
0.0
 40
2.5981469999999991
 50
182.13022399999991
 51
267.86980599999993
  0
ARC
  5
FE
  8
_________1
 62
     7
 10
71.713647999999992
 20
193.00055
 30
0.0
 40
2.5000360000000001
 50
90.005922000000012
 51
180.005932
  0
ARC
  5
FF
  8
_________1
 62
     7
 10
71.713130000000007
 20
193.00055
 30
0.0
 40
2.5000360000000001
 50
359.99408799999992
 51
89.994058999999993
  0
ARC
  5
100
  8
_________1
 62
     7
 10
71.654758000000001
 20
193.05943899999991
 30
0.0
 40
1.593130999999999
 50
272.109083
 51
357.89092699999998
  0
ARC
  5
101
  8
_________1
 62
     7
 10
71.713387999999995
 20
193.000809
 30
0.0
 40
1.533420999999999
 50
179.99996999999991
 51
270.00002000000001
  0
ARC
  5
102
  8
_________1
 62
     7
 10
71.713302999999996
 20
193.00072299999999
 30
0.0
 40
1.533336
 50
89.996781999999996
 51
179.99675199999999
  0
ARC
  5
103
  8
_________1
 62
     7
 10
71.654358000000002
 20
192.94159999999991
 30
0.0
 40
1.5935520000000001
 50
2.1293449999999998
 51
87.877081000000004
  0
ARC
  5
104
  8
_________1
 62
     7
 10
128.01876599999991
 20
175.693318
 30
0.0
 40
0.692315
 50
272.05901399999999
 51
357.89658600000001
  0
ARC
  5
105
  8
_________1
 62
     7
 10
22.740221999999999
 20
175.69380199999989
 30
0.0
 40
0.692817
 50
182.142008
 51
267.90243199999992
  0
ARC
  5
106
  8
_________1
 62
     7
 10
22.312325000000001
 20
208.069219
 30
0.0
 40
0.264612
 50
92.131463000000011
 51
177.90726000000001
  0
ARC
  5
107
  8
_________1
 62
     7
 10
128.44603499999999
 20
208.069075
 30
0.0
 40
0.264762
 50
2.1227130000000001
 51
87.838523999999978
  0
LINE
  5
108
  8
_________1
  6
AIGENLINE001
 62
     7
 10
75.462000000000003
 20
193.00099999999989
 30
0.0
 11
71.713399999999993
 21
193.00099999999989
 31
0.0
  0
LINE
  5
109
  8
_________1
  6
AIGENLINE001
 62
     7
 10
71.713399999999993
 20
193.00099999999989
 30
0.0
 11
67.964399999999998
 21
193.00099999999989
 31
0.0
  0
ARC
  5
10A
  8
_________1
 62
     7
 10
65.334913999999984
 20
202.28935699999991
 30
0.0
 40
1.211970999999999
 50
2.1180110000000001
 51
87.873517000000007
  0
ARC
  5
10B
  8
_________1
 62
     7
 10
65.423885999999996
 20
202.28961100000001
 30
0.0
 40
1.211681
 50
92.081096000000016
 51
177.893494
  0
ARC
  5
10C
  8
_________1
 62
     7
 10
65.424886000000001
 20
202.37897099999989
 30
0.0
 40
1.2126909999999991
 50
182.11820399999991
 51
267.87336800000003
  0
ARC
  5
10D
  8
_________1
 62
     7
 10
65.335816000000008
 20
202.3773239999999
 30
0.0
 40
1.2110110000000001
 50
272.08547299999998
 51
357.95683799999989
  0
LINE
  5
10E
  8
_________1
  6
AIGENLINE001
 62
     7
 10
65.379900000000006
 20
200.46100000000001
 30
0.0
 11
65.379900000000006
 21
202.334
 31
0.0
  0
LINE
  5
10F
  8
_________1
  6
AIGENLINE001
 62
     7
 10
65.379900000000006
 20
202.334
 30
0.0
 11
65.379900000000006
 21
204.2059999999999
 31
0.0
  0
LINE
  5
110
  8
_________1
  6
AIGENLINE001
 62
     7
 10
67.251599999999996
 20
202.334
 30
0.0
 11
65.379900000000006
 21
202.334
 31
0.0
  0
LINE
  5
111
  8
_________1
  6
AIGENLINE001
 62
     7
 10
65.379900000000006
 20
202.334
 30
0.0
 11
63.507800000000003
 21
202.334
 31
0.0
  0
LINE
  5
112
  8
_________1
  6
AIGENLINE001
 62
     7
 10
100.38
 20
211.23799999999989
 30
0.0
 11
100.38
 21
205.7109999999999
 31
0.0
  0
LINE
  5
113
  8
_________1
  6
AIGENLINE001
 62
     7
 10
87.047799999999995
 20
211.23799999999989
 30
0.0
 11
87.047799999999995
 21
205.7109999999999
 31
0.0
  0
LINE
  5
114
  8
_________1
  6
AIGENLINE001
 62
     7
 10
56.713700000000003
 20
211.23799999999989
 30
0.0
 11
56.713700000000003
 21
205.7109999999999
 31
0.0
  0
LINE
  5
115
  8
_________1
  6
AIGENLINE001
 62
     7
 10
43.380699999999997
 20
211.23799999999989
 30
0.0
 11
43.380699999999997
 21
205.7109999999999
 31
0.0
  0
LINE
  5
116
  8
_________1
  6
AIGENLINE001
 62
     7
 10
71.712699999999984
 20
196.745
 30
0.0
 11
71.712699999999984
 21
193.00099999999989
 31
0.0
  0
LINE
  5
117
  8
_________1
  6
AIGENLINE001
 62
     7
 10
71.712699999999984
 20
193.00099999999989
 30
0.0
 11
71.712699999999984
 21
189.25499999999991
 31
0.0
  0
LINE
  5
118
  8
_________1
 62
     7
 10
22.7149
 20
175.00099999999989
 30
0.0
 11
128.0439999999999
 21
175.00099999999989
 31
0.0
  0
LINE
  5
119
  8
_________1
 62
     7
 10
128.71100000000001
 20
175.66800000000001
 30
0.0
 11
128.71100000000001
 21
208.07899999999989
 31
0.0
  0
LINE
  5
11A
  8
_________1
 62
     7
 10
128.45599999999999
 20
208.334
 30
0.0
 11
22.302499999999991
 21
208.334
 31
0.0
  0
LINE
  5
11B
  8
_________1
 62
     7
 10
22.047899999999998
 20
208.07899999999989
 30
0.0
 11
22.047899999999998
 21
175.66800000000001
 31
0.0
  0
LINE
  5
11C
  8
_________1
 62
     7
 10
80.741699999999994
 20
104.015
 30
0.0
 11
128.161
 21
104.015
 31
0.0
  0
LINE
  5
11D
  8
_________1
 62
     7
 10
22.595700000000001
 20
104.015
 30
0.0
 11
80.741699999999994
 21
104.015
 31
0.0
  0
ARC
  5
11E
  8
_________1
  6
AIGENLINE002
 62
     7
 10
100.688104
 20
100.706204
 30
0.0
 40
0.691804
 50
272.07729899999998
 51
357.95232900000002
  0
ARC
  5
11F
  8
_________1
  6
AIGENLINE002
 62
     7
 10
100.6871239999999
 20
100.656144
 30
0.0
 40
0.6928060000000001
 50
2.096188999999999
 51
87.844579999999993
  0
LINE
  5
120
  8
_________1
  6
AIGENLINE002
 62
     7
 10
100.71299999999989
 20
101.3479999999999
 30
0.0
 11
100.047
 21
101.3479999999999
 31
0.0
  0
ARC
  5
121
  8
_________1
  6
AIGENLINE002
 62
     7
 10
100.072669
 20
100.65659100000001
 30
0.0
 40
0.692336
 50
92.104988000000006
 51
177.939392
  0
ARC
  5
122
  8
_________1
  6
AIGENLINE002
 62
     7
 10
100.07279799999991
 20
100.70686499999999
 30
0.0
 40
0.692482
 50
182.100424
 51
267.88479899999999
  0
LINE
  5
123
  8
_________1
  6
AIGENLINE002
 62
     7
 10
100.047
 20
100.015
 30
0.0
 11
100.71299999999989
 21
100.015
 31
0.0
  0
ARC
  5
124
  8
_________1
  6
AIGENLINE002
 62
     7
 10
57.021856999999997
 20
100.70682099999991
 30
0.0
 40
0.6924160000000001
 50
272.06733100000002
 51
357.903077
  0
ARC
  5
125
  8
_________1
  6
AIGENLINE002
 62
     7
 10
57.021445999999997
 20
100.65609499999989
 30
0.0
 40
0.6928300000000001
 50
2.1001470000000002
 51
87.899843000000004
  0
LINE
  5
126
  8
_________1
  6
AIGENLINE002
 62
     7
 10
57.04679999999999
 20
101.3479999999999
 30
0.0
 11
56.380200000000002
 21
101.3479999999999
 31
0.0
  0
ARC
  5
127
  8
_________1
  6
AIGENLINE002
 62
     7
 10
56.405606999999989
 20
100.6564409999999
 30
0.0
 40
0.6924850000000001
 50
92.102164000000002
 51
177.92740900000001
  0
ARC
  5
128
  8
_________1
  6
AIGENLINE002
 62
     7
 10
56.405597
 20
100.70687700000001
 30
0.0
 40
0.692488
 50
182.10141399999989
 51
267.898616
  0
LINE
  5
129
  8
_________1
  6
AIGENLINE002
 62
     7
 10
56.380200000000002
 20
100.015
 30
0.0
 11
57.04679999999999
 21
100.015
 31
0.0
  0
LINE
  5
12A
  8
_________1
  6
AIGENLINE001
 62
     7
 10
55.180599999999998
 20
100.6809999999999
 30
0.0
 11
56.713700000000003
 21
100.6809999999999
 31
0.0
  0
LINE
  5
12B
  8
_________1
  6
AIGENLINE001
 62
     7
 10
56.713700000000003
 20
100.6809999999999
 30
0.0
 11
58.247100000000003
 21
100.6809999999999
 31
0.0
  0
LINE
  5
12C
  8
_________1
  6
AIGENLINE001
 62
     7
 10
56.713700000000003
 20
99.481600000000014
 30
0.0
 11
56.713700000000003
 21
101.8809999999999
 31
0.0
  0
ARC
  5
12D
  8
_________1
  6
AIGENLINE002
 62
     7
 10
43.688916999999989
 20
100.706456
 30
0.0
 40
0.6920510000000001
 50
272.06780299999991
 51
357.93220699999989
  0
ARC
  5
12E
  8
_________1
  6
AIGENLINE002
 62
     7
 10
43.688164
 20
100.6561199999999
 30
0.0
 40
0.692818
 50
2.0981679999999989
 51
87.872219999999984
  0
LINE
  5
12F
  8
_________1
  6
AIGENLINE002
 62
     7
 10
43.713900000000002
 20
101.3479999999999
 30
0.0
 11
43.0473
 21
101.3479999999999
 31
0.0
  0
ARC
  5
130
  8
_________1
  6
AIGENLINE002
 62
     7
 10
43.072657999999997
 20
100.6564409999999
 30
0.0
 40
0.6924850000000001
 50
92.102164000000002
 51
177.92740900000001
  0
ARC
  5
131
  8
_________1
  6
AIGENLINE002
 62
     7
 10
43.072846999999989
 20
100.707075
 30
0.0
 40
0.6926930000000001
 50
182.11715199999989
 51
267.88287799999989
  0
LINE
  5
132
  8
_________1
  6
AIGENLINE002
 62
     7
 10
43.0473
 20
100.015
 30
0.0
 11
43.713900000000002
 21
100.015
 31
0.0
  0
LINE
  5
133
  8
_________1
  6
AIGENLINE001
 62
     7
 10
41.847700000000003
 20
100.6809999999999
 30
0.0
 11
43.380699999999997
 21
100.6809999999999
 31
0.0
  0
LINE
  5
134
  8
_________1
  6
AIGENLINE001
 62
     7
 10
43.380699999999997
 20
100.6809999999999
 30
0.0
 11
44.914200000000001
 21
100.6809999999999
 31
0.0
  0
LINE
  5
135
  8
_________1
  6
AIGENLINE001
 62
     7
 10
43.380699999999997
 20
99.481600000000014
 30
0.0
 11
43.380699999999997
 21
101.8809999999999
 31
0.0
  0
ARC
  5
136
  8
_________1
  6
AIGENLINE002
 62
     7
 10
87.355885999999984
 20
100.70687700000001
 30
0.0
 40
0.692475
 50
272.07183800000001
 51
357.89856900000001
  0
ARC
  5
137
  8
_________1
  6
AIGENLINE002
 62
     7
 10
87.355333999999985
 20
100.65589799999989
 30
0.0
 40
0.6930340000000002
 50
2.115866
 51
87.884124
  0
LINE
  5
138
  8
_________1
  6
AIGENLINE002
 62
     7
 10
87.380899999999997
 20
101.3479999999999
 30
0.0
 11
86.714500000000001
 21
101.3479999999999
 31
0.0
  0
ARC
  5
139
  8
_________1
  6
AIGENLINE002
 62
     7
 10
86.739854000000008
 20
100.656451
 30
0.0
 40
0.6924739999999999
 50
92.101365000000001
 51
177.92820800000001
  0
ARC
  5
13A
  8
_________1
  6
AIGENLINE002
 62
     7
 10
86.739855000000006
 20
100.70687700000001
 30
0.0
 40
0.692488
 50
182.10141399999989
 51
267.898616
  0
LINE
  5
13B
  8
_________1
  6
AIGENLINE002
 62
     7
 10
86.714500000000001
 20
100.015
 30
0.0
 11
87.380899999999997
 21
100.015
 31
0.0
  0
ARC
  5
13C
  8
_________1
 62
     7
 10
131.24294199999991
 20
102.31311100000001
 30
0.0
 40
2.5781009999999989
 50
177.37330800000001
 51
184.3587489999999
  0
ARC
  5
13D
  8
_________1
 62
     7
 10
127.20029599999999
 20
102.00980299999991
 30
0.0
 40
1.475913
 50
347.40830699999992
 51
4.171854999999999
  0
ARC
  5
13E
  8
_________1
 62
     7
 10
128.21592200000001
 20
101.783935
 30
0.0
 40
0.4354760000000001
 50
269.86063100000001
 51
347.28035999999997
  0
ARC
  5
13F
  8
_________1
 62
     7
 10
134.15439900000001
 20
102.2656409999999
 30
0.0
 40
5.4893470000000004
 50
173.51732799999991
 51
178.271052
  0
ARC
  5
140
  8
_________1
 62
     7
 10
125.9415409999999
 20
103.13687899999999
 30
0.0
 40
2.7700480000000001
 50
354.79125599999998
 51
5.9636629999999986
  0
ARC
  5
141
  8
_________1
 62
     7
 10
127.6253929999999
 20
103.31320100000001
 30
0.0
 40
1.076989999999999
 50
5.9413759999999991
 51
21.106811999999991
  0
ARC
  5
142
  8
_________1
 62
     7
 10
128.16942399999991
 20
103.52008499999999
 30
0.0
 40
0.494965
 50
21.443178
 51
90.961451999999994
  0
ARC
  5
143
  8
_________1
 62
     7
 10
19.414076000000001
 20
102.3114459999999
 30
0.0
 40
2.6788689999999988
 50
355.6040779999999
 51
2.5634329999999999
  0
ARC
  5
144
  8
_________1
 62
     7
 10
23.538623999999999
 20
102.006174
 30
0.0
 40
1.456990999999999
 50
176.066677
 51
192.61168699999999
  0
ARC
  5
145
  8
_________1
 62
     7
 10
22.541533999999992
 20
101.7838829999999
 30
0.0
 40
0.435424
 50
192.71417700000001
 51
270.14134100000001
  0
ARC
  5
146
  8
_________1
 62
     7
 10
16.348566000000002
 20
102.25481600000001
 30
0.0
 40
5.7444079999999991
 50
1.760163999999999
 51
6.4632779999999999
  0
ARC
  5
147
  8
_________1
 62
     7
 10
24.784119
 20
103.1391739999999
 30
0.0
 40
2.7379950000000002
 50
174.01452
 51
184.9810819999999
  0
ARC
  5
148
  8
_________1
 62
     7
 10
23.132595999999989
 20
103.31317799999999
 30
0.0
 40
1.0773319999999991
 50
158.898855
 51
174.05924699999991
  0
ARC
  5
149
  8
_________1
 62
     7
 10
22.588175
 20
103.52012999999999
 30
0.0
 40
0.4949180000000001
 50
89.053270999999995
 51
158.56030200000001
  0
LINE
  5
14A
  8
_________1
  6
AIGENLINE001
 62
     7
 10
98.847099999999998
 20
100.6809999999999
 30
0.0
 11
100.38
 21
100.6809999999999
 31
0.0
  0
LINE
  5
14B
  8
_________1
  6
AIGENLINE001
 62
     7
 10
100.38
 20
100.6809999999999
 30
0.0
 11
101.913
 21
100.6809999999999
 31
0.0
  0
LINE
  5
14C
  8
_________1
  6
AIGENLINE001
 62
     7
 10
100.38
 20
99.481600000000014
 30
0.0
 11
100.38
 21
101.8809999999999
 31
0.0
  0
LINE
  5
14D
  8
_________1
  6
AIGENLINE001
 62
     7
 10
85.514899999999983
 20
100.6809999999999
 30
0.0
 11
87.047799999999995
 21
100.6809999999999
 31
0.0
  0
LINE
  5
14E
  8
_________1
  6
AIGENLINE001
 62
     7
 10
87.047799999999995
 20
100.6809999999999
 30
0.0
 11
88.581199999999995
 21
100.6809999999999
 31
0.0
  0
LINE
  5
14F
  8
_________1
  6
AIGENLINE001
 62
     7
 10
87.047799999999995
 20
99.481600000000014
 30
0.0
 11
87.047799999999995
 21
101.8809999999999
 31
0.0
  0
LINE
  5
150
  8
_________1
 62
     7
 10
22.54259999999999
 20
101.3479999999999
 30
0.0
 11
128.215
 21
101.3479999999999
 31
0.0
  0
ARC
  5
151
  8
_________1
 62
     7
 10
160.96131699999989
 20
93.890315999999999
 30
0.0
 40
0.208768
 50
184.88032000000001
 51
267.84516300000001
  0
LINE
  5
152
  8
_________1
 62
     7
 10
145.624
 20
104.015
 30
0.0
 11
178.4379999999999
 21
104.015
 31
0.0
  0
ARC
  5
153
  8
_________1
 62
     7
 10
145.67351599999989
 20
103.44921099999991
 30
0.0
 40
0.567896
 50
94.959755000000001
 51
178.11451700000001
  0
ARC
  5
154
  8
_________1
 62
     7
 10
145.4978209999999
 20
101.69396399999999
 30
0.0
 40
0.345698
 50
183.53566299999989
 51
268.08498700000001
  0
ARC
  5
155
  8
_________1
 62
     7
 10
178.161787
 20
101.6247989999999
 30
0.0
 40
0.276521
 50
272.07897800000001
 51
357.92103199999991
  0
LINE
  5
156
  8
_________1
  6
AIGENLINE001
 62
     7
 10
180.42699999999999
 20
100.682
 30
0.0
 11
176.45699999999991
 21
100.682
 31
0.0
  0
LINE
  5
157
  8
_________1
  6
AIGENLINE001
 62
     7
 10
172.43799999999999
 20
105.9919999999999
 30
0.0
 11
172.43799999999999
 21
102.0229999999999
 31
0.0
  0
LINE
  5
158
  8
_________1
  6
AIGENLINE001
 62
     7
 10
163.1049999999999
 20
95.821100000000001
 30
0.0
 11
163.1049999999999
 21
91.851299999999995
 31
0.0
  0
LINE
  5
159
  8
_________1
 62
     7
 10
178.4379999999999
 20
104.015
 30
0.0
 11
178.4379999999999
 21
92.281599999999997
 31
0.0
  0
LINE
  5
15A
  8
_________1
 62
     7
 10
145.15299999999991
 20
101.6729999999999
 30
0.0
 11
145.10599999999999
 21
103.4679999999999
 31
0.0
  0
LINE
  5
15B
  8
_________1
 62
     7
 10
160.7529999999999
 20
93.872600000000006
 30
0.0
 11
160.71000000000001
 21
94.712500000000006
 31
0.0
  0
LINE
  5
15C
  8
_________1
 62
     7
 10
164.71700000000001
 20
93.681700000000006
 30
0.0
 11
160.953
 21
93.681700000000006
 31
0.0
  0
LINE
  5
15D
  8
_________1
 62
     7
 10
178.17199999999991
 20
101.3479999999999
 30
0.0
 11
145.4859999999999
 21
101.3479999999999
 31
0.0
  0
ARC
  5
15E
  8
_________1
 62
     7
 10
178.16077799999991
 20
92.293000000000006
 30
0.0
 40
0.277583
 50
272.27954899999997
 51
357.64629100000002
  0
ARC
  5
15F
  8
_________1
 62
     7
 10
178.165873
 20
144.68068099999991
 30
0.0
 40
52.665044999999992
 50
260.37570699999992
 51
270.0064779999999
  0
ARC
  5
160
  8
_________1
 62
     7
 10
181.2937189999999
 20
165.11996799999989
 30
0.0
 40
73.340344999999999
 50
255.35623699999999
 51
260.63614000000001
  0
ARC
  5
161
  8
_________1
 62
     7
 10
189.28220099999999
 20
196.875891
 30
0.0
 40
106.08469699999991
 50
248.922414
 51
255.51782499999999
  0
ARC
  5
162
  8
_________1
 62
     7
 10
151.207706
 20
98.194015000000007
 30
0.0
 40
0.314697
 50
234.90375599999999
 51
255.84505399999989
  0
ARC
  5
163
  8
_________1
 62
     7
 10
151.2940889999999
 20
98.385896000000002
 30
0.0
 40
0.522863
 50
215.98192999999989
 51
239.25233600000001
  0
ARC
  5
164
  8
_________1
 62
     7
 10
160.42004
 20
105.3238019999999
 30
0.0
 40
11.98649
 50
209.57130799999999
 51
217.18850599999999
  0
ARC
  5
165
  8
_________1
 62
     7
 10
161.89316099999999
 20
106.347103
 30
0.0
 40
13.77369599999999
 50
201.27917600000001
 51
210.2494299999999
  0
LINE
  5
166
  8
_________1
 62
     7
 10
134.238
 20
97.447199999999995
 30
0.0
 11
134.238
 21
109.9529999999999
 31
0.0
  0
LINE
  5
167
  8
_________1
 62
     7
 10
36.787100000000002
 20
88.633899999999997
 30
0.0
 11
36.787100000000002
 21
110.58499999999989
 31
0.0
  0
LINE
  5
168
  8
_________1
 62
     7
 10
29.2285
 20
97.900199999999998
 30
0.0
 11
29.2285
 21
110.236
 31
0.0
  0
LINE
  5
169
  8
_________1
 62
     7
 10
22.047899999999998
 20
104.23
 30
0.0
 11
22.047899999999998
 21
115.7699999999999
 31
0.0
  0
LINE
  5
16A
  8
_________1
 62
     7
 10
102.57899999999989
 20
100.6809999999999
 30
0.0
 11
135.01799999999989
 21
100.682
 31
0.0
  0
LINE
  5
16B
  8
_________1
 62
     7
 10
74.555999999999997
 20
93.681700000000006
 30
0.0
 11
140.14599999999999
 21
93.681700000000006
 31
0.0
  0
LINE
  5
16C
  8
_________1
 62
     7
 10
139.4789999999999
 20
93.681700000000006
 30
0.0
 11
139.4789999999999
 21
104.015
 31
0.0
  0
LINE
  5
16D
  8
_________1
 62
     7
 10
129.065
 20
104.015
 30
0.0
 11
140.14599999999999
 21
104.015
 31
0.0
  0
LINE
  5
16E
  8
_________1
 62
     7
 10
71.712699999999984
 20
188.589
 30
0.0
 11
71.712699999999984
 21
166.09200000000001
 31
0.0
  0
LINE
  5
16F
  8
_________1
 62
     7
 10
163.1049999999999
 20
83.605099999999993
 30
0.0
 11
178.4379999999999
 21
83.605099999999993
 31
0.0
  0
LINE
  5
170
  8
_________1
 62
     7
 10
163.1049999999999
 20
91.370000000000005
 30
0.0
 11
163.1049999999999
 21
82.938100000000006
 31
0.0
  0
LINE
  5
171
  8
_________1
 62
     7
 10
178.4379999999999
 20
91.614999999999995
 30
0.0
 11
178.4379999999999
 21
82.938100000000006
 31
0.0
  0
LINE
  5
172
  8
_________1
 62
     7
 10
22.047899999999998
 20
160.3899999999999
 30
0.0
 11
128.71100000000001
 21
160.3899999999999
 31
0.0
  0
LINE
  5
173
  8
_________1
 62
     7
 10
71.712699999999984
 20
166.75999999999999
 30
0.0
 11
128.71100000000001
 21
166.75999999999999
 31
0.0
  0
LINE
  5
174
  8
_________1
 62
     7
 10
22.047899999999998
 20
166.75999999999999
 30
0.0
 11
71.712699999999984
 21
166.75999999999999
 31
0.0
  0
LINE
  5
175
  8
_________1
 62
     7
 10
22.047899999999998
 20
174.33500000000001
 30
0.0
 11
22.047899999999998
 21
159.72399999999999
 31
0.0
  0
LINE
  5
176
  8
_________1
 62
     7
 10
128.71100000000001
 20
174.33500000000001
 30
0.0
 11
128.71100000000001
 21
159.72399999999999
 31
0.0
  0
LINE
  5
177
  8
_________1
 62
     7
 10
76.128999999999991
 20
193.00099999999989
 30
0.0
 11
136.434
 21
193.00099999999989
 31
0.0
  0
LINE
  5
178
  8
_________1
 62
     7
 10
142.8839999999999
 20
175.00099999999989
 30
0.0
 11
142.8839999999999
 21
208.334
 31
0.0
  0
LINE
  5
179
  8
_________1
 62
     7
 10
135.76699999999991
 20
193.00099999999989
 30
0.0
 11
135.76699999999991
 21
208.334
 31
0.0
  0
LINE
  5
17A
  8
_________1
 62
     7
 10
129.12200000000001
 20
175.00099999999989
 30
0.0
 11
143.55099999999999
 21
175.00099999999989
 31
0.0
  0
LINE
  5
17B
  8
_________1
 62
     7
 10
129.12200000000001
 20
208.334
 30
0.0
 11
143.55099999999999
 21
208.334
 31
0.0
  0
LINE
  5
17C
  8
_________1
 62
     7
 10
22.047899999999998
 20
215.3359999999999
 30
0.0
 11
65.379900000000006
 21
215.3359999999999
 31
0.0
  0
LINE
  5
17D
  8
_________1
 62
     7
 10
65.379900000000006
 20
204.87299999999991
 30
0.0
 11
65.379900000000006
 21
216.00200000000001
 31
0.0
  0
LINE
  5
17E
  8
_________1
 62
     7
 10
22.047899999999998
 20
208.7459999999999
 30
0.0
 11
22.047899999999998
 21
216.00200000000001
 31
0.0
  0
LINE
  5
17F
  8
_________1
 62
     7
 10
49.892400000000002
 20
202.334
 30
0.0
 11
49.892000000000003
 21
208.334
 31
0.0
  0
LINE
  5
180
  8
_________1
 62
     7
 10
49.2254
 20
202.334
 30
0.0
 11
62.841200000000001
 21
202.334
 31
0.0
  0
LINE
  5
181
  8
_________1
 62
     7
 10
84.865300000000005
 20
185.983
 30
0.0
 11
78.730699999999999
 21
185.983
 31
0.0
  0
LINE
  5
182
  8
_________1
 62
     7
 10
68.124300000000005
 20
196.589
 30
0.0
 11
78.730699999999999
 21
185.983
 31
0.0
  0
LINE
  5
183
  8
_________1
 62
     7
 10
84.407300000000006
 20
215.3359999999999
 30
0.0
 11
78.381399999999999
 21
215.3359999999999
 31
0.0
  0
LINE
  5
184
  8
_________1
 62
     7
 10
62.113900000000001
 20
199.0679999999999
 30
0.0
 11
78.381399999999999
 21
215.3359999999999
 31
0.0
  0
ARC
  5
185
  8
_________1
 62
     7
 10
111.0237259999999
 20
87.215512000000004
 30
0.0
 40
10.315061
 50
78.197714000000005
 51
81.577945999999997
  0
ARC
  5
186
  8
_________1
 62
     7
 10
109.33881
 20
76.009171999999992
 30
0.0
 40
21.647345999999999
 50
81.510652000000007
 51
84.626677000000001
  0
ARC
  5
187
  8
_________1
 62
     7
 10
107.296603
 20
54.864544999999993
 30
0.0
 40
42.890332000000001
 50
84.555672000000001
 51
86.666243999999992
  0
ARC
  5
188
  8
_________1
 62
     7
 10
105.18988999999991
 20
19.269556999999988
 30
0.0
 40
78.547601
 50
86.642007000000007
 51
88.246184000000014
  0
ARC
  5
189
  8
_________1
 62
     7
 10
103.3452409999999
 20
-40.012732999999997
 30
0.0
 40
137.85857899999999
 50
88.233941999999999
 51
89.493961000000013
  0
ARC
  5
18A
  8
_________1
 62
     7
 10
102.0402239999999
 20
-208.758759
 30
0.0
 40
306.60960499999999
 50
89.528598000000002
 51
90.279905999999997
  0
ARC
  5
18B
  8
_________1
 62
     7
 10
111.24850499999999
 20
89.335670999999991
 30
0.0
 40
7.4316289999999992
 50
75.306547999999992
 51
79.792473000000001
  0
ARC
  5
18C
  8
_________1
 62
     7
 10
109.816181
 20
81.633344999999991
 30
0.0
 40
15.265938999999999
 50
79.624727000000007
 51
83.185959000000011
  0
ARC
  5
18D
  8
_________1
 62
     7
 10
108.0748389999999
 20
67.215598
 30
0.0
 40
29.788456
 50
83.150533999999993
 51
85.855493999999993
  0
ARC
  5
18E
  8
_________1
 62
     7
 10
106.2515179999999
 20
42.463118999999999
 30
0.0
 40
54.607990000000001
 50
85.824395999999979
 51
87.821211000000034
  0
ARC
  5
18F
  8
_________1
 62
     7
 10
104.681755
 20
2.214259999999999
 30
0.0
 40
94.887437999999989
 50
87.797988000000004
 51
89.275183999999996
  0
ARC
  5
190
  8
_________1
 62
     7
 10
103.447316
 20
-111.192832
 30
0.0
 40
208.3011679999999
 50
89.330264999999997
 51
90.732167000000004
  0
ARC
  5
191
  8
_________1
 62
     7
 10
117.26350600000001
 20
94.809229000000016
 30
0.0
 40
0.9807120000000001
 50
24.271474999999999
 51
36.230092999999989
  0
ARC
  5
192
  8
_________1
 62
     7
 10
116.80453899999991
 20
94.475293000000008
 30
0.0
 40
1.5483049999999989
 50
36.16001
 51
47.846401
  0
ARC
  5
193
  8
_________1
 62
     7
 10
116.073283
 20
93.674159000000003
 30
0.0
 40
2.6329889999999989
 50
47.749394000000002
 51
56.392924999999991
  0
ARC
  5
194
  8
_________1
 62
     7
 10
115.04400699999999
 20
92.128803000000005
 30
0.0
 40
4.4897419999999988
 50
56.368806999999997
 51
63.175445999999987
  0
ARC
  5
195
  8
_________1
 62
     7
 10
113.67651599999991
 20
89.435638999999995
 30
0.0
 40
7.510197999999999
 50
63.137132999999999
 51
68.421173999999993
  0
ARC
  5
196
  8
_________1
 62
     7
 10
111.4293179999999
 20
83.691478000000004
 30
0.0
 40
13.678259999999989
 50
68.517075000000006
 51
76.671257999999995
  0
ARC
  5
197
  8
_________1
 62
     7
 10
109.020844
 20
74.632316000000003
 30
0.0
 40
23.050055
 50
76.037094999999994
 51
79.722042000000002
  0
ARC
  5
198
  8
_________1
 62
     7
 10
115.1360959999999
 20
94.820903999999999
 30
0.0
 40
0.8959649999999999
 50
23.265924999999999
 51
50.543934
  0
ARC
  5
199
  8
_________1
 62
     7
 10
114.427711
 20
94.065922999999984
 30
0.0
 40
1.9302319999999991
 50
48.549628000000013
 51
59.081765000000011
  0
ARC
  5
19A
  8
_________1
 62
     7
 10
113.547157
 20
92.608217999999994
 30
0.0
 40
3.6332469999999999
 50
58.980218000000008
 51
66.546750000000003
  0
ARC
  5
19B
  8
_________1
 62
     7
 10
112.16521999999991
 20
89.452360999999996
 30
0.0
 40
7.0784050000000001
 50
66.451759999999993
 51
71.962569000000002
  0
ARC
  5
19C
  8
_________1
 62
     7
 10
109.7909149999999
 20
82.181460000000001
 30
0.0
 40
14.727149999999989
 50
71.938174000000004
 51
76.881321999999997
  0
ARC
  5
19D
  8
_________1
 62
     7
 10
-49.031197999999989
 20
72.820166999999984
 30
0.0
 40
166.49793399999999
 50
6.6319019999999993
 51
7.7160489999999999
  0
ARC
  5
19E
  8
_________1
 62
     7
 10
121.5351449999999
 20
92.960331999999994
 30
0.0
 40
2.9991799999999991
 50
189.3981169999999
 51
195.887351
  0
ARC
  5
19F
  8
_________1
 62
     7
 10
144.54647199999991
 20
97.233661999999995
 30
0.0
 40
26.403424999999999
 50
187.79168100000001
 51
190.392854
  0
ARC
  5
1A0
  8
_________1
 62
     7
 10
347.047324
 20
128.09560899999991
 30
0.0
 40
231.23979999999989
 50
188.17542700000001
 51
188.56568200000001
  0
ARC
  5
1A1
  8
_________1
 62
     7
 10
36.817990000000002
 20
86.757360999999989
 30
0.0
 40
10.750045999999999
 50
98.117869000000013
 51
101.8028529999999
  0
ARC
  5
1A2
  8
_________1
 62
     7
 10
38.552735999999989
 20
75.101527000000004
 30
0.0
 40
22.534161999999991
 50
95.515899000000005
 51
98.299516000000011
  0
ARC
  5
1A3
  8
_________1
 62
     7
 10
40.722439000000001
 20
52.874131999999989
 30
0.0
 40
44.867195999999993
 50
93.384834999999995
 51
95.545411999999985
  0
ARC
  5
1A4
  8
_________1
 62
     7
 10
43.041759999999996
 20
14.1098
 30
0.0
 40
83.700845999999999
 50
91.811341999999996
 51
93.403001999999987
  0
ARC
  5
1A5
  8
_________1
 62
     7
 10
44.979550000000003
 20
-46.006447999999999
 30
0.0
 40
143.84831
 50
90.624381999999997
 51
91.825928000000005
  0
ARC
  5
1A6
  8
_________1
 62
     7
 10
46.327460000000002
 20
-180.461737
 30
0.0
 40
278.31032900000002
 50
89.817948000000015
 51
90.600214000000008
  0
ARC
  5
1A7
  8
_________1
 62
     7
 10
38.954357000000002
 20
78.888330000000011
 30
0.0
 40
18.10498299999999
 50
93.390045000000015
 51
103.070432
  0
ARC
  5
1A8
  8
_________1
 62
     7
 10
40.078021
 20
62.542350999999996
 30
0.0
 40
34.489151999999997
 50
91.135521000000011
 51
93.647724999999994
  0
ARC
  5
1A9
  8
_________1
 62
     7
 10
41.345447
 20
-3.2813979999999998
 30
0.0
 40
100.325098
 50
89.709133999999978
 51
91.114228999999995
  0
ARC
  5
1AA
  8
_________1
 62
     7
 10
42.365989999999996
 20
-446.20511799999991
 30
0.0
 40
543.24776599999996
 50
89.672880000000006
 51
90.053911999999983
  0
ARC
  5
1AB
  8
_________1
 62
     7
 10
30.911629000000001
 20
94.724912000000003
 30
0.0
 40
1.180996999999999
 50
130.8768959999999
 51
155.622649
  0
ARC
  5
1AC
  8
_________1
 62
     7
 10
31.842169999999999
 20
93.789355
 30
0.0
 40
2.4990369999999991
 50
123.492051
 51
132.9714469999999
  0
ARC
  5
1AD
  8
_________1
 62
     7
 10
32.830907000000003
 20
92.310509999999994
 30
0.0
 40
4.2779530000000001
 50
116.77707599999999
 51
123.60602900000001
  0
ARC
  5
1AE
  8
_________1
 62
     7
 10
34.176788999999999
 20
89.650821999999991
 30
0.0
 40
7.2587799999999998
 50
111.259094
 51
116.80323299999991
  0
ARC
  5
1AF
  8
_________1
 62
     7
 10
36.004837999999999
 20
84.994647000000001
 30
0.0
 40
12.260939
 50
107.248143
 51
111.33099300000001
  0
ARC
  5
1B0
  8
_________1
 62
     7
 10
39.355907999999992
 20
74.093822000000003
 30
0.0
 40
23.665198
 50
101.546206
 51
107.171052
  0
ARC
  5
1B1
  8
_________1
 62
     7
 10
32.598751
 20
94.977153000000015
 30
0.0
 40
0.597683
 50
146.61109899999991
 51
160.61837099999991
  0
ARC
  5
1B2
  8
_________1
 62
     7
 10
32.901210999999989
 20
94.777198999999996
 30
0.0
 40
0.960262
 50
132.04692099999991
 51
146.58108300000001
  0
ARC
  5
1B3
  8
_________1
 62
     7
 10
33.470809000000003
 20
94.154201999999984
 30
0.0
 40
1.8043880000000001
 50
121.76065
 51
132.22906499999999
  0
ARC
  5
1B4
  8
_________1
 62
     7
 10
34.37636599999999
 20
92.706074999999998
 30
0.0
 40
3.5123319999999989
 50
114.158584
 51
121.88625399999989
  0
ARC
  5
1B5
  8
_________1
 62
     7
 10
35.746704000000001
 20
89.68253
 30
0.0
 40
6.831904999999999
 50
108.608773
 51
114.266699
  0
ARC
  5
1B6
  8
_________1
 62
     7
 10
37.998719000000001
 20
83.000754999999998
 30
0.0
 40
13.882982999999991
 50
103.06688699999989
 51
108.6174109999999
  0
ARC
  5
1B7
  8
_________1
 62
     7
 10
205.22235599999999
 20
71.781879000000004
 30
0.0
 40
174.759275
 50
172.30955700000001
 51
173.34245199999989
  0
ARC
  5
1B8
  8
_________1
 62
     7
 10
26.583345000000001
 20
93.026821999999996
 30
0.0
 40
2.897219999999999
 50
344.10548699999998
 51
350.71919899999989
  0
ARC
  5
1B9
  8
_________1
 62
     7
 10
6.0672629999999987
 20
96.787514000000016
 30
0.0
 40
23.754656000000001
 50
349.7476759999999
 51
352.47351299999991
  0
ARC
  5
1BA
  8
_________1
 62
     7
 10
-169.270296
 20
122.766836
 30
0.0
 40
201.003818
 50
351.67849200000001
 51
352.12083699999999
  0
ARC
  5
1BB
  8
_________1
 62
     7
 10
25.680363
 20
101.1162469999999
 30
0.0
 40
0.232401
 50
53.887974
 51
87.691761000000014
  0
ARC
  5
1BC
  8
_________1
 62
     7
 10
25.449100999999999
 20
100.805902
 30
0.0
 40
0.6194290000000001
 50
35.357486000000002
 51
53.52523699999999
  0
ARC
  5
1BD
  8
_________1
 62
     7
 10
24.369819
 20
100.020178
 30
0.0
 40
1.954391999999999
 50
25.803284999999999
 51
35.833832000000001
  0
ARC
  5
1BE
  8
_________1
 62
     7
 10
21.242269
 20
98.462256999999994
 30
0.0
 40
5.4483990000000002
 50
21.813801999999988
 51
26.23673599999999
  0
ARC
  5
1BF
  8
_________1
 62
     7
 10
125.954106
 20
99.787631000000005
 30
0.0
 40
2.214713999999999
 50
138.938973
 51
146.35671199999999
  0
ARC
  5
1C0
  8
_________1
 62
     7
 10
124.5546299999999
 20
100.964865
 30
0.0
 40
0.387506
 50
81.852675000000005
 51
134.25908100000001
  0
ARC
  5
1C1
  8
_________1
 62
     7
 10
118.393323
 20
92.644103999999999
 30
0.0
 40
0.628468
 50
270.11234000000002
 51
303.20032500000002
  0
ARC
  5
1C2
  8
_________1
 62
     7
 10
118.15707500000001
 20
93.041163999999995
 30
0.0
 40
1.0902529999999999
 50
302.16321899999991
 51
315.86669899999998
  0
ARC
  5
1C3
  8
_________1
 62
     7
 10
117.29839199999989
 20
93.868185999999994
 30
0.0
 40
2.2824330000000002
 50
315.97602499999999
 51
325.49581299999988
  0
ARC
  5
1C4
  8
_________1
 62
     7
 10
109.2439379999999
 20
99.970861999999997
 30
0.0
 40
12.38573699999999
 50
323.33709299999998
 51
325.20144800000003
  0
ARC
  5
1C5
  8
_________1
 62
     7
 10
116.3300969999999
 20
92.571225999999996
 30
0.0
 40
0.5556939999999999
 50
208.865713
 51
271.11608999999987
  0
ARC
  5
1C6
  8
_________1
 62
     7
 10
111.9833459999999
 20
94.132756000000001
 30
0.0
 40
3.061795
 50
36.958883
 51
43.332073000000001
  0
ARC
  5
1C7
  8
_________1
 62
     7
 10
110.028356
 20
92.524676999999997
 30
0.0
 40
5.591880999999999
 50
30.284790000000001
 51
38.081344000000001
  0
LINE
  5
1C8
  8
_________1
 62
     7
 10
114.857
 20
95.344700000000003
 30
0.0
 11
115.8429999999999
 21
92.302999999999983
 31
0.0
  0
ARC
  5
1C9
  8
_________1
 62
     7
 10
73.881753000000003
 20
93.879093000000026
 30
0.0
 40
0.19753
 50
272.09678199999991
 51
357.9032279999999
  0
ARC
  5
1CA
  8
_________1
 62
     7
 10
69.543940000000006
 20
93.878685000000004
 30
0.0
 40
0.19712
 50
181.98245600000001
 51
267.91368299999999
  0
LINE
  5
1CB
  8
_________1
 62
     7
 10
116.34099999999999
 20
92.015600000000006
 30
0.0
 11
118.395
 21
92.015600000000006
 31
0.0
  0
ARC
  5
1CC
  8
_________1
 62
     7
 10
68.755872999999994
 20
95.380903000000004
 30
0.0
 40
0.5415800000000001
 50
3.748739
 51
83.144035000000002
  0
ARC
  5
1CD
  8
_________1
 62
     7
 10
31.626435999999991
 20
92.619003000000006
 30
0.0
 40
0.603619
 50
271.65976699999999
 51
328.427279
  0
ARC
  5
1CE
  8
_________1
 62
     7
 10
714.11342200000001
 20
321.58949599999988
 30
0.0
 40
722.47695099999987
 50
197.820413
 51
198.19695300000001
  0
ARC
  5
1CF
  8
_________1
 62
     7
 10
87.758830999999986
 20
116.127561
 30
0.0
 40
63.285989999999998
 50
198.571819
 51
200.4354669999999
  0
ARC
  5
1D0
  8
_________1
 62
     7
 10
38.119543999999991
 20
97.51360600000001
 30
0.0
 40
10.272194999999989
 50
199.817128
 51
206.38539800000001
  0
ARC
  5
1D1
  8
_________1
 62
     7
 10
46.865301999999993
 20
101.7269439999999
 30
0.0
 40
19.979616
 50
206.06347099999991
 51
208.24142999999989
  0
ARC
  5
1D2
  8
_________1
 62
     7
 10
29.788793999999999
 20
92.679477999999989
 30
0.0
 40
0.663882
 50
217.77207599999991
 51
269.36948100000001
  0
LINE
  5
1D3
  8
_________1
 62
     7
 10
74.0792
 20
93.871899999999997
 30
0.0
 11
74.178700000000006
 21
95.399799999999985
 31
0.0
  0
LINE
  5
1D4
  8
_________1
 62
     7
 10
69.296300000000002
 20
95.416300000000007
 30
0.0
 11
69.346900000000005
 21
93.871899999999997
 31
0.0
  0
LINE
  5
1D5
  8
_________1
  6
AIGENLINE001
 62
     7
 10
65.379900000000006
 20
99.725800000000007
 30
0.0
 11
65.379900000000006
 21
106.3489999999999
 31
0.0
  0
LINE
  5
1D6
  8
_________1
  6
AIGENLINE001
 62
     7
 10
71.712699999999984
 20
90.491900000000015
 30
0.0
 11
71.712699999999984
 21
105.46299999999989
 31
0.0
  0
LINE
  5
1D7
  8
_________1
 62
     7
 10
69.536799999999999
 20
93.681700000000006
 30
0.0
 11
73.888999999999996
 21
93.681700000000006
 31
0.0
  0
LINE
  5
1D8
  8
_________1
 62
     7
 10
50.174500000000002
 20
97.091300000000004
 30
0.0
 11
58.958500000000001
 21
97.091300000000004
 31
0.0
  0
LINE
  5
1D9
  8
_________1
 62
     7
 10
63.133999999999993
 20
97.091300000000004
 30
0.0
 11
80.291399999999996
 21
97.092000000000013
 31
0.0
  0
LINE
  5
1DA
  8
_________1
 62
     7
 10
84.468800000000002
 20
97.092000000000013
 30
0.0
 11
93.2624
 21
97.091300000000004
 31
0.0
  0
LINE
  5
1DB
  8
_________1
 62
     7
 10
98.153099999999995
 20
97.092000000000013
 30
0.0
 11
100.7859999999999
 21
97.091300000000004
 31
0.0
  0
LINE
  5
1DC
  8
_________1
 62
     7
 10
31.643899999999999
 20
92.015600000000006
 30
0.0
 11
63.046500000000002
 21
92.013599999999997
 31
0.0
  0
LINE
  5
1DD
  8
_________1
 62
     7
 10
80.379099999999994
 20
92.013900000000007
 30
0.0
 11
116.34099999999999
 21
92.015600000000006
 31
0.0
  0
LINE
  5
1DE
  8
_________1
 62
     7
 10
47.211699999999993
 20
97.847200000000001
 30
0.0
 11
100.5419999999999
 21
97.847200000000001
 31
0.0
  0
LINE
  5
1DF
  8
_________1
 62
     7
 10
29.781500000000001
 20
92.015600000000006
 30
0.0
 11
31.643899999999999
 21
92.015600000000006
 31
0.0
  0
LINE
  5
1E0
  8
_________1
 62
     7
 10
32.140700000000002
 20
92.302999999999983
 30
0.0
 11
33.137
 21
95.344700000000003
 31
0.0
  0
ARC
  5
1E1
  8
_________1
 62
     7
 10
37.818322999999999
 20
92.621006999999992
 30
0.0
 40
5.4159699999999988
 50
139.56211999999991
 51
149.80848299999991
  0
LINE
  5
1E2
  8
_________1
 62
     7
 10
33.69619999999999
 20
96.133899999999997
 30
0.0
 11
33.769199999999998
 21
96.230400000000003
 31
0.0
  0
ARC
  5
1E3
  8
_________1
 62
     7
 10
36.766387999999999
 20
87.026023999999992
 30
0.0
 40
9.6800560000000004
 50
104.465508
 51
108.036553
  0
LINE
  5
1E4
  8
_________1
 62
     7
 10
34.348300000000002
 20
96.399199999999993
 30
0.0
 11
34.347299999999997
 21
96.399199999999993
 31
0.0
  0
LINE
  5
1E5
  8
_________1
 62
     7
 10
119.41500000000001
 20
92.9024
 30
0.0
 11
124.11
 21
101.015
 31
0.0
  0
TEXT
  5
1E6
  8
_________2
 62
     7
 10
24.5868
 20
0.707283
 30
0.0
 40
3.9357000000000002
  1
・実容量：9.5L  オーバーフロー付  重量：37Kg
 41
0.5
  0
LINE
  5
1E7
  8
_________2
 62
     7
 10
205.30099999999999
 20
127.411
 30
0.0
 11
183.55000000000001
 21
127.411
 31
0.0
  0
LINE
  5
1E8
  8
_________2
 62
     7
 10
100.2999999999999
 20
-4.0910799999999998
 30
0.0
 11
100.2999999999999
 21
-21.071400000000001
 31
0.0
  0
LINE
  5
1E9
  8
_________2
 62
     7
 10
100.2999999999999
 20
275.93099999999993
 30
0.0
 11
100.2999999999999
 21
258.911
 31
0.0
  0
LINE
  5
1EA
  8
_________2
 62
     7
 10
17.049499999999998
 20
127.411
 30
0.0
 11
-4.70052
 21
127.411
 31
0.0
  0
LINE
  5
1EB
  8
_________2
 62
     7
 10
76.741
 20
29.8047
 30
0.0
 11
74.554699999999997
 21
29.8047
 31
0.0
  0
LINE
  5
1EC
  8
_________2
 62
     7
 10
77.233699999999999
 20
29.8047
 30
0.0
 11
76.981499999999997
 21
29.8047
 31
0.0
  0
LINE
  5
1ED
  8
_________2
 62
     7
 10
77.726299999999995
 20
29.8047
 30
0.0
 11
80.651200000000003
 21
29.8047
 31
0.0
  0
LINE
  5
1EE
  8
_________2
 62
     7
 10
77.233699999999999
 20
29.8047
 30
0.0
 11
77.485500000000002
 21
29.8047
 31
0.0
  0
LINE
  5
1EF
  8
_________2
 62
     7
 10
70.837100000000007
 20
29.8047
 30
0.0
 11
68.650499999999994
 21
29.8047
 31
0.0
  0
LINE
  5
1F0
  8
_________2
 62
     7
 10
71.329400000000007
 20
29.8047
 30
0.0
 11
71.077600000000004
 21
29.8047
 31
0.0
  0
LINE
  5
1F1
  8
_________2
 62
     7
 10
71.329400000000007
 20
30.2974
 30
0.0
 11
71.329400000000007
 21
32.484400000000001
 31
0.0
  0
LINE
  5
1F2
  8
_________2
 62
     7
 10
71.329400000000007
 20
29.8047
 30
0.0
 11
71.329400000000007
 21
30.056899999999992
 31
0.0
  0
LINE
  5
1F3
  8
_________2
 62
     7
 10
71.822100000000006
 20
29.8047
 30
0.0
 11
74.009
 21
29.8047
 31
0.0
  0
LINE
  5
1F4
  8
_________2
 62
     7
 10
71.329400000000007
 20
29.8047
 30
0.0
 11
71.581599999999995
 21
29.8047
 31
0.0
  0
LINE
  5
1F5
  8
_________2
 62
     7
 10
71.329400000000007
 20
29.312799999999999
 30
0.0
 11
71.329400000000007
 21
27.125800000000002
 31
0.0
  0
LINE
  5
1F6
  8
_________2
 62
     7
 10
71.329400000000007
 20
29.8047
 30
0.0
 11
71.329400000000007
 21
29.5532
 31
0.0
  0
LINE
  5
1F7
  8
_________2
 62
     7
 10
75.040499999999994
 20
28.5852
 30
0.0
 11
80.218500000000006
 21
27.720400000000001
 31
0.0
  0
LINE
  5
1F8
  8
_________2
 62
     7
 10
75.040499999999994
 20
31.0243
 30
0.0
 11
80.218500000000006
 21
31.889700000000001
 31
0.0
  0
LINE
  5
1F9
  8
_________2
 62
     7
 10
80.218500000000006
 20
27.720400000000001
 30
0.0
 11
80.218500000000006
 21
31.889700000000001
 31
0.0
  0
LINE
  5
1FA
  8
_________2
 62
     7
 10
75.040499999999994
 20
28.5852
 30
0.0
 11
75.040499999999994
 21
31.0243
 31
0.0
  0
ARC
  5
1FB
  8
_________2
 62
     7
 10
71.28285600000001
 20
29.757811
 30
0.0
 40
1.2673589999999999
 50
2.122214
 51
87.893958999999995
  0
ARC
  5
1FC
  8
_________2
 62
     7
 10
71.375959999999992
 20
29.758213000000001
 30
0.0
 40
1.2669559999999991
 50
92.104701000000006
 51
177.8952689999999
  0
ARC
  5
1FD
  8
_________2
 62
     7
 10
71.376357999999996
 20
29.851671
 30
0.0
 40
1.2673680000000001
 50
182.12203600000001
 51
267.877993
  0
ARC
  5
1FE
  8
_________2
 62
     7
 10
71.282531999999989
 20
29.851998999999989
 30
0.0
 40
1.267695999999999
 50
272.12015300000002
 51
357.863674
  0
ARC
  5
1FF
  8
_________2
 62
     7
 10
71.329430000000002
 20
29.804742999999998
 30
0.0
 40
2.0849849999999992
 50
0.00001
 51
89.999980000000008
  0
ARC
  5
200
  8
_________2
 62
     7
 10
71.329603000000006
 20
29.804915000000001
 30
0.0
 40
2.084813
 50
90.004733999999999
 51
180.00474399999999
  0
ARC
  5
201
  8
_________2
 62
     7
 10
71.409106000000008
 20
29.884775999999999
 30
0.0
 40
2.1657950000000001
 50
182.11776599999999
 51
267.89173399999999
  0
ARC
  5
202
  8
_________2
 62
     7
 10
71.249459000000002
 20
29.885429999999989
 30
0.0
 40
2.1664590000000001
 50
272.11546800000002
 51
357.86560400000002
  0
TEXT
  5
203
  8
_________2
 62
     7
 10
104.605
 20
1.6794899999999999
 30
0.0
 40
3.0923400000000001
  1
図番
 41
0.5
  0
LINE
  5
204
  8
_________2
 62
     7
 10
103.55
 20
5.9087199999999989
 30
0.0
 11
183.55099999999999
 21
5.9087199999999989
 31
0.0
  0
TEXT
  5
205
  8
_________2
 62
     7
 10
104.605
 20
11.679299999999991
 30
0.0
 40
3.0923400000000001
  1
品番
 41
0.5
  0
TEXT
  5
206
  8
_________2
 62
     7
 10
104.605
 20
31.818100000000001
 30
0.0
 40
3.0923400000000001
  1
名称
 41
0.5
  0
TEXT
  5
207
  8
_________2
 62
     7
 10
91.845058333333341
 20
26.821999999999989
 30
0.0
 40
3.6545800000000002
  1
mm
 41
0.5
 72
     1
 11
93.367800000000003
 21
26.821999999999989
 31
0.0
  0
TEXT
  5
208
  8
_________2
 62
     7
 10
85.643199999999993
 20
31.818100000000001
 30
0.0
 40
3.0923400000000001
  1
単位
 41
0.5
  0
TEXT
  5
209
  8
_________2
 62
     7
 10
85.643199999999993
 20
19.410799999999991
 30
0.0
 40
3.0923400000000001
  1
尺度
 41
0.5
  0
TEXT
  5
20A
  8
_________2
 62
     7
 10
89.939661999999998
 20
13.2179
 30
0.0
 40
3.6545800000000002
  1
1 ： 15
 41
0.5
 72
     1
 11
93.959699999999998
 21
13.2179
 31
0.0
  0
TEXT
  5
20B
  8
_________2
 62
     7
 10
137.4824625
 20
9.1078600000000005
 30
0.0
 40
3.9357000000000002
  1
AU14808
 41
0.5
 72
     1
 11
143.55000000000001
 21
9.1078600000000005
 31
0.0
  0
TEXT
  5
20C
  8
_________2
 62
     7
 10
137.4824625
 20
-0.8926299999999999
 30
0.0
 40
3.9357000000000002
  1
AU14808
 41
0.5
 72
     1
 11
143.55000000000001
 21
-0.8926299999999999
 31
0.0
  0
TEXT
  5
20D
  8
_________2
 62
     7
 10
109.179
 20
24.2257
 30
0.0
 40
3.9357000000000002
  1
パロンバ 壁掛式洗面器
 41
0.5
  0
TEXT
  5
20E
  8
_________2
 62
     7
 10
39.364390666666658
 20
13.603
 30
0.0
 40
3.6545800000000002
  1
高橋
 41
0.5
 72
     1
 11
41.313499999999998
 21
13.603
 31
0.0
  0
TEXT
  5
20F
  8
_________2
 62
     7
 10
20.790090666666661
 20
13.603
 30
0.0
 40
3.6545800000000002
  1
石原
 41
0.5
 72
     1
 11
22.73919999999999
 21
13.603
 31
0.0
  0
TEXT
  5
210
  8
_________2
 62
     7
 10
67.785399999999996
 20
13.2179
 30
0.0
 40
3.6545800000000002
  1
06.10.26
 41
0.5
  0
TEXT
  5
211
  8
_________2
 62
     7
 10
66.593100000000007
 20
19.410799999999991
 30
0.0
 40
3.0923400000000001
  1
日付
 41
0.5
  0
TEXT
  5
212
  8
_________2
 62
     7
 10
29.639399999999998
 20
19.410799999999991
 30
0.0
 40
3.0923400000000001
  1
検図
 41
0.5
  0
TEXT
  5
213
  8
_________2
 62
     7
 10
18.021100000000001
 20
5.21143
 30
0.0
 40
3.0923400000000001
  1
備考
 41
0.5
  0
TEXT
  5
214
  8
_________2
 62
     7
 10
18.021100000000001
 20
19.410799999999991
 30
0.0
 40
3.0923400000000001
  1
製図
 41
0.5
  0
TEXT
  5
215
  8
_________2
 62
     7
 10
23.788465333333338
 20
27.936800000000002
 30
0.0
 40
4.4979399999999989
  1
セラトレーディング株式会社
 41
0.5
 72
     1
 11
41.180500000000002
 21
27.936800000000002
 31
0.0
  0
LINE
  5
216
  8
_________2
 62
     7
 10
183.55099999999999
 20
-4.0910799999999998
 30
0.0
 11
17.049499999999998
 21
-4.0910799999999998
 31
0.0
  0
LINE
  5
217
  8
_________2
 62
     7
 10
17.049499999999998
 20
-4.0910799999999998
 30
0.0
 11
17.049499999999998
 21
258.911
 31
0.0
  0
LINE
  5
218
  8
_________2
 62
     7
 10
17.049499999999998
 20
258.911
 30
0.0
 11
183.55099999999999
 21
258.911
 31
0.0
  0
LINE
  5
219
  8
_________2
 62
     7
 10
183.55099999999999
 20
258.911
 30
0.0
 11
183.55099999999999
 21
-4.0910799999999998
 31
0.0
  0
LINE
  5
21A
  8
_________2
 62
     7
 10
65.549599999999998
 20
9.4089600000000004
 30
0.0
 11
65.549599999999998
 21
35.908799999999999
 31
0.0
  0
LINE
  5
21B
  8
_________2
 62
     7
 10
84.549700000000016
 20
9.4089600000000004
 30
0.0
 11
84.549700000000016
 21
35.908799999999999
 31
0.0
  0
LINE
  5
21C
  8
_________2
 62
     7
 10
103.55
 20
-4.0910799999999998
 30
0.0
 11
103.55
 21
35.908799999999999
 31
0.0
  0
LINE
  5
21D
  8
_________2
 62
     7
 10
28.549299999999992
 20
9.4089600000000004
 30
0.0
 11
28.549299999999992
 21
23.409199999999998
 31
0.0
  0
LINE
  5
21E
  8
_________2
 62
     7
 10
17.049499999999998
 20
9.4089600000000004
 30
0.0
 11
103.55
 21
9.4089600000000004
 31
0.0
  0
LINE
  5
21F
  8
_________2
 62
     7
 10
17.049499999999998
 20
23.409199999999998
 30
0.0
 11
103.55
 21
23.409199999999998
 31
0.0
  0
LINE
  5
220
  8
_________2
 62
     7
 10
103.55
 20
15.9085
 30
0.0
 11
183.55099999999999
 21
15.9085
 31
0.0
  0
LINE
  5
221
  8
_________2
 62
     7
 10
17.049499999999998
 20
35.908799999999999
 30
0.0
 11
183.55099999999999
 21
35.908799999999999
 31
0.0
  0
ENDSEC
  0
EOF
