  0
SECTION
  2
HEADER
  9
$ACADVER
  1
AC1009
  9
$INSBASE
 10
0.0
 20
0.0
 30
0.0
  9
$EXTMIN
 10
-4.70052
 20
-21.071400000000001
 30
0.0
  9
$EXTMAX
 10
205.30099999999999
 20
275.93099999999998
 30
0.0
  9
$LIMMIN
 10
0.0
 20
0.0
  9
$LIMMAX
 10
12.0
 20
9.0
  9
$ORTHOMODE
 70
     0
  9
$REGENMODE
 70
     1
  9
$FILLMODE
 70
     1
  9
$QTEXTMODE
 70
     0
  9
$MIRRTEXT
 70
     1
  9
$DRAGMODE
 70
     2
  9
$LTSCALE
 40
1.0
  9
$OSMODE
 70
    37
  9
$ATTMODE
 70
     1
  9
$TEXTSIZE
 40
0.0
  9
$TRACEWID
 40
0.05
  9
$TEXTSTYLE
  7
STANDARD
  9
$CLAYER
  8
0
  9
$CELTYPE
  6
CONTINUOUS
  9
$CECOLOR
 62
   256
  9
$DIMSCALE
 40
1.0
  9
$DIMASZ
 40
0.18
  9
$DIMEXO
 40
0.0625
  9
$DIMDLI
 40
0.38
  9
$DIMRND
 40
0.0
  9
$DIMDLE
 40
0.0
  9
$DIMEXE
 40
0.18
  9
$DIMTP
 40
0.0
  9
$DIMTM
 40
0.0
  9
$DIMTXT
 40
0.18
  9
$DIMCEN
 40
0.09
  9
$DIMTSZ
 40
0.0
  9
$DIMTOL
 70
     0
  9
$DIMLIM
 70
     0
  9
$DIMTIH
 70
     1
  9
$DIMTOH
 70
     1
  9
$DIMSE1
 70
     0
  9
$DIMSE2
 70
     0
  9
$DIMTAD
 70
     0
  9
$DIMZIN
 70
     0
  9
$DIMBLK
  1

  9
$DIMASO
 70
     1
  9
$DIMSHO
 70
     1
  9
$DIMPOST
  1

  9
$DIMAPOST
  1

  9
$DIMALT
 70
     0
  9
$DIMALTD
 70
     2
  9
$DIMALTF
 40
25.399999999999999
  9
$DIMLFAC
 40
1.0
  9
$DIMTOFL
 70
     0
  9
$DIMTVP
 40
0.0
  9
$DIMTIX
 70
     0
  9
$DIMSOXD
 70
     0
  9
$DIMSAH
 70
     0
  9
$DIMBLK1
  1

  9
$DIMBLK2
  1

  9
$DIMSTYLE
  2
STANDARD
  9
$DIMCLRD
 70
     0
  9
$DIMCLRE
 70
     0
  9
$DIMCLRT
 70
     0
  9
$DIMTFAC
 40
1.0
  9
$DIMGAP
 40
0.09
  9
$LUNITS
 70
     2
  9
$LUPREC
 70
     4
  9
$SKETCHINC
 40
0.1
  9
$FILLETRAD
 40
0.0
  9
$AUNITS
 70
     0
  9
$AUPREC
 70
     0
  9
$MENU
  1
.
  9
$ELEVATION
 40
0.0
  9
$PELEVATION
 40
0.0
  9
$THICKNESS
 40
0.0
  9
$LIMCHECK
 70
     0
  9
$BLIPMODE
 70
     0
  9
$CHAMFERA
 40
0.0
  9
$CHAMFERB
 40
0.0
  9
$SKPOLY
 70
     0
  9
$TDCREATE
 40
2444972.375
  9
$TDUPDATE
 40
2457435.2476258678
  9
$TDINDWG
 40
0.0000300926
  9
$TDUSRTIMER
 40
0.0000300926
  9
$USRTIMER
 70
     1
  9
$ANGBASE
 50
0.0
  9
$ANGDIR
 70
     0
  9
$PDMODE
 70
     0
  9
$PDSIZE
 40
0.0
  9
$PLINEWID
 40
0.0
  9
$COORDS
 70
     1
  9
$SPLFRAME
 70
     0
  9
$SPLINETYPE
 70
     6
  9
$SPLINESEGS
 70
     8
  9
$ATTDIA
 70
     1
  9
$ATTREQ
 70
     1
  9
$HANDLING
 70
     1
  9
$HANDSEED
  5
257
  9
$SURFTAB1
 70
     6
  9
$SURFTAB2
 70
     6
  9
$SURFTYPE
 70
     6
  9
$SURFU
 70
     6
  9
$SURFV
 70
     6
  9
$UCSNAME
  2

  9
$UCSORG
 10
0.0
 20
0.0
 30
0.0
  9
$UCSXDIR
 10
1.0
 20
0.0
 30
0.0
  9
$UCSYDIR
 10
0.0
 20
1.0
 30
0.0
  9
$PUCSNAME
  2

  9
$PUCSORG
 10
0.0
 20
0.0
 30
0.0
  9
$PUCSXDIR
 10
1.0
 20
0.0
 30
0.0
  9
$PUCSYDIR
 10
0.0
 20
1.0
 30
0.0
  9
$USERI1
 70
     0
  9
$USERI2
 70
     0
  9
$USERI3
 70
     0
  9
$USERI4
 70
     0
  9
$USERI5
 70
     0
  9
$USERR1
 40
0.0
  9
$USERR2
 40
0.0
  9
$USERR3
 40
0.0
  9
$USERR4
 40
0.0
  9
$USERR5
 40
0.0
  9
$WORLDVIEW
 70
     1
  9
$SHADEDGE
 70
     3
  9
$SHADEDIF
 70
    70
  9
$TILEMODE
 70
     1
  9
$MAXACTVP
 70
    48
  9
$PLIMCHECK
 70
     0
  9
$PEXTMIN
 10
1.0000000000000000E+020
 20
1.0000000000000000E+020
 30
1.0000000000000000E+020
  9
$PEXTMAX
 10
-1.0000000000000000E+020
 20
-1.0000000000000000E+020
 30
-1.0000000000000000E+020
  9
$PLIMMIN
 10
0.0
 20
0.0
  9
$PLIMMAX
 10
12.0
 20
9.0
  9
$UNITMODE
 70
     0
  9
$VISRETAIN
 70
     1
  9
$PLINEGEN
 70
     0
  9
$PSLTSCALE
 70
     1
  0
ENDSEC
  0
SECTION
  2
TABLES
  0
TABLE
  2
VPORT
 70
     1
  0
VPORT
  2
*ACTIVE
 70
     0
 10
0.0
 20
0.0
 11
1.0
 21
1.0
 12
156.29059996312719
 22
127.4298
 13
0.0
 23
0.0
 14
1.0
 24
1.0
 15
0.0
 25
0.0
 16
0.0
 26
0.0
 36
1.0
 17
0.0
 27
0.0
 37
0.0
 40
282.89992383679322
 41
2.0381526104417671
 42
50.0
 43
0.0
 44
0.0
 50
0.0
 51
0.0
 71
     0
 72
   100
 73
     1
 74
     1
 75
     0
 76
     0
 77
     0
 78
     0
  0
ENDTAB
  0
TABLE
  2
LTYPE
 70
     4
  0
LTYPE
  2
CONTINUOUS
 70
     0
  3
Solid line
 72
    65
 73
     0
 40
0.0
  0
LTYPE
  2
AIGENLINE001
 70
     0
  3
generate AI->DXF Converter
 72
    65
 73
     2
 40
1.5522299999999991
 49
0.776115
 49
-0.776115
  0
LTYPE
  2
AIGENLINE002
 70
     0
  3
generate AI->DXF Converter
 72
    65
 73
     4
 40
5.8561449999999988
 49
3.5278
 49
-0.776115
 49
0.776115
 49
-0.776115
  0
LTYPE
  2
AIGENLINE003
 70
     0
  3
generate AI->DXF Converter
 72
    65
 73
     6
 40
7.4083750000000004
 49
3.5278
 49
-0.776115
 49
0.776115
 49
-0.776115
 49
0.776115
 49
-0.776115
  0
ENDTAB
  0
TABLE
  2
LAYER
 70
     2
  0
LAYER
  2
0
 70
     0
 62
     7
  6
CONTINUOUS
  0
LAYER
  2
_________2
 70
     0
 62
     7
  6
CONTINUOUS
  0
ENDTAB
  0
TABLE
  2
STYLE
 70
     1
  0
STYLE
  2
STANDARD
 70
     0
 40
0.0
 41
0.0
 50
0.0
 71
     0
 42
0.0
  3
TXT
  4
EXTFONT.SHX
  0
ENDTAB
  0
TABLE
  2
VIEW
 70
     0
  0
ENDTAB
  0
TABLE
  2
UCS
 70
     0
  0
ENDTAB
  0
TABLE
  2
APPID
 70
     3
  0
APPID
  2
ACAD
 70
     0
  0
APPID
  2
ACAD_NAV_VCDISPLAY
 70
     0
  0
APPID
  2
ACAD_MLEADERVER
 70
     0
  0
ENDTAB
  0
TABLE
  2
DIMSTYLE
 70
     1
  0
DIMSTYLE
  2
STANDARD
 70
     0
  3

  4

  5

  6

  7

 40
1.0
 41
0.18
 42
0.0625
 43
0.38
 44
0.18
 45
0.0
 46
0.0
 47
0.0
 48
0.0
140
0.18
141
0.09
142
0.0
143
25.399999999999999
144
1.0
145
0.0
146
1.0
147
0.09
 71
     0
 72
     0
 73
     1
 74
     1
 75
     0
 76
     0
 77
     0
 78
     0
170
     0
171
     2
172
     0
173
     0
174
     0
175
     0
176
     0
177
     0
178
     0
  0
ENDTAB
  0
ENDSEC
  0
SECTION
  2
BLOCKS
  0
BLOCK
  8
0
  2
$MODEL_SPACE
 70
     0
 10
0.0
 20
0.0
 30
0.0
  3
$MODEL_SPACE
  1

  0
ENDBLK
  5
1A
  8
0
  0
BLOCK
 67
     1
  8
0
  2
$PAPER_SPACE
 70
     0
 10
0.0
 20
0.0
 30
0.0
  3
$PAPER_SPACE
  1

  0
ENDBLK
  5
17
 67
     1
  8
0
  0
ENDSEC
  0
SECTION
  2
ENTITIES
  0
TEXT
  5
24
  8
0
 62
     7
 10
96.448800000000006
 20
204.08137249999999
 30
0.0
 40
3.0923400000000001
  1
60
 50
90.0
 41
0.5
 72
     1
 11
96.448800000000006
 21
205.24100000000001
 31
0.0
  0
TEXT
  5
25
  8
0
 62
     7
 10
166.69
 20
187.92944
 30
0.0
 40
3.0923400000000001
  1
365
 50
90.0
 41
0.5
 72
     1
 11
166.69
 21
189.99100000000001
 31
0.0
  0
TEXT
  5
26
  8
0
 62
     7
 10
125.831
 20
194.92944
 30
0.0
 40
3.0923400000000001
  1
225
 50
90.0
 41
0.5
 72
     1
 11
125.831
 21
196.99100000000001
 31
0.0
  0
TEXT
  5
27
  8
0
 62
     7
 10
96.448800000000006
 20
198.08137249999999
 30
0.0
 40
3.0923400000000001
  1
60
 50
90.0
 41
0.5
 72
     1
 11
96.448800000000006
 21
199.2409999999999
 31
0.0
  0
TEXT
  5
28
  8
0
 62
     7
 10
27.921299999999999
 20
185.30828750000001
 30
0.0
 40
3.0923400000000001
  1
420
 50
90.0
 41
0.5
 72
     1
 11
27.921299999999999
 21
187.24100000000001
 31
0.0
  0
TEXT
  5
29
  8
0
 62
     7
 10
34.5259
 20
161.518
 30
0.0
 40
3.0923400000000001
  1
5
 50
90.0
 41
0.5
  0
TEXT
  5
2A
  8
0
 62
     7
 10
34.5259
 20
200.56598249999999
 30
0.0
 40
3.0923400000000001
  1
120
 50
90.0
 41
0.5
 72
     1
 11
34.5259
 21
202.24100000000001
 31
0.0
  0
TEXT
  5
2B
  8
0
 62
     7
 10
34.5259
 20
179.42944
 30
0.0
 40
3.0923400000000001
  1
295
 50
90.0
 41
0.5
 72
     1
 11
34.5259
 21
181.49100000000001
 31
0.0
  0
TEXT
  5
2C
  8
0
 62
     7
 10
27.921299999999999
 20
92.869329999999991
 30
0.0
 40
3.0923400000000001
  1
115
 50
90.0
 41
0.5
 72
     1
 11
27.921299999999999
 21
94.415499999999994
 31
0.0
  0
TEXT
  5
2D
  8
0
 62
     7
 10
34.5259
 20
97.006272499999994
 30
0.0
 40
3.0923400000000001
  1
40
 50
90.0
 41
0.5
 72
     1
 11
34.5259
 21
98.165899999999993
 31
0.0
  0
TEXT
  5
2E
  8
0
 62
     7
 10
100.34
 20
90.612134999999995
 30
0.0
 40
3.0923400000000001
  1
155
 50
90.0
 41
0.5
 72
     1
 11
100.34
 21
92.415999999999997
 31
0.0
  0
TEXT
  5
2F
  8
0
 62
     7
 10
134.69200000000001
 20
93.2482775
 30
0.0
 40
3.0923400000000001
  1
110
 50
90.0
 41
0.5
 72
     1
 11
134.69200000000001
 21
94.665599999999984
 31
0.0
  0
TEXT
  5
30
  8
0
 62
     7
 10
63.529687500000001
 20
110.107
 30
0.0
 40
3.0923400000000001
  1
280
 41
0.5
 72
     1
 11
65.462400000000002
 21
110.107
 31
0.0
  0
TEXT
  5
31
  8
0
 62
     7
 10
63.529687500000001
 20
149.935
 30
0.0
 40
3.0923400000000001
  1
450
 41
0.5
 72
     1
 11
65.462400000000002
 21
149.935
 31
0.0
  0
TEXT
  5
32
  8
0
 62
     7
 10
125.40388
 20
177.965
 30
0.0
 40
3.0923400000000001
  1
R55
 41
0.5
 72
     2
 11
129.52699999999999
 21
177.965
 31
0.0
  0
TEXT
  5
33
  8
0
 62
     7
 10
73.071079999999995
 20
180.73699999999999
 30
0.0
 40
3.0923400000000001
  1
%%c46
 41
0.5
 72
     2
 11
77.194199999999995
 21
180.73699999999999
 31
0.0
  0
TEXT
  5
34
  8
0
 62
     7
 10
49.346800000000002
 20
212.87299999999999
 30
0.0
 40
3.0923400000000001
  1
%%c35
 41
0.5
  0
TEXT
  5
35
  8
0
 62
     7
 10
148.597454
 20
212.208
 30
0.0
 40
3.0923400000000001
  1
壁
 41
0.5
 72
     1
 11
149.31899999999999
 21
212.208
 31
0.0
  0
TEXT
  5
36
  8
0
 62
     7
 10
134.9672875
 20
163.61099999999999
 30
0.0
 40
3.0923400000000001
  1
360
 41
0.5
 72
     1
 11
136.90000000000001
 21
163.61099999999999
 31
0.0
  0
TEXT
  5
37
  8
0
 62
     7
 10
63.529687500000001
 20
157.43600000000001
 30
0.0
 40
3.0923400000000001
  1
440
 41
0.5
 72
     1
 11
65.462400000000002
 21
157.43600000000001
 31
0.0
  0
TEXT
  5
38
  8
0
 62
     7
 10
146.08843999999999
 20
77.547499999999999
 30
0.0
 40
3.0923400000000001
  1
225
 41
0.5
 72
     1
 11
148.15000000000001
 21
77.547499999999999
 31
0.0
  0
TEXT
  5
39
  8
0
 62
     7
 10
128.65376000000001
 20
152.262
 30
0.0
 40
3.0923400000000001
  1
カウンター切込寸法
 41
0.5
 72
     1
 11
136.90000000000001
 21
152.262
 31
0.0
  0
ARC
  5
3A
  8
0
 62
     7
 10
140.65729300000001
 20
85.441180000000003
 30
0.0
 40
0.257465
 50
102.922667
 51
178.66544099999999
  0
ARC
  5
3B
  8
0
 62
     7
 10
147.45519999999999
 20
89.699669999999998
 30
0.0
 40
3.066034999999999
 50
278.3399839999999
 51
340.28285199999999
  0
LINE
  5
3C
  8
0
 62
     7
 10
151.05099999999999
 20
211.24100000000001
 30
0.0
 11
149.31899999999999
 21
208.24100000000001
 31
0.0
  0
LINE
  5
3D
  8
0
 62
     7
 10
149.31899999999999
 20
208.24100000000001
 30
0.0
 11
147.58699999999999
 21
211.24100000000001
 31
0.0
  0
LINE
  5
3E
  8
0
 62
     7
 10
147.58699999999999
 20
211.24100000000001
 30
0.0
 11
151.05099999999999
 21
211.24100000000001
 31
0.0
  0
LINE
  5
3F
  8
0
 62
     7
 10
68.681700000000006
 20
199.86000000000001
 30
0.0
 11
66.6999
 21
201.00399999999999
 31
0.0
  0
LINE
  5
40
  8
0
 62
     7
 10
66.6999
 20
201.00399999999999
 30
0.0
 11
67.843999999999994
 21
199.02199999999999
 31
0.0
  0
LINE
  5
41
  8
0
 62
     7
 10
67.843999999999994
 20
199.02199999999999
 30
0.0
 11
68.681700000000006
 21
199.86000000000001
 31
0.0
  0
ARC
  5
42
  8
0
 62
     7
 10
124.399997
 20
177.241378
 30
0.0
 40
5.5000429999999989
 50
180.00090700000001
 51
270.00091700000002
  0
LINE
  5
43
  8
0
 62
     7
 10
118.90000000000001
 20
208.24100000000001
 30
0.0
 11
118.90000000000001
 21
177.2409999999999
 31
0.0
  0
ARC
  5
44
  8
0
 62
     7
 10
149.40000699999999
 20
177.24137899999999
 30
0.0
 40
5.5000450000000001
 50
269.999123
 51
359.99909300000002
  0
ARC
  5
45
  8
0
  6
AIGENLINE001
 62
     7
 10
133.378252
 20
248.96150600000001
 30
0.0
 40
159.795671
 50
269.623694
 51
270.00784700000003
  0
ARC
  5
46
  8
0
  6
AIGENLINE001
 62
     7
 10
132.798697
 20
161.894263
 30
0.0
 40
72.726500999999985
 50
268.09180600000002
 51
269.62975599999999
  0
ARC
  5
47
  8
0
  6
AIGENLINE001
 62
     7
 10
131.783174
 20
129.352958
 30
0.0
 40
40.169484999999987
 50
265.01906000000002
 51
267.993943
  0
ARC
  5
48
  8
0
  6
AIGENLINE001
 62
     7
 10
130.50044700000001
 20
113.794273
 30
0.0
 40
24.558291000000001
 50
259.770535
 51
264.84876500000001
  0
ARC
  5
49
  8
0
  6
AIGENLINE001
 62
     7
 10
128.96384399999999
 20
104.875991
 30
0.0
 40
15.509048999999999
 50
250.70714699999999
 51
259.50590899999997
  0
ARC
  5
4A
  8
0
  6
AIGENLINE001
 62
     7
 10
127.367744
 20
99.998786999999993
 30
0.0
 40
10.378923
 50
238.45684399999999
 51
250.12779
  0
ARC
  5
4B
  8
0
  6
AIGENLINE001
 62
     7
 10
126.183644
 20
97.880032
 30
0.0
 40
7.9543899999999992
 50
201.938298
 51
237.741838
  0
ARC
  5
4C
  8
0
  6
AIGENLINE001
 62
     7
 10
128.41129599999999
 20
98.864315000000005
 30
0.0
 40
10.388780000000001
 50
192.228116
 51
202.3836
  0
ARC
  5
4D
  8
0
  6
AIGENLINE001
 62
     7
 10
131.992639
 20
99.729395999999994
 30
0.0
 40
14.072366000000001
 50
184.01238900000001
 51
192.581975
  0
ARC
  5
4E
  8
0
  6
AIGENLINE001
 62
     7
 10
136.700155
 20
100.18870200000001
 30
0.0
 40
18.800923999999998
 50
180.83221900000001
 51
184.40486999999999
  0
ARC
  5
4F
  8
0
  6
AIGENLINE001
 62
     7
 10
142.24166099999999
 20
94.794425000000004
 30
0.0
 40
5.1599779999999988
 50
282.86165399999999
 51
358.56962900000002
  0
LINE
  5
50
  8
0
  6
AIGENLINE001
 62
     7
 10
143.38999999999999
 20
89.763900000000007
 30
0.0
 11
140.40000000000001
 21
89.165800000000004
 31
0.0
  0
LINE
  5
51
  8
0
  6
AIGENLINE001
 62
     7
 10
140.40000000000001
 20
89.165800000000004
 30
0.0
 11
133.40000000000001
 21
89.165800000000004
 31
0.0
  0
LINE
  5
52
  8
0
  6
AIGENLINE001
 62
     7
 10
134.59999999999999
 20
87.665800000000004
 30
0.0
 11
134.59999999999999
 21
84.665800000000004
 31
0.0
  0
LINE
  5
53
  8
0
  6
AIGENLINE001
 62
     7
 10
139.19999999999999
 20
87.665800000000004
 30
0.0
 11
139.19999999999999
 21
84.665800000000004
 31
0.0
  0
LINE
  5
54
  8
0
  6
AIGENLINE001
 62
     7
 10
140.40000000000001
 20
89.165800000000004
 30
0.0
 11
139.19999999999999
 21
87.665800000000004
 31
0.0
  0
LINE
  5
55
  8
0
  6
AIGENLINE001
 62
     7
 10
133.40000000000001
 20
89.165800000000004
 30
0.0
 11
134.59999999999999
 21
87.665800000000004
 31
0.0
  0
LINE
  5
56
  8
0
  6
AIGENLINE001
 62
     7
 10
134.59999999999999
 20
87.665800000000004
 30
0.0
 11
139.19999999999999
 21
87.665800000000004
 31
0.0
  0
LINE
  5
57
  8
0
 62
     7
 10
140.59999999999999
 20
85.692099999999996
 30
0.0
 11
147.90000000000001
 21
86.6661
 31
0.0
  0
ARC
  5
58
  8
0
  6
AIGENLINE001
 62
     7
 10
117.64144400000001
 20
99.905981000000011
 30
0.0
 40
0.25995
 50
2.1285279999999989
 51
87.871461999999994
  0
ARC
  5
59
  8
0
  6
AIGENLINE001
 62
     7
 10
147.65980200000001
 20
99.905981000000011
 30
0.0
 40
0.25995
 50
92.128518000000014
 51
177.87145200000001
  0
ARC
  5
5A
  8
0
 62
     7
 10
117.65971999999999
 20
99.905981000000011
 30
0.0
 40
0.25995
 50
92.128518000000014
 51
177.87145200000001
  0
ARC
  5
5B
  8
0
 62
     7
 10
140.140117
 20
84.925605000000004
 30
0.0
 40
0.25996
 50
272.13072
 51
357.86928999999998
  0
LINE
  5
5C
  8
0
 62
     7
 10
140.15000000000001
 20
84.665800000000004
 30
0.0
 11
136.90000000000001
 21
84.665800000000004
 31
0.0
  0
ARC
  5
5D
  8
0
 62
     7
 10
133.14032700000001
 20
87.905938000000006
 30
0.0
 40
0.25996
 50
2.1307099999999992
 51
87.869280000000003
  0
ARC
  5
5E
  8
0
 62
     7
 10
133.65988899999999
 20
84.925605000000004
 30
0.0
 40
0.25996
 50
182.13073
 51
267.86930000000001
  0
ARC
  5
5F
  8
0
 62
     7
 10
132.62767299999999
 20
1592.704
 30
0.0
 40
1504.538
 50
269.910661
 51
270.019901
  0
ARC
  5
60
  8
0
 62
     7
 10
130.96843999999999
 20
149.461049
 30
0.0
 40
61.297440999999999
 50
267.039558
 51
269.35786300000001
  0
ARC
  5
61
  8
0
 62
     7
 10
129.51930999999999
 20
119.28695999999999
 30
0.0
 40
31.088978999999998
 50
263.300163
 51
266.83463
  0
ARC
  5
62
  8
0
 62
     7
 10
127.779518
 20
103.92807000000001
 30
0.0
 40
15.632127000000001
 50
257.51494400000001
 51
263.06565399999999
  0
LINE
  5
63
  8
0
 62
     7
 10
139.76400000000001
 20
88.188500000000005
 30
0.0
 11
140.40000000000001
 21
86.6661
 31
0.0
  0
LINE
  5
64
  8
0
 62
     7
 10
136.90000000000001
 20
82.614900000000006
 30
0.0
 11
136.90000000000001
 21
76.147400000000005
 31
0.0
  0
LINE
  5
65
  8
0
 62
     7
 10
159.40000000000001
 20
87.965599999999995
 30
0.0
 11
159.40000000000001
 21
76.147400000000005
 31
0.0
  0
LINE
  5
66
  8
0
  6
AIGENLINE001
 62
     7
 10
147.40000000000001
 20
99.915599999999984
 30
0.0
 11
147.40000000000001
 21
94.665599999999984
 31
0.0
  0
LINE
  5
67
  8
0
 62
     7
 10
139.11000000000001
 20
77.432500000000005
 30
0.0
 11
136.90000000000001
 21
76.840199999999996
 31
0.0
  0
LINE
  5
68
  8
0
 62
     7
 10
136.90000000000001
 20
76.840199999999996
 30
0.0
 11
139.11000000000001
 21
76.248000000000005
 31
0.0
  0
LINE
  5
69
  8
0
 62
     7
 10
139.11000000000001
 20
76.248000000000005
 30
0.0
 11
139.11000000000001
 21
77.432500000000005
 31
0.0
  0
LINE
  5
6A
  8
0
 62
     7
 10
157.19
 20
76.262500000000003
 30
0.0
 11
159.40000000000001
 21
76.854699999999994
 31
0.0
  0
LINE
  5
6B
  8
0
 62
     7
 10
159.40000000000001
 20
76.854699999999994
 30
0.0
 11
157.19
 21
77.446899999999999
 31
0.0
  0
LINE
  5
6C
  8
0
 62
     7
 10
157.19
 20
77.446899999999999
 30
0.0
 11
157.19
 21
76.262500000000003
 31
0.0
  0
LINE
  5
6D
  8
0
 62
     7
 10
136.90000000000001
 20
76.847499999999997
 30
0.0
 11
159.40000000000001
 21
76.847499999999997
 31
0.0
  0
LINE
  5
6E
  8
0
  6
AIGENLINE002
 62
     7
 10
156.81299999999999
 20
96.165599999999984
 30
0.0
 11
162.41300000000001
 21
96.165599999999984
 31
0.0
  0
LINE
  5
6F
  8
0
 62
     7
 10
135.977
 20
97.954999999999998
 30
0.0
 11
135.38499999999999
 21
100.166
 31
0.0
  0
LINE
  5
70
  8
0
 62
     7
 10
135.38499999999999
 20
100.166
 30
0.0
 11
134.79300000000001
 21
97.954999999999998
 31
0.0
  0
LINE
  5
71
  8
0
 62
     7
 10
134.79300000000001
 20
97.954999999999998
 30
0.0
 11
135.977
 21
97.954999999999998
 31
0.0
  0
LINE
  5
72
  8
0
 62
     7
 10
134.80699999999999
 20
91.376199999999997
 30
0.0
 11
135.40000000000001
 21
89.165800000000004
 31
0.0
  0
LINE
  5
73
  8
0
 62
     7
 10
135.40000000000001
 20
89.165800000000004
 30
0.0
 11
135.99199999999999
 21
91.376199999999997
 31
0.0
  0
LINE
  5
74
  8
0
 62
     7
 10
135.99199999999999
 20
91.376199999999997
 30
0.0
 11
134.80699999999999
 21
91.376199999999997
 31
0.0
  0
LINE
  5
75
  8
0
 62
     7
 10
135.392
 20
100.166
 30
0.0
 11
135.392
 21
89.165800000000004
 31
0.0
  0
LINE
  5
76
  8
0
  6
AIGENLINE002
 62
     7
 10
153.40000000000001
 20
102.876
 30
0.0
 11
153.40000000000001
 21
97.645300000000006
 31
0.0
  0
LINE
  5
77
  8
0
 62
     7
 10
159.40000000000001
 20
100.166
 30
0.0
 11
159.40000000000001
 21
88.665599999999984
 31
0.0
  0
LINE
  5
78
  8
0
  6
AIGENLINE002
 62
     7
 10
136.90000000000001
 20
90.312000000000012
 30
0.0
 11
136.90000000000001
 21
83.314999999999998
 31
0.0
  0
LINE
  5
79
  8
0
 62
     7
 10
140.40000000000001
 20
85.447199999999995
 30
0.0
 11
140.40000000000001
 21
84.915899999999993
 31
0.0
  0
LINE
  5
7A
  8
0
 62
     7
 10
133.40000000000001
 20
87.915599999999998
 30
0.0
 11
133.40000000000001
 21
84.915899999999993
 31
0.0
  0
LINE
  5
7B
  8
0
 62
     7
 10
117.40000000000001
 20
99.915599999999984
 30
0.0
 11
117.40000000000001
 21
88.665599999999984
 31
0.0
  0
LINE
  5
7C
  8
0
 62
     7
 10
133.65000000000001
 20
84.665800000000004
 30
0.0
 11
136.90000000000001
 21
84.665800000000004
 31
0.0
  0
LINE
  5
7D
  8
0
 62
     7
 10
117.40000000000001
 20
88.665599999999984
 30
0.0
 11
159.40000000000001
 21
88.665599999999984
 31
0.0
  0
LINE
  5
7E
  8
0
 62
     7
 10
124.40000000000001
 20
171.74100000000001
 30
0.0
 11
149.40000000000001
 21
171.74100000000001
 31
0.0
  0
LINE
  5
7F
  8
0
 62
     7
 10
154.90000000000001
 20
208.24100000000001
 30
0.0
 11
162.452
 21
208.24100000000001
 31
0.0
  0
LINE
  5
80
  8
0
 62
     7
 10
111.348
 20
208.24100000000001
 30
0.0
 11
118.90000000000001
 21
208.24100000000001
 31
0.0
  0
LINE
  5
81
  8
0
  6
AIGENLINE003
 62
     7
 10
118.90000000000001
 20
208.24100000000001
 30
0.0
 11
154.90000000000001
 21
208.24100000000001
 31
0.0
  0
LINE
  5
82
  8
0
 62
     7
 10
117.65000000000001
 20
100.166
 30
0.0
 11
159.40000000000001
 21
100.166
 31
0.0
  0
ARC
  5
83
  8
0
 62
     7
 10
87.702680999999998
 20
99.905974999999984
 30
0.0
 40
0.259955
 50
2.1296179999999998
 51
87.870372000000003
  0
ARC
  5
84
  8
0
 62
     7
 10
43.222104999999992
 20
99.905981000000011
 30
0.0
 40
0.25995
 50
92.128518000000014
 51
177.87145200000001
  0
LINE
  5
85
  8
0
  6
AIGENLINE001
 62
     7
 10
79.962900000000005
 20
95.165499999999994
 30
0.0
 11
78.962400000000002
 21
95.165499999999994
 31
0.0
  0
LINE
  5
86
  8
0
  6
AIGENLINE001
 62
     7
 10
79.962900000000005
 20
97.165700000000001
 30
0.0
 11
78.962400000000002
 21
97.165700000000001
 31
0.0
  0
ARC
  5
87
  8
0
  6
AIGENLINE001
 62
     7
 10
79.001052000000001
 20
96.127350000000007
 30
0.0
 40
1.0391099999999991
 50
92.129931000000013
 51
177.87003899999999
  0
ARC
  5
88
  8
0
  6
AIGENLINE001
 62
     7
 10
79.001356999999985
 20
96.204179000000011
 30
0.0
 40
1.0394000000000001
 50
182.10672999999991
 51
267.85382600000003
  0
ARC
  5
89
  8
0
  6
AIGENLINE001
 62
     7
 10
79.924226000000004
 20
96.203923000000003
 30
0.0
 40
1.0391349999999999
 50
272.132588
 51
357.90689500000002
  0
ARC
  5
8A
  8
0
  6
AIGENLINE001
 62
     7
 10
79.924656999999996
 20
96.127731999999995
 30
0.0
 40
1.0387150000000001
 50
2.1096710000000001
 51
87.890318999999991
  0
ARC
  5
8B
  8
0
 62
     7
 10
68.702515000000005
 20
84.925599000000005
 30
0.0
 40
0.259955
 50
272.12962800000003
 51
357.87038200000001
  0
LINE
  5
8C
  8
0
  6
AIGENLINE002
 62
     7
 10
79.462699999999998
 20
210.899
 30
0.0
 11
79.462699999999998
 21
205.703
 31
0.0
  0
LINE
  5
8D
  8
0
  6
AIGENLINE002
 62
     7
 10
51.462099999999992
 20
210.899
 30
0.0
 11
51.462099999999992
 21
205.703
 31
0.0
  0
LINE
  5
8E
  8
0
  6
AIGENLINE002
 62
     7
 10
79.462699999999998
 20
98.471800000000016
 30
0.0
 11
79.462699999999998
 21
93.940099999999987
 31
0.0
  0
LINE
  5
8F
  8
0
  6
AIGENLINE002
 62
     7
 10
82.043700000000001
 20
96.165999999999997
 30
0.0
 11
76.972499999999997
 21
96.165999999999997
 31
0.0
  0
LINE
  5
90
  8
0
 62
     7
 10
68.712199999999996
 20
84.665800000000004
 30
0.0
 11
65.462400000000002
 21
84.665800000000004
 31
0.0
  0
LINE
  5
91
  8
0
  6
AIGENLINE001
 62
     7
 10
50.961899999999993
 20
95.165499999999994
 30
0.0
 11
51.962400000000002
 21
95.165499999999994
 31
0.0
  0
LINE
  5
92
  8
0
  6
AIGENLINE001
 62
     7
 10
50.961899999999993
 20
97.165700000000001
 30
0.0
 11
51.962400000000002
 21
97.165700000000001
 31
0.0
  0
ARC
  5
93
  8
0
  6
AIGENLINE001
 62
     7
 10
51.923740000000002
 20
96.127350000000007
 30
0.0
 40
1.0391099999999991
 50
2.1299410000000001
 51
87.870048999999995
  0
ARC
  5
94
  8
0
  6
AIGENLINE001
 62
     7
 10
51.923434
 20
96.204179000000011
 30
0.0
 40
1.039401
 50
272.14621099999999
 51
357.89327300000002
  0
ARC
  5
95
  8
0
  6
AIGENLINE001
 62
     7
 10
51.000565000000002
 20
96.203921999999991
 30
0.0
 40
1.039134
 50
182.093107
 51
267.86744900000002
  0
ARC
  5
96
  8
0
  6
AIGENLINE001
 62
     7
 10
51.000134000000003
 20
96.127733000000006
 30
0.0
 40
1.038713999999999
 50
92.109643999999989
 51
177.89032599999999
  0
LINE
  5
97
  8
0
  6
AIGENLINE001
 62
     7
 10
61.462600000000002
 20
97.165700000000001
 30
0.0
 11
69.462500000000006
 21
97.165700000000001
 31
0.0
  0
LINE
  5
98
  8
0
  6
AIGENLINE001
 62
     7
 10
61.462600000000002
 20
98.165499999999994
 30
0.0
 11
69.462500000000006
 21
98.165499999999994
 31
0.0
  0
ARC
  5
99
  8
0
  6
AIGENLINE001
 62
     7
 10
69.443212000000003
 20
97.646319999999974
 30
0.0
 40
0.519555
 50
2.1299410000000001
 51
87.870048999999995
  0
ARC
  5
9A
  8
0
  6
AIGENLINE001
 62
     7
 10
69.443206000000004
 20
97.684943999999987
 30
0.0
 40
0.5195610000000001
 50
272.1304970000001
 51
357.86951299999998
  0
ARC
  5
9B
  8
0
  6
AIGENLINE001
 62
     7
 10
61.481923999999999
 20
97.684939000000014
 30
0.0
 40
0.519555
 50
182.12996100000001
 51
267.870069
  0
ARC
  5
9C
  8
0
  6
AIGENLINE001
 62
     7
 10
61.481929000000001
 20
97.646314000000004
 30
0.0
 40
0.5195610000000001
 50
92.130477999999997
 51
177.86949300000001
  0
ARC
  5
9D
  8
0
 62
     7
 10
69.222065999999984
 20
87.906975999999986
 30
0.0
 40
0.259955
 50
92.129608000000005
 51
177.870362
  0
LINE
  5
9E
  8
0
 62
     7
 10
68.962299999999999
 20
87.916600000000003
 30
0.0
 11
68.962299999999999
 21
84.915899999999993
 31
0.0
  0
ARC
  5
9F
  8
0
 62
     7
 10
61.702725999999998
 20
87.906975999999986
 30
0.0
 40
0.259955
 50
2.1296179999999998
 51
87.870372000000003
  0
ARC
  5
A0
  8
0
 62
     7
 10
62.222277000000012
 20
84.925599000000005
 30
0.0
 40
0.259955
 50
182.129638
 51
267.87039199999998
  0
ARC
  5
A1
  8
0
 62
     7
 10
64.690702999999999
 20
694.66134499999998
 30
0.0
 40
606.51144899999997
 50
270.42716899999999
 51
270.61537099999998
  0
ARC
  5
A2
  8
0
 62
     7
 10
69.633105
 20
205.338731
 30
0.0
 40
117.164394
 50
270.768507
 51
272.4725049999999
  0
ARC
  5
A3
  8
0
 62
     7
 10
71.994949000000005
 20
147.662869
 30
0.0
 40
59.440474000000002
 50
272.59634999999997
 51
275.10168199999998
  0
ARC
  5
A4
  8
0
 62
     7
 10
74.695276000000007
 20
116.300763
 30
0.0
 40
27.962664
 50
275.30493200000001
 51
278.77775100000002
  0
ARC
  5
A5
  8
0
 62
     7
 10
66.234088999999997
 20
694.66134499999998
 30
0.0
 40
606.51144899999997
 50
269.38464900000002
 51
269.5728509999999
  0
ARC
  5
A6
  8
0
 62
     7
 10
61.291687000000003
 20
205.338731
 30
0.0
 40
117.164394
 50
267.527514
 51
269.23151300000001
  0
ARC
  5
A7
  8
0
 62
     7
 10
58.929843000000012
 20
147.662869
 30
0.0
 40
59.440474000000002
 50
264.89833800000002
 51
267.40366999999998
  0
ARC
  5
A8
  8
0
 62
     7
 10
56.229514999999999
 20
116.300763
 30
0.0
 40
27.962664
 50
261.22226899999998
 51
264.695087
  0
LINE
  5
A9
  8
0
 62
     7
 10
101.625
 20
97.954999999999998
 30
0.0
 11
101.033
 21
100.166
 31
0.0
  0
LINE
  5
AA
  8
0
 62
     7
 10
101.033
 20
100.166
 30
0.0
 11
100.441
 21
97.954999999999998
 31
0.0
  0
LINE
  5
AB
  8
0
 62
     7
 10
100.441
 20
97.954999999999998
 30
0.0
 11
101.625
 21
97.954999999999998
 31
0.0
  0
LINE
  5
AC
  8
0
 62
     7
 10
100.455
 20
86.876199999999997
 30
0.0
 11
101.048
 21
84.665800000000004
 31
0.0
  0
LINE
  5
AD
  8
0
 62
     7
 10
101.048
 20
84.665800000000004
 30
0.0
 11
101.64
 21
86.876199999999997
 31
0.0
  0
LINE
  5
AE
  8
0
 62
     7
 10
101.64
 20
86.876199999999997
 30
0.0
 11
100.455
 21
86.876199999999997
 31
0.0
  0
LINE
  5
AF
  8
0
 62
     7
 10
101.04000000000001
 20
100.166
 30
0.0
 11
101.04000000000001
 21
84.665800000000004
 31
0.0
  0
LINE
  5
B0
  8
0
  6
AIGENLINE002
 62
     7
 10
79.462699999999998
 20
98.471800000000016
 30
0.0
 11
79.462699999999998
 21
93.940099999999987
 31
0.0
  0
LINE
  5
B1
  8
0
  6
AIGENLINE002
 62
     7
 10
51.462099999999992
 20
98.471800000000016
 30
0.0
 11
51.462099999999992
 21
93.940099999999987
 31
0.0
  0
LINE
  5
B2
  8
0
 62
     7
 10
79.462699999999998
 20
110.107
 30
0.0
 11
79.462699999999998
 21
99.171800000000005
 31
0.0
  0
LINE
  5
B3
  8
0
  6
AIGENLINE002
 62
     7
 10
48.881
 20
96.165999999999997
 30
0.0
 11
53.952300000000001
 21
96.165999999999997
 31
0.0
  0
LINE
  5
B4
  8
0
 62
     7
 10
34.5259
 20
96.165999999999997
 30
0.0
 11
48.181000000000012
 21
96.165999999999997
 31
0.0
  0
LINE
  5
B5
  8
0
 62
     7
 10
27.921299999999999
 20
88.665599999999984
 30
0.0
 11
33.930999999999997
 21
88.665599999999984
 31
0.0
  0
LINE
  5
B6
  8
0
 62
     7
 10
69.968999999999994
 20
84.665800000000004
 30
0.0
 11
101.741
 21
84.665800000000004
 31
0.0
  0
LINE
  5
B7
  8
0
 62
     7
 10
88.662499999999994
 20
100.166
 30
0.0
 11
101.741
 21
100.166
 31
0.0
  0
LINE
  5
B8
  8
0
 62
     7
 10
27.921299999999999
 20
100.166
 30
0.0
 11
42.262300000000003
 21
100.166
 31
0.0
  0
LINE
  5
B9
  8
0
 62
     7
 10
53.672499999999999
 20
109.992
 30
0.0
 11
51.462099999999992
 21
109.399
 31
0.0
  0
LINE
  5
BA
  8
0
 62
     7
 10
51.462099999999992
 20
109.399
 30
0.0
 11
53.672499999999999
 21
108.807
 31
0.0
  0
LINE
  5
BB
  8
0
 62
     7
 10
53.672499999999999
 20
108.807
 30
0.0
 11
53.672499999999999
 21
109.992
 31
0.0
  0
LINE
  5
BC
  8
0
 62
     7
 10
77.252099999999999
 20
108.822
 30
0.0
 11
79.462699999999998
 21
109.414
 31
0.0
  0
LINE
  5
BD
  8
0
 62
     7
 10
79.462699999999998
 20
109.414
 30
0.0
 11
77.252099999999999
 21
110.006
 31
0.0
  0
LINE
  5
BE
  8
0
 62
     7
 10
77.252099999999999
 20
110.006
 30
0.0
 11
77.252099999999999
 21
108.822
 31
0.0
  0
LINE
  5
BF
  8
0
 62
     7
 10
51.462099999999992
 20
109.407
 30
0.0
 11
79.462699999999998
 21
109.407
 31
0.0
  0
LINE
  5
C0
  8
0
 62
     7
 10
29.206299999999999
 20
97.954999999999998
 30
0.0
 11
28.614100000000001
 21
100.166
 31
0.0
  0
LINE
  5
C1
  8
0
 62
     7
 10
28.614100000000001
 20
100.166
 30
0.0
 11
28.021699999999999
 21
97.954999999999998
 31
0.0
  0
LINE
  5
C2
  8
0
 62
     7
 10
28.021699999999999
 20
97.954999999999998
 30
0.0
 11
29.206299999999999
 21
97.954999999999998
 31
0.0
  0
LINE
  5
C3
  8
0
 62
     7
 10
28.0364
 20
90.876000000000005
 30
0.0
 11
28.628599999999999
 21
88.665599999999984
 31
0.0
  0
LINE
  5
C4
  8
0
 62
     7
 10
28.628599999999999
 20
88.665599999999984
 30
0.0
 11
29.221
 21
90.876000000000005
 31
0.0
  0
LINE
  5
C5
  8
0
 62
     7
 10
29.221
 20
90.876000000000005
 30
0.0
 11
28.0364
 21
90.876000000000005
 31
0.0
  0
LINE
  5
C6
  8
0
 62
     7
 10
28.621300000000002
 20
100.166
 30
0.0
 11
28.621300000000002
 21
88.665599999999984
 31
0.0
  0
LINE
  5
C7
  8
0
 62
     7
 10
35.818199999999997
 20
93.954899999999995
 30
0.0
 11
35.225999999999999
 21
96.165999999999997
 31
0.0
  0
LINE
  5
C8
  8
0
 62
     7
 10
35.225999999999999
 20
96.165999999999997
 30
0.0
 11
34.633600000000001
 21
93.954899999999995
 31
0.0
  0
LINE
  5
C9
  8
0
 62
     7
 10
34.633600000000001
 20
93.954899999999995
 30
0.0
 11
35.818199999999997
 21
93.954899999999995
 31
0.0
  0
LINE
  5
CA
  8
0
 62
     7
 10
34.633800000000001
 20
102.377
 30
0.0
 11
35.225999999999999
 21
100.166
 31
0.0
  0
LINE
  5
CB
  8
0
 62
     7
 10
35.225999999999999
 20
100.166
 30
0.0
 11
35.818399999999997
 21
102.377
 31
0.0
  0
LINE
  5
CC
  8
0
 62
     7
 10
35.818399999999997
 20
102.377
 30
0.0
 11
34.633800000000001
 21
102.377
 31
0.0
  0
LINE
  5
CD
  8
0
 62
     7
 10
35.225999999999999
 20
103.351
 30
0.0
 11
35.225999999999999
 21
93.1267
 31
0.0
  0
LINE
  5
CE
  8
0
 62
     7
 10
51.462099999999992
 20
110.107
 30
0.0
 11
51.462099999999992
 21
99.171800000000005
 31
0.0
  0
LINE
  5
CF
  8
0
 62
     7
 10
87.962500000000006
 20
99.915599999999984
 30
0.0
 11
87.962500000000006
 21
88.665599999999984
 31
0.0
  0
LINE
  5
D0
  8
0
  6
AIGENLINE002
 62
     7
 10
136.90000000000001
 20
211.82599999999999
 30
0.0
 11
136.90000000000001
 21
168.273
 31
0.0
  0
LINE
  5
D1
  8
0
  6
AIGENLINE002
 62
     7
 10
65.462400000000002
 20
103.10599999999999
 30
0.0
 11
65.462400000000002
 21
81.920400000000001
 31
0.0
  0
LINE
  5
D2
  8
0
 62
     7
 10
61.962499999999999
 20
87.916600000000003
 30
0.0
 11
61.962499999999999
 21
84.915899999999993
 31
0.0
  0
LINE
  5
D3
  8
0
 62
     7
 10
42.962299999999999
 20
99.915599999999984
 30
0.0
 11
42.962299999999999
 21
88.665599999999984
 31
0.0
  0
LINE
  5
D4
  8
0
 62
     7
 10
62.212600000000002
 20
84.665800000000004
 30
0.0
 11
65.462400000000002
 21
84.665800000000004
 31
0.0
  0
LINE
  5
D5
  8
0
  6
AIGENLINE003
 62
     7
 10
34.631
 20
88.665599999999984
 30
0.0
 11
94.486500000000007
 21
88.665599999999984
 31
0.0
  0
LINE
  5
D6
  8
0
 62
     7
 10
42.962299999999999
 20
88.665599999999984
 30
0.0
 11
87.962500000000006
 21
88.665599999999984
 31
0.0
  0
LINE
  5
D7
  8
0
 62
     7
 10
43.212499999999999
 20
100.166
 30
0.0
 11
87.712299999999999
 21
100.166
 31
0.0
  0
LINE
  5
D8
  8
0
 62
     7
 10
127.116
 20
206.03100000000001
 30
0.0
 11
126.524
 21
208.24100000000001
 31
0.0
  0
LINE
  5
D9
  8
0
 62
     7
 10
126.524
 20
208.24100000000001
 30
0.0
 11
125.932
 21
206.03100000000001
 31
0.0
  0
LINE
  5
DA
  8
0
 62
     7
 10
125.932
 20
206.03100000000001
 30
0.0
 11
127.116
 21
206.03100000000001
 31
0.0
  0
LINE
  5
DB
  8
0
 62
     7
 10
125.946
 20
187.952
 30
0.0
 11
126.538
 21
185.7409999999999
 31
0.0
  0
LINE
  5
DC
  8
0
 62
     7
 10
126.538
 20
185.7409999999999
 30
0.0
 11
127.131
 21
187.952
 31
0.0
  0
LINE
  5
DD
  8
0
 62
     7
 10
127.131
 20
187.952
 30
0.0
 11
125.946
 21
187.952
 31
0.0
  0
LINE
  5
DE
  8
0
 62
     7
 10
126.53100000000001
 20
208.24100000000001
 30
0.0
 11
126.53100000000001
 21
185.7409999999999
 31
0.0
  0
LINE
  5
DF
  8
0
 62
     7
 10
129.52699999999999
 20
177.26499999999999
 30
0.0
 11
124.42400000000001
 21
177.26499999999999
 31
0.0
  0
LINE
  5
E0
  8
0
 62
     7
 10
130.934
 20
185.7409999999999
 30
0.0
 11
125.831
 21
185.7409999999999
 31
0.0
  0
LINE
  5
E1
  8
0
 62
     7
 10
121.655
 20
175.334
 30
0.0
 11
120.511
 21
173.352
 31
0.0
  0
LINE
  5
E2
  8
0
 62
     7
 10
120.511
 20
173.352
 30
0.0
 11
122.49299999999999
 21
174.49600000000001
 31
0.0
  0
LINE
  5
E3
  8
0
 62
     7
 10
122.49299999999999
 20
174.49600000000001
 30
0.0
 11
121.655
 21
175.334
 31
0.0
  0
LINE
  5
E4
  8
0
 62
     7
 10
124.42400000000001
 20
177.26499999999999
 30
0.0
 11
120.511
 21
173.352
 31
0.0
  0
LINE
  5
E5
  8
0
 62
     7
 10
167.97499999999999
 20
206.03100000000001
 30
0.0
 11
167.38300000000001
 21
208.24100000000001
 31
0.0
  0
LINE
  5
E6
  8
0
 62
     7
 10
167.38300000000001
 20
208.24100000000001
 30
0.0
 11
166.791
 21
206.03100000000001
 31
0.0
  0
LINE
  5
E7
  8
0
 62
     7
 10
166.791
 20
206.03100000000001
 30
0.0
 11
167.97499999999999
 21
206.03100000000001
 31
0.0
  0
LINE
  5
E8
  8
0
 62
     7
 10
166.80500000000001
 20
173.952
 30
0.0
 11
167.398
 21
171.74100000000001
 31
0.0
  0
LINE
  5
E9
  8
0
 62
     7
 10
167.398
 20
171.74100000000001
 30
0.0
 11
167.99000000000001
 21
173.952
 31
0.0
  0
LINE
  5
EA
  8
0
 62
     7
 10
167.99000000000001
 20
173.952
 30
0.0
 11
166.80500000000001
 21
173.952
 31
0.0
  0
LINE
  5
EB
  8
0
 62
     7
 10
167.38999999999999
 20
208.24100000000001
 30
0.0
 11
167.38999999999999
 21
171.74100000000001
 31
0.0
  0
LINE
  5
EC
  8
0
 62
     7
 10
152.0979999999999
 20
171.74100000000001
 30
0.0
 11
168.09
 21
171.74100000000001
 31
0.0
  0
LINE
  5
ED
  8
0
 62
     7
 10
163.15199999999999
 20
208.24100000000001
 30
0.0
 11
168.083
 21
208.24100000000001
 31
0.0
  0
LINE
  5
EE
  8
0
 62
     7
 10
97.741100000000003
 20
200.03100000000001
 30
0.0
 11
97.148899999999998
 21
202.24100000000001
 31
0.0
  0
LINE
  5
EF
  8
0
 62
     7
 10
97.148899999999998
 20
202.24100000000001
 30
0.0
 11
96.556600000000003
 21
200.03100000000001
 31
0.0
  0
LINE
  5
F0
  8
0
 62
     7
 10
96.556600000000003
 20
200.03100000000001
 30
0.0
 11
97.741100000000003
 21
200.03100000000001
 31
0.0
  0
LINE
  5
F1
  8
0
 62
     7
 10
97.733800000000016
 20
206.03100000000001
 30
0.0
 11
97.141599999999997
 21
208.24100000000001
 31
0.0
  0
LINE
  5
F2
  8
0
 62
     7
 10
97.141599999999997
 20
208.24100000000001
 30
0.0
 11
96.549400000000006
 21
206.03100000000001
 31
0.0
  0
LINE
  5
F3
  8
0
 62
     7
 10
96.549400000000006
 20
206.03100000000001
 30
0.0
 11
97.733800000000016
 21
206.03100000000001
 31
0.0
  0
LINE
  5
F4
  8
0
 62
     7
 10
96.556600000000003
 20
204.452
 30
0.0
 11
97.148899999999998
 21
202.24100000000001
 31
0.0
  0
LINE
  5
F5
  8
0
 62
     7
 10
97.148899999999998
 20
202.24100000000001
 30
0.0
 11
97.741100000000003
 21
204.452
 31
0.0
  0
LINE
  5
F6
  8
0
 62
     7
 10
97.741100000000003
 20
204.452
 30
0.0
 11
96.556600000000003
 21
204.452
 31
0.0
  0
LINE
  5
F7
  8
0
 62
     7
 10
96.563900000000004
 20
198.452
 30
0.0
 11
97.156099999999995
 21
196.24100000000001
 31
0.0
  0
LINE
  5
F8
  8
0
 62
     7
 10
97.156099999999995
 20
196.24100000000001
 30
0.0
 11
97.748300000000015
 21
198.452
 31
0.0
  0
LINE
  5
F9
  8
0
 62
     7
 10
97.748300000000015
 20
198.452
 30
0.0
 11
96.563900000000004
 21
198.452
 31
0.0
  0
LINE
  5
FA
  8
0
 62
     7
 10
97.148899999999998
 20
208.24100000000001
 30
0.0
 11
97.148899999999998
 21
196.24100000000001
 31
0.0
  0
LINE
  5
FB
  8
0
 62
     7
 10
71.167199999999994
 20
180.03700000000001
 30
0.0
 11
77.194199999999995
 21
180.03700000000001
 31
0.0
  0
LINE
  5
FC
  8
0
 62
     7
 10
34.5259
 20
166.74100000000001
 30
0.0
 11
44.186700000000002
 21
166.74100000000001
 31
0.0
  0
LINE
  5
FD
  8
0
 62
     7
 10
27.921299999999999
 20
166.24100000000001
 30
0.0
 11
44.976399999999991
 21
166.24100000000001
 31
0.0
  0
LINE
  5
FE
  8
0
 62
     7
 10
70.0261
 20
202.24100000000001
 30
0.0
 11
97.8489
 21
202.24100000000001
 31
0.0
  0
LINE
  5
FF
  8
0
 62
     7
 10
121.11
 20
163.49600000000001
 30
0.0
 11
118.90000000000001
 21
162.90299999999999
 31
0.0
  0
LINE
  5
100
  8
0
 62
     7
 10
118.90000000000001
 20
162.90299999999999
 30
0.0
 11
121.11
 21
162.31100000000001
 31
0.0
  0
LINE
  5
101
  8
0
 62
     7
 10
121.11
 20
162.31100000000001
 30
0.0
 11
121.11
 21
163.49600000000001
 31
0.0
  0
LINE
  5
102
  8
0
 62
     7
 10
152.69
 20
162.32599999999999
 30
0.0
 11
154.90000000000001
 21
162.91800000000001
 31
0.0
  0
LINE
  5
103
  8
0
 62
     7
 10
154.90000000000001
 20
162.91800000000001
 30
0.0
 11
152.69
 21
163.50999999999999
 31
0.0
  0
LINE
  5
104
  8
0
 62
     7
 10
152.69
 20
163.50999999999999
 30
0.0
 11
152.69
 21
162.32599999999999
 31
0.0
  0
LINE
  5
105
  8
0
 62
     7
 10
118.90000000000001
 20
162.911
 30
0.0
 11
154.90000000000001
 21
162.911
 31
0.0
  0
LINE
  5
106
  8
0
 62
     7
 10
154.90000000000001
 20
174.791
 30
0.0
 11
154.90000000000001
 21
162.21100000000001
 31
0.0
  0
LINE
  5
107
  8
0
 62
     7
 10
118.90000000000001
 20
174.791
 30
0.0
 11
118.90000000000001
 21
162.21100000000001
 31
0.0
  0
LINE
  5
108
  8
0
 62
     7
 10
45.172699999999992
 20
149.81999999999999
 30
0.0
 11
42.962299999999999
 21
149.22800000000001
 31
0.0
  0
LINE
  5
109
  8
0
 62
     7
 10
42.962299999999999
 20
149.22800000000001
 30
0.0
 11
45.172699999999992
 21
148.63499999999999
 31
0.0
  0
LINE
  5
10A
  8
0
 62
     7
 10
45.172699999999992
 20
148.63499999999999
 30
0.0
 11
45.172699999999992
 21
149.81999999999999
 31
0.0
  0
LINE
  5
10B
  8
0
 62
     7
 10
85.751900000000006
 20
148.65000000000001
 30
0.0
 11
87.962500000000006
 21
149.24199999999999
 31
0.0
  0
LINE
  5
10C
  8
0
 62
     7
 10
87.962500000000006
 20
149.24199999999999
 30
0.0
 11
85.751900000000006
 21
149.83500000000001
 31
0.0
  0
LINE
  5
10D
  8
0
 62
     7
 10
85.751900000000006
 20
149.83500000000001
 30
0.0
 11
85.751900000000006
 21
148.65000000000001
 31
0.0
  0
LINE
  5
10E
  8
0
 62
     7
 10
42.962299999999999
 20
149.23500000000001
 30
0.0
 11
87.962500000000006
 21
149.23500000000001
 31
0.0
  0
LINE
  5
10F
  8
0
 62
     7
 10
45.672600000000003
 20
157.321
 30
0.0
 11
43.462200000000003
 21
156.72900000000001
 31
0.0
  0
LINE
  5
110
  8
0
 62
     7
 10
43.462200000000003
 20
156.72900000000001
 30
0.0
 11
45.672600000000003
 21
156.136
 31
0.0
  0
LINE
  5
111
  8
0
 62
     7
 10
45.672600000000003
 20
156.136
 30
0.0
 11
45.672600000000003
 21
157.321
 31
0.0
  0
LINE
  5
112
  8
0
 62
     7
 10
85.25200000000001
 20
156.15100000000001
 30
0.0
 11
87.462599999999995
 21
156.74299999999999
 31
0.0
  0
LINE
  5
113
  8
0
 62
     7
 10
87.462599999999995
 20
156.74299999999999
 30
0.0
 11
85.25200000000001
 21
157.33500000000001
 31
0.0
  0
LINE
  5
114
  8
0
 62
     7
 10
85.25200000000001
 20
157.33500000000001
 30
0.0
 11
85.25200000000001
 21
156.15100000000001
 31
0.0
  0
LINE
  5
115
  8
0
 62
     7
 10
43.462200000000003
 20
156.73599999999999
 30
0.0
 11
87.462599999999995
 21
156.73599999999999
 31
0.0
  0
LINE
  5
116
  8
0
 62
     7
 10
85.712799999999987
 20
196.24100000000001
 30
0.0
 11
97.8489
 21
196.24100000000001
 31
0.0
  0
LINE
  5
117
  8
0
 62
     7
 10
88.662499999999994
 20
208.24100000000001
 30
0.0
 11
97.8489
 21
208.24100000000001
 31
0.0
  0
LINE
  5
118
  8
0
 62
     7
 10
62.243099999999998
 20
204.62299999999999
 30
0.0
 11
64.224900000000005
 21
203.47900000000001
 31
0.0
  0
LINE
  5
119
  8
0
 62
     7
 10
64.224900000000005
 20
203.47900000000001
 30
0.0
 11
63.080800000000004
 21
205.46100000000001
 31
0.0
  0
LINE
  5
11A
  8
0
 62
     7
 10
63.080800000000004
 20
205.46100000000001
 30
0.0
 11
62.243099999999998
 21
204.62299999999999
 31
0.0
  0
LINE
  5
11B
  8
0
 62
     7
 10
55.530799999999999
 20
212.173
 30
0.0
 11
69.559700000000007
 21
198.14400000000001
 31
0.0
  0
LINE
  5
11C
  8
0
 62
     7
 10
69.070499999999996
 20
182.971
 30
0.0
 11
67.088700000000003
 21
184.11500000000001
 31
0.0
  0
LINE
  5
11D
  8
0
 62
     7
 10
67.088700000000003
 20
184.11500000000001
 30
0.0
 11
68.232799999999997
 21
182.13300000000001
 31
0.0
  0
LINE
  5
11E
  8
0
 62
     7
 10
68.232799999999997
 20
182.13300000000001
 30
0.0
 11
69.070499999999996
 21
182.971
 31
0.0
  0
LINE
  5
11F
  8
0
 62
     7
 10
61.854300000000002
 20
188.512
 30
0.0
 11
63.836100000000002
 21
187.36799999999999
 31
0.0
  0
LINE
  5
120
  8
0
 62
     7
 10
63.836100000000002
 20
187.36799999999999
 30
0.0
 11
62.692
 21
189.34999999999999
 31
0.0
  0
LINE
  5
121
  8
0
 62
     7
 10
62.692
 20
189.34999999999999
 30
0.0
 11
61.854300000000002
 21
188.512
 31
0.0
  0
LINE
  5
122
  8
0
 62
     7
 10
61.030299999999997
 20
190.17400000000001
 30
0.0
 11
71.167199999999994
 21
180.03700000000001
 31
0.0
  0
LINE
  5
123
  8
0
 62
     7
 10
34.5259
 20
196.24100000000001
 30
0.0
 11
44.861999999999988
 21
196.24100000000001
 31
0.0
  0
LINE
  5
124
  8
0
 62
     7
 10
27.921299999999999
 20
208.24100000000001
 30
0.0
 11
42.262300000000003
 21
208.24100000000001
 31
0.0
  0
LINE
  5
125
  8
0
 62
     7
 10
49.346800000000002
 20
212.173
 30
0.0
 11
55.530799999999999
 21
212.173
 31
0.0
  0
LINE
  5
126
  8
0
 62
     7
 10
29.206299999999999
 20
206.03100000000001
 30
0.0
 11
28.614100000000001
 21
208.24100000000001
 31
0.0
  0
LINE
  5
127
  8
0
 62
     7
 10
28.614100000000001
 20
208.24100000000001
 30
0.0
 11
28.021699999999999
 21
206.03100000000001
 31
0.0
  0
LINE
  5
128
  8
0
 62
     7
 10
28.021699999999999
 20
206.03100000000001
 30
0.0
 11
29.206299999999999
 21
206.03100000000001
 31
0.0
  0
LINE
  5
129
  8
0
 62
     7
 10
28.0364
 20
168.452
 30
0.0
 11
28.628599999999999
 21
166.24100000000001
 31
0.0
  0
LINE
  5
12A
  8
0
 62
     7
 10
28.628599999999999
 20
166.24100000000001
 30
0.0
 11
29.221
 21
168.452
 31
0.0
  0
LINE
  5
12B
  8
0
 62
     7
 10
29.221
 20
168.452
 30
0.0
 11
28.0364
 21
168.452
 31
0.0
  0
LINE
  5
12C
  8
0
 62
     7
 10
28.621300000000002
 20
208.24100000000001
 30
0.0
 11
28.621300000000002
 21
166.24100000000001
 31
0.0
  0
LINE
  5
12D
  8
0
 62
     7
 10
35.818199999999997
 20
164.03099999999989
 30
0.0
 11
35.225999999999999
 21
166.24100000000001
 31
0.0
  0
LINE
  5
12E
  8
0
 62
     7
 10
35.225999999999999
 20
166.24100000000001
 30
0.0
 11
34.633600000000001
 21
164.03099999999989
 31
0.0
  0
LINE
  5
12F
  8
0
 62
     7
 10
34.633600000000001
 20
164.03099999999989
 30
0.0
 11
35.818199999999997
 21
164.03099999999989
 31
0.0
  0
LINE
  5
130
  8
0
 62
     7
 10
35.818199999999997
 20
194.03100000000001
 30
0.0
 11
35.225999999999999
 21
196.24100000000001
 31
0.0
  0
LINE
  5
131
  8
0
 62
     7
 10
35.225999999999999
 20
196.24100000000001
 30
0.0
 11
34.633600000000001
 21
194.03100000000001
 31
0.0
  0
LINE
  5
132
  8
0
 62
     7
 10
34.633600000000001
 20
194.03100000000001
 30
0.0
 11
35.818199999999997
 21
194.03100000000001
 31
0.0
  0
LINE
  5
133
  8
0
 62
     7
 10
35.811
 20
206.03100000000001
 30
0.0
 11
35.218699999999998
 21
208.24100000000001
 31
0.0
  0
LINE
  5
134
  8
0
 62
     7
 10
35.218699999999998
 20
208.24100000000001
 30
0.0
 11
34.626399999999997
 21
206.03100000000001
 31
0.0
  0
LINE
  5
135
  8
0
 62
     7
 10
34.626399999999997
 20
206.03100000000001
 30
0.0
 11
35.811
 21
206.03100000000001
 31
0.0
  0
LINE
  5
136
  8
0
 62
     7
 10
34.633800000000001
 20
168.952
 30
0.0
 11
35.225999999999999
 21
166.74100000000001
 31
0.0
  0
LINE
  5
137
  8
0
 62
     7
 10
35.225999999999999
 20
166.74100000000001
 30
0.0
 11
35.818399999999997
 21
168.952
 31
0.0
  0
LINE
  5
138
  8
0
 62
     7
 10
35.818399999999997
 20
168.952
 30
0.0
 11
34.633800000000001
 21
168.952
 31
0.0
  0
LINE
  5
139
  8
0
 62
     7
 10
35.225999999999999
 20
208.24100000000001
 30
0.0
 11
35.225999999999999
 21
161.518
 31
0.0
  0
LINE
  5
13A
  8
0
 62
     7
 10
34.633800000000001
 20
198.452
 30
0.0
 11
35.225999999999999
 21
196.24100000000001
 31
0.0
  0
LINE
  5
13B
  8
0
 62
     7
 10
35.225999999999999
 20
196.24100000000001
 30
0.0
 11
35.818399999999997
 21
198.452
 31
0.0
  0
LINE
  5
13C
  8
0
 62
     7
 10
35.818399999999997
 20
198.452
 30
0.0
 11
34.633800000000001
 21
198.452
 31
0.0
  0
LINE
  5
13D
  8
0
 62
     7
 10
87.462599999999995
 20
167.48099999999999
 30
0.0
 11
87.462599999999995
 21
156.036
 31
0.0
  0
LINE
  5
13E
  8
0
 62
     7
 10
87.962500000000006
 20
168.172
 30
0.0
 11
87.962500000000006
 21
148.535
 31
0.0
  0
LINE
  5
13F
  8
0
 62
     7
 10
42.962299999999999
 20
168.172
 30
0.0
 11
42.962299999999999
 21
148.535
 31
0.0
  0
LINE
  5
140
  8
0
 62
     7
 10
43.462200000000003
 20
167.48099999999999
 30
0.0
 11
43.462200000000003
 21
156.036
 31
0.0
  0
ARC
  5
141
  8
0
 62
     7
 10
83.962416000000005
 20
170.24124499999999
 30
0.0
 40
4.0000400000000003
 50
269.998786
 51
359.99875600000001
  0
ARC
  5
142
  8
0
 62
     7
 10
83.962589000000008
 20
170.24124499999999
 30
0.0
 40
3.4999809999999991
 50
270.00143000000003
 51
0.0014
  0
ARC
  5
143
  8
0
 62
     7
 10
83.962589000000008
 20
192.741477
 30
0.0
 40
3.4999809999999991
 50
359.99860000000001
 51
89.998570000000001
  0
LINE
  5
144
  8
0
 62
     7
 10
87.462599999999995
 20
192.74100000000001
 30
0.0
 11
87.462599999999995
 21
170.24100000000001
 31
0.0
  0
LINE
  5
145
  8
0
 62
     7
 10
154.90000000000001
 20
208.24100000000001
 30
0.0
 11
154.90000000000001
 21
177.2409999999999
 31
0.0
  0
LINE
  5
146
  8
0
 62
     7
 10
87.962500000000006
 20
208.24100000000001
 30
0.0
 11
87.962500000000006
 21
170.24100000000001
 31
0.0
  0
ARC
  5
147
  8
0
  6
AIGENLINE001
 62
     7
 10
136.765387
 20
185.87588
 30
0.0
 40
3.636995999999999
 50
272.11574400000012
 51
357.88144700000009
  0
ARC
  5
148
  8
0
  6
AIGENLINE001
 62
     7
 10
137.033344
 20
185.87458000000001
 30
0.0
 40
3.6356749999999991
 50
182.098838
 51
267.89273200000002
  0
ARC
  5
149
  8
0
  6
AIGENLINE001
 62
     7
 10
137.034595
 20
185.60703000000001
 30
0.0
 40
3.6369709999999991
 50
92.126232999999999
 51
177.88219799999999
  0
ARC
  5
14A
  8
0
  6
AIGENLINE001
 62
     7
 10
136.76599899999999
 20
185.60759200000001
 30
0.0
 40
3.6363620000000001
 50
2.1092740000000001
 51
87.893535999999997
  0
ARC
  5
14B
  8
0
  6
AIGENLINE001
 62
     7
 10
136.81190599999999
 20
185.829182
 30
0.0
 40
2.3893239999999998
 50
272.10476699999998
 51
357.89524299999999
  0
ARC
  5
14C
  8
0
  6
AIGENLINE001
 62
     7
 10
136.988214
 20
185.82998599999999
 30
0.0
 40
2.390158
 50
182.123334
 51
267.87669599999998
  0
ARC
  5
14D
  8
0
  6
AIGENLINE001
 62
     7
 10
136.98740900000001
 20
185.65367900000001
 30
0.0
 40
2.3893230000000001
 50
92.104730000000004
 51
177.89524
  0
ARC
  5
14E
  8
0
  6
AIGENLINE001
 62
     7
 10
136.81110200000001
 20
185.652874
 30
0.0
 40
2.390158
 50
2.1233140000000001
 51
87.876676000000003
  0
LINE
  5
14F
  8
0
  6
AIGENLINE002
 62
     7
 10
131.56
 20
185.7409999999999
 30
0.0
 11
142.262
 21
185.7409999999999
 31
0.0
  0
ARC
  5
150
  8
0
 62
     7
 10
65.328182999999996
 20
185.87546399999999
 30
0.0
 40
3.6365780000000001
 50
272.11506200000002
 51
357.88776799999999
  0
ARC
  5
151
  8
0
 62
     7
 10
65.596068000000002
 20
185.874923
 30
0.0
 40
3.6360179999999991
 50
182.10405700000001
 51
267.89315299999998
  0
ARC
  5
152
  8
0
 62
     7
 10
65.596606999999992
 20
185.60739799999999
 30
0.0
 40
3.6365769999999991
 50
92.115024999999989
 51
177.887765
  0
ARC
  5
153
  8
0
 62
     7
 10
65.328721999999985
 20
185.607936
 30
0.0
 40
3.6360190000000001
 50
2.1040549999999989
 51
87.893116000000006
  0
ARC
  5
154
  8
0
 62
     7
 10
65.374251999999998
 20
185.82957400000001
 30
0.0
 40
2.3897300000000001
 50
272.113811
 51
357.88619899999998
  0
ARC
  5
155
  8
0
 62
     7
 10
65.550946999999994
 20
185.829981
 30
0.0
 40
2.3901520000000001
 50
182.12321700000001
 51
267.87681300000003
  0
ARC
  5
156
  8
0
 62
     7
 10
65.550539000000001
 20
185.65328700000001
 30
0.0
 40
2.3897289999999991
 50
92.113772999999981
 51
177.88619700000001
  0
ARC
  5
157
  8
0
 62
     7
 10
65.373844999999989
 20
185.65287900000001
 30
0.0
 40
2.3901520000000001
 50
2.1231969999999998
 51
87.876793000000006
  0
LINE
  5
158
  8
0
  6
AIGENLINE002
 62
     7
 10
60.12319999999999
 20
185.7409999999999
 30
0.0
 11
70.825100000000006
 21
185.7409999999999
 31
0.0
  0
ARC
  5
159
  8
0
 62
     7
 10
65.395336999999984
 20
202.30871200000001
 30
0.0
 40
1.818422
 50
272.11340300000001
 51
357.880968
  0
ARC
  5
15A
  8
0
 62
     7
 10
65.530004000000005
 20
202.30926199999999
 30
0.0
 40
1.818991
 50
182.13570999999999
 51
267.86995999999999
  0
ARC
  5
15B
  8
0
 62
     7
 10
65.529454000000001
 20
202.174238
 30
0.0
 40
1.818420999999999
 50
92.113365999999999
 51
177.880965
  0
ARC
  5
15C
  8
0
 62
     7
 10
65.394788000000005
 20
202.173688
 30
0.0
 40
1.818991
 50
2.1356899999999999
 51
87.869939999999986
  0
ARC
  5
15D
  8
0
 62
     7
 10
46.962373999999997
 20
170.24124399999999
 30
0.0
 40
4.0000390000000001
 50
180.00124400000001
 51
270.00125400000002
  0
ARC
  5
15E
  8
0
 62
     7
 10
46.962201999999998
 20
170.24124399999999
 30
0.0
 40
3.4999799999999999
 50
179.99856
 51
269.99860999999999
  0
ARC
  5
15F
  8
0
 62
     7
 10
46.962203000000002
 20
192.741477
 30
0.0
 40
3.4999809999999991
 50
90.001410000000007
 51
180.00142
  0
LINE
  5
160
  8
0
  6
AIGENLINE002
 62
     7
 10
65.462400000000002
 20
211.18199999999999
 30
0.0
 11
65.462400000000002
 21
163.19499999999999
 31
0.0
  0
LINE
  5
161
  8
0
 62
     7
 10
43.462200000000003
 20
192.74100000000001
 30
0.0
 11
43.462200000000003
 21
170.24100000000001
 31
0.0
  0
LINE
  5
162
  8
0
 62
     7
 10
42.962299999999999
 20
208.24100000000001
 30
0.0
 11
42.962299999999999
 21
170.24100000000001
 31
0.0
  0
LINE
  5
163
  8
0
 62
     7
 10
46.962099999999992
 20
166.74100000000001
 30
0.0
 11
83.962699999999984
 21
166.74100000000001
 31
0.0
  0
LINE
  5
164
  8
0
 62
     7
 10
46.962499999999999
 20
166.24100000000001
 30
0.0
 11
83.962299999999999
 21
166.24100000000001
 31
0.0
  0
LINE
  5
165
  8
0
 62
     7
 10
46.962099999999992
 20
196.24100000000001
 30
0.0
 11
83.962699999999984
 21
196.24100000000001
 31
0.0
  0
LINE
  5
166
  8
0
  6
AIGENLINE002
 62
     7
 10
61.381
 20
202.24100000000001
 30
0.0
 11
69.326099999999997
 21
202.24100000000001
 31
0.0
  0
LINE
  5
167
  8
0
 62
     7
 10
42.962299999999999
 20
208.24100000000001
 30
0.0
 11
87.962500000000006
 21
208.24100000000001
 31
0.0
  0
TEXT
  5
168
  8
_________2
 62
     7
 10
22.801200000000001
 20
46.503599999999999
 30
0.0
 40
4.2168199999999993
  1
※壁取付部には厚さ30mm以上の補強材を入れてください。
 41
0.5
  0
TEXT
  5
169
  8
_________2
 62
     7
 10
22.801200000000001
 20
41.232500000000002
 30
0.0
 40
4.2168199999999993
  1
　カウンターを設ける場合も壁固定が必要です。
 41
0.5
  0
TEXT
  5
16A
  8
_________2
 62
     7
 10
24.5868
 20
0.707283
 30
0.0
 40
3.9357000000000002
  1
実容量：7.7L、重量：10.0Kg、オーバーフローあり
 41
0.5
  0
LINE
  5
16B
  8
_________2
 62
     7
 10
205.30099999999999
 20
127.411
 30
0.0
 11
183.55000000000001
 21
127.411
 31
0.0
  0
LINE
  5
16C
  8
_________2
 62
     7
 10
100.3
 20
-4.0910799999999998
 30
0.0
 11
100.3
 21
-21.071400000000001
 31
0.0
  0
LINE
  5
16D
  8
_________2
 62
     7
 10
100.3
 20
275.93099999999998
 30
0.0
 11
100.3
 21
258.911
 31
0.0
  0
LINE
  5
16E
  8
_________2
 62
     7
 10
17.049499999999998
 20
127.411
 30
0.0
 11
-4.70052
 21
127.411
 31
0.0
  0
LINE
  5
16F
  8
_________2
 62
     7
 10
76.741
 20
29.8047
 30
0.0
 11
74.554699999999997
 21
29.8047
 31
0.0
  0
LINE
  5
170
  8
_________2
 62
     7
 10
77.233699999999999
 20
29.8047
 30
0.0
 11
76.981499999999997
 21
29.8047
 31
0.0
  0
LINE
  5
171
  8
_________2
 62
     7
 10
77.726299999999995
 20
29.8047
 30
0.0
 11
80.651200000000003
 21
29.8047
 31
0.0
  0
LINE
  5
172
  8
_________2
 62
     7
 10
77.233699999999999
 20
29.8047
 30
0.0
 11
77.485500000000002
 21
29.8047
 31
0.0
  0
LINE
  5
173
  8
_________2
 62
     7
 10
70.837100000000007
 20
29.8047
 30
0.0
 11
68.650499999999994
 21
29.8047
 31
0.0
  0
LINE
  5
174
  8
_________2
 62
     7
 10
71.329400000000007
 20
29.8047
 30
0.0
 11
71.077600000000004
 21
29.8047
 31
0.0
  0
LINE
  5
175
  8
_________2
 62
     7
 10
71.329400000000007
 20
30.2974
 30
0.0
 11
71.329400000000007
 21
32.484400000000001
 31
0.0
  0
LINE
  5
176
  8
_________2
 62
     7
 10
71.329400000000007
 20
29.8047
 30
0.0
 11
71.329400000000007
 21
30.056899999999999
 31
0.0
  0
LINE
  5
177
  8
_________2
 62
     7
 10
71.822100000000006
 20
29.8047
 30
0.0
 11
74.009
 21
29.8047
 31
0.0
  0
LINE
  5
178
  8
_________2
 62
     7
 10
71.329400000000007
 20
29.8047
 30
0.0
 11
71.581599999999995
 21
29.8047
 31
0.0
  0
LINE
  5
179
  8
_________2
 62
     7
 10
71.329400000000007
 20
29.312799999999999
 30
0.0
 11
71.329400000000007
 21
27.125800000000002
 31
0.0
  0
LINE
  5
17A
  8
_________2
 62
     7
 10
71.329400000000007
 20
29.8047
 30
0.0
 11
71.329400000000007
 21
29.5532
 31
0.0
  0
LINE
  5
17B
  8
_________2
 62
     7
 10
75.040499999999994
 20
28.5852
 30
0.0
 11
80.218500000000006
 21
27.720400000000001
 31
0.0
  0
LINE
  5
17C
  8
_________2
 62
     7
 10
75.040499999999994
 20
31.0243
 30
0.0
 11
80.218500000000006
 21
31.889700000000001
 31
0.0
  0
LINE
  5
17D
  8
_________2
 62
     7
 10
80.218500000000006
 20
27.720400000000001
 30
0.0
 11
80.218500000000006
 21
31.889700000000001
 31
0.0
  0
LINE
  5
17E
  8
_________2
 62
     7
 10
75.040499999999994
 20
28.5852
 30
0.0
 11
75.040499999999994
 21
31.0243
 31
0.0
  0
ARC
  5
17F
  8
_________2
 62
     7
 10
71.28285600000001
 20
29.757811
 30
0.0
 40
1.2673589999999999
 50
2.122214
 51
87.893958999999995
  0
ARC
  5
180
  8
_________2
 62
     7
 10
71.375959999999992
 20
29.758213000000001
 30
0.0
 40
1.2669559999999991
 50
92.104701000000006
 51
177.89526900000001
  0
ARC
  5
181
  8
_________2
 62
     7
 10
71.376357999999996
 20
29.851671
 30
0.0
 40
1.2673680000000001
 50
182.12203600000001
 51
267.877993
  0
ARC
  5
182
  8
_________2
 62
     7
 10
71.282531999999989
 20
29.851998999999999
 30
0.0
 40
1.267695999999999
 50
272.12015300000002
 51
357.863674
  0
ARC
  5
183
  8
_________2
 62
     7
 10
71.329430000000002
 20
29.804742999999998
 30
0.0
 40
2.0849849999999992
 50
0.00001
 51
89.999980000000008
  0
ARC
  5
184
  8
_________2
 62
     7
 10
71.329603000000006
 20
29.804915000000001
 30
0.0
 40
2.084813
 50
90.004733999999999
 51
180.00474399999999
  0
ARC
  5
185
  8
_________2
 62
     7
 10
71.409106000000008
 20
29.884775999999999
 30
0.0
 40
2.1657950000000001
 50
182.11776599999999
 51
267.89173399999999
  0
ARC
  5
186
  8
_________2
 62
     7
 10
71.249459000000002
 20
29.885429999999999
 30
0.0
 40
2.1664590000000001
 50
272.11546800000002
 51
357.86560400000002
  0
TEXT
  5
187
  8
_________2
 62
     7
 10
104.605
 20
1.6794899999999999
 30
0.0
 40
3.0923400000000001
  1
図番
 41
0.5
  0
LINE
  5
188
  8
_________2
 62
     7
 10
103.55
 20
5.9087199999999989
 30
0.0
 11
183.55099999999999
 21
5.9087199999999989
 31
0.0
  0
TEXT
  5
189
  8
_________2
 62
     7
 10
104.605
 20
11.6793
 30
0.0
 40
3.0923400000000001
  1
品番
 41
0.5
  0
TEXT
  5
18A
  8
_________2
 62
     7
 10
104.605
 20
31.818100000000001
 30
0.0
 40
3.0923400000000001
  1
名称
 41
0.5
  0
TEXT
  5
18B
  8
_________2
 62
     7
 10
91.845058333333341
 20
26.821999999999999
 30
0.0
 40
3.6545800000000002
  1
mm
 41
0.5
 72
     1
 11
93.367800000000003
 21
26.821999999999999
 31
0.0
  0
TEXT
  5
18C
  8
_________2
 62
     7
 10
85.643199999999993
 20
31.818100000000001
 30
0.0
 40
3.0923400000000001
  1
単位
 41
0.5
  0
TEXT
  5
18D
  8
_________2
 62
     7
 10
85.643199999999993
 20
19.410799999999998
 30
0.0
 40
3.0923400000000001
  1
尺度
 41
0.5
  0
TEXT
  5
18E
  8
_________2
 62
     7
 10
90.09193616666667
 20
13.2179
 30
0.0
 40
3.6545800000000002
  1
1 ： 10
 41
0.5
 72
     1
 11
93.959699999999998
 21
13.2179
 31
0.0
  0
TEXT
  5
18F
  8
_________2
 62
     7
 10
137.4824625
 20
9.1078600000000005
 30
0.0
 40
3.9357000000000002
  1
AU16280
 41
0.5
 72
     1
 11
143.55000000000001
 21
9.1078600000000005
 31
0.0
  0
TEXT
  5
190
  8
_________2
 62
     7
 10
137.4824625
 20
-0.8926299999999999
 30
0.0
 40
3.9357000000000002
  1
AU16280
 41
0.5
 72
     1
 11
143.55000000000001
 21
-0.8926299999999999
 31
0.0
  0
TEXT
  5
191
  8
_________2
 62
     7
 10
109.179
 20
24.2257
 30
0.0
 40
3.9357000000000002
  1
バル　洗面器
 41
0.5
  0
TEXT
  5
192
  8
_________2
 62
     7
 10
39.425300333333333
 20
13.603
 30
0.0
 40
3.6545800000000002
  1
早川
 41
0.5
 72
     1
 11
41.313499999999998
 21
13.603
 31
0.0
  0
TEXT
  5
193
  8
_________2
 62
     7
 10
20.790090666666661
 20
13.603
 30
0.0
 40
3.6545800000000002
  1
石原
 41
0.5
 72
     1
 11
22.7392
 21
13.603
 31
0.0
  0
TEXT
  5
194
  8
_________2
 62
     7
 10
67.785399999999996
 20
13.2179
 30
0.0
 40
3.6545800000000002
  1
15.12.25
 41
0.5
  0
TEXT
  5
195
  8
_________2
 62
     7
 10
66.593100000000007
 20
19.410799999999998
 30
0.0
 40
3.0923400000000001
  1
日付
 41
0.5
  0
TEXT
  5
196
  8
_________2
 62
     7
 10
29.639399999999998
 20
19.410799999999998
 30
0.0
 40
3.0923400000000001
  1
検図
 41
0.5
  0
TEXT
  5
197
  8
_________2
 62
     7
 10
18.021100000000001
 20
5.21143
 30
0.0
 40
3.0923400000000001
  1
備考
 41
0.5
  0
TEXT
  5
198
  8
_________2
 62
     7
 10
18.021100000000001
 20
19.410799999999998
 30
0.0
 40
3.0923400000000001
  1
製図
 41
0.5
  0
TEXT
  5
199
  8
_________2
 62
     7
 10
23.788465333333338
 20
27.936800000000002
 30
0.0
 40
4.4979399999999989
  1
セラトレーディング株式会社
 41
0.5
 72
     1
 11
41.180500000000002
 21
27.936800000000002
 31
0.0
  0
LINE
  5
19A
  8
_________2
 62
     7
 10
183.55099999999999
 20
-4.0910799999999998
 30
0.0
 11
17.049499999999998
 21
-4.0910799999999998
 31
0.0
  0
LINE
  5
19B
  8
_________2
 62
     7
 10
17.049499999999998
 20
-4.0910799999999998
 30
0.0
 11
17.049499999999998
 21
258.911
 31
0.0
  0
LINE
  5
19C
  8
_________2
 62
     7
 10
17.049499999999998
 20
258.911
 30
0.0
 11
183.55099999999999
 21
258.911
 31
0.0
  0
LINE
  5
19D
  8
_________2
 62
     7
 10
183.55099999999999
 20
258.911
 30
0.0
 11
183.55099999999999
 21
-4.0910799999999998
 31
0.0
  0
LINE
  5
19E
  8
_________2
 62
     7
 10
65.549599999999998
 20
9.4089600000000004
 30
0.0
 11
65.549599999999998
 21
35.908799999999999
 31
0.0
  0
LINE
  5
19F
  8
_________2
 62
     7
 10
84.549700000000016
 20
9.4089600000000004
 30
0.0
 11
84.549700000000016
 21
35.908799999999999
 31
0.0
  0
LINE
  5
1A0
  8
_________2
 62
     7
 10
103.55
 20
-4.0910799999999998
 30
0.0
 11
103.55
 21
35.908799999999999
 31
0.0
  0
LINE
  5
1A1
  8
_________2
 62
     7
 10
28.549299999999999
 20
9.4089600000000004
 30
0.0
 11
28.549299999999999
 21
23.409199999999998
 31
0.0
  0
LINE
  5
1A2
  8
_________2
 62
     7
 10
17.049499999999998
 20
9.4089600000000004
 30
0.0
 11
103.55
 21
9.4089600000000004
 31
0.0
  0
LINE
  5
1A3
  8
_________2
 62
     7
 10
17.049499999999998
 20
23.409199999999998
 30
0.0
 11
103.55
 21
23.409199999999998
 31
0.0
  0
LINE
  5
1A4
  8
_________2
 62
     7
 10
103.55
 20
15.9085
 30
0.0
 11
183.55099999999999
 21
15.9085
 31
0.0
  0
LINE
  5
1A5
  8
_________2
 62
     7
 10
17.049499999999998
 20
35.908799999999999
 30
0.0
 11
183.55099999999999
 21
35.908799999999999
 31
0.0
  0
ENDSEC
  0
EOF
