  0
SECTION
  2
HEADER
  9
$ACADVER
  1
AC1009
  9
$INSBASE
 10
0.0
 20
0.0
 30
0.0
  9
$EXTMIN
 10
0.238402
 20
0.4485540000000001
 30
0.0
  9
$EXTMAX
 10
210.24000000000001
 20
297.45099999999991
 30
0.0
  9
$LIMMIN
 10
0.0
 20
0.0
  9
$LIMMAX
 10
12.0
 20
9.0
  9
$ORTHOMODE
 70
     0
  9
$REGENMODE
 70
     1
  9
$FILLMODE
 70
     1
  9
$QTEXTMODE
 70
     0
  9
$MIRRTEXT
 70
     1
  9
$DRAGMODE
 70
     2
  9
$LTSCALE
 40
1.0
  9
$OSMODE
 70
    37
  9
$ATTMODE
 70
     1
  9
$TEXTSIZE
 40
0.0
  9
$TRACEWID
 40
0.05
  9
$TEXTSTYLE
  7
STANDARD
  9
$CLAYER
  8
0
  9
$CELTYPE
  6
CONTINUOUS
  9
$CECOLOR
 62
   256
  9
$DIMSCALE
 40
1.0
  9
$DIMASZ
 40
0.18
  9
$DIMEXO
 40
0.0625
  9
$DIMDLI
 40
0.38
  9
$DIMRND
 40
0.0
  9
$DIMDLE
 40
0.0
  9
$DIMEXE
 40
0.18
  9
$DIMTP
 40
0.0
  9
$DIMTM
 40
0.0
  9
$DIMTXT
 40
0.18
  9
$DIMCEN
 40
0.09
  9
$DIMTSZ
 40
0.0
  9
$DIMTOL
 70
     0
  9
$DIMLIM
 70
     0
  9
$DIMTIH
 70
     1
  9
$DIMTOH
 70
     1
  9
$DIMSE1
 70
     0
  9
$DIMSE2
 70
     0
  9
$DIMTAD
 70
     0
  9
$DIMZIN
 70
     0
  9
$DIMBLK
  1

  9
$DIMASO
 70
     1
  9
$DIMSHO
 70
     1
  9
$DIMPOST
  1

  9
$DIMAPOST
  1

  9
$DIMALT
 70
     0
  9
$DIMALTD
 70
     2
  9
$DIMALTF
 40
25.399999999999999
  9
$DIMLFAC
 40
1.0
  9
$DIMTOFL
 70
     0
  9
$DIMTVP
 40
0.0
  9
$DIMTIX
 70
     0
  9
$DIMSOXD
 70
     0
  9
$DIMSAH
 70
     0
  9
$DIMBLK1
  1

  9
$DIMBLK2
  1

  9
$DIMSTYLE
  2
STANDARD
  9
$DIMCLRD
 70
     0
  9
$DIMCLRE
 70
     0
  9
$DIMCLRT
 70
     0
  9
$DIMTFAC
 40
1.0
  9
$DIMGAP
 40
0.09
  9
$LUNITS
 70
     2
  9
$LUPREC
 70
     4
  9
$SKETCHINC
 40
0.1
  9
$FILLETRAD
 40
0.0
  9
$AUNITS
 70
     0
  9
$AUPREC
 70
     0
  9
$MENU
  1
.
  9
$ELEVATION
 40
0.0
  9
$PELEVATION
 40
0.0
  9
$THICKNESS
 40
0.0
  9
$LIMCHECK
 70
     0
  9
$BLIPMODE
 70
     0
  9
$CHAMFERA
 40
0.0
  9
$CHAMFERB
 40
0.0
  9
$SKPOLY
 70
     0
  9
$TDCREATE
 40
2444972.375
  9
$TDUPDATE
 40
2456039.2500939458
  9
$TDINDWG
 40
0.0000077546
  9
$TDUSRTIMER
 40
0.0000077546
  9
$USRTIMER
 70
     1
  9
$ANGBASE
 50
0.0
  9
$ANGDIR
 70
     0
  9
$PDMODE
 70
     0
  9
$PDSIZE
 40
0.0
  9
$PLINEWID
 40
0.0
  9
$COORDS
 70
     1
  9
$SPLFRAME
 70
     0
  9
$SPLINETYPE
 70
     6
  9
$SPLINESEGS
 70
     8
  9
$ATTDIA
 70
     0
  9
$ATTREQ
 70
     1
  9
$HANDLING
 70
     1
  9
$HANDSEED
  5
F9
  9
$SURFTAB1
 70
     6
  9
$SURFTAB2
 70
     6
  9
$SURFTYPE
 70
     6
  9
$SURFU
 70
     6
  9
$SURFV
 70
     6
  9
$UCSNAME
  2

  9
$UCSORG
 10
0.0
 20
0.0
 30
0.0
  9
$UCSXDIR
 10
1.0
 20
0.0
 30
0.0
  9
$UCSYDIR
 10
0.0
 20
1.0
 30
0.0
  9
$PUCSNAME
  2

  9
$PUCSORG
 10
0.0
 20
0.0
 30
0.0
  9
$PUCSXDIR
 10
1.0
 20
0.0
 30
0.0
  9
$PUCSYDIR
 10
0.0
 20
1.0
 30
0.0
  9
$USERI1
 70
     0
  9
$USERI2
 70
     0
  9
$USERI3
 70
     0
  9
$USERI4
 70
     0
  9
$USERI5
 70
     0
  9
$USERR1
 40
0.0
  9
$USERR2
 40
0.0
  9
$USERR3
 40
0.0
  9
$USERR4
 40
0.0
  9
$USERR5
 40
0.0
  9
$WORLDVIEW
 70
     1
  9
$SHADEDGE
 70
     3
  9
$SHADEDIF
 70
    70
  9
$TILEMODE
 70
     1
  9
$MAXACTVP
 70
    48
  9
$PLIMCHECK
 70
     0
  9
$PEXTMIN
 10
1.0000000000000000E+020
 20
1.0000000000000000E+020
 30
1.0000000000000000E+020
  9
$PEXTMAX
 10
-1.0000000000000000E+020
 20
-1.0000000000000000E+020
 30
-1.0000000000000000E+020
  9
$PLIMMIN
 10
0.0
 20
0.0
  9
$PLIMMAX
 10
12.0
 20
9.0
  9
$UNITMODE
 70
     0
  9
$VISRETAIN
 70
     1
  9
$PLINEGEN
 70
     0
  9
$PSLTSCALE
 70
     1
  0
ENDSEC
  0
SECTION
  2
TABLES
  0
TABLE
  2
VPORT
 70
     2
  0
VPORT
  2
*ACTIVE
 70
     0
 10
0.0
 20
0.0
 11
1.0
 21
1.0
 12
210.2890559497551
 22
148.7254999999999
 13
0.0
 23
0.0
 14
1.0
 24
1.0
 15
0.0
 25
0.0
 16
0.0
 26
0.0
 36
1.0
 17
0.0
 27
0.0
 37
0.0
 40
299.69874055415607
 41
2.2894736842105261
 42
50.0
 43
0.0
 44
0.0
 50
0.0
 51
0.0
 71
     0
 72
   100
 73
     1
 74
     1
 75
     0
 76
     0
 77
     0
 78
     0
  0
ENDTAB
  0
TABLE
  2
LTYPE
 70
     2
  0
LTYPE
  2
CONTINUOUS
 70
     0
  3
Solid line
 72
    65
 73
     0
 40
0.0
  0
LTYPE
  2
AIGENLINE001
 70
     0
  3
generate AI->DXF Converter
 72
    65
 73
     4
 40
5.8561449999999988
 49
3.5278
 49
-0.776115
 49
0.776115
 49
-0.776115
  0
ENDTAB
  0
TABLE
  2
LAYER
 70
     2
  0
LAYER
  2
0
 70
     0
 62
     7
  6
CONTINUOUS
  0
LAYER
  2
_________2
 70
     0
 62
     7
  6
CONTINUOUS
  0
ENDTAB
  0
TABLE
  2
STYLE
 70
     1
  0
STYLE
  2
STANDARD
 70
     0
 40
0.0
 41
0.0
 50
0.0
 71
     0
 42
0.0
  3
TXT
  4
EXTFONT.SHX
  0
ENDTAB
  0
TABLE
  2
VIEW
 70
     0
  0
ENDTAB
  0
TABLE
  2
UCS
 70
     0
  0
ENDTAB
  0
TABLE
  2
APPID
 70
     1
  0
APPID
  2
ACAD
 70
     0
  0
ENDTAB
  0
TABLE
  2
DIMSTYLE
 70
     1
  0
DIMSTYLE
  2
STANDARD
 70
     0
  3

  4

  5

  6

  7

 40
1.0
 41
0.18
 42
0.0625
 43
0.38
 44
0.18
 45
0.0
 46
0.0
 47
0.0
 48
0.0
140
0.18
141
0.09
142
0.0
143
25.399999999999999
144
1.0
145
0.0
146
1.0
147
0.09
 71
     0
 72
     0
 73
     1
 74
     1
 75
     0
 76
     0
 77
     0
 78
     0
170
     0
171
     2
172
     0
173
     0
174
     0
175
     0
176
     0
177
     0
178
     0
  0
ENDTAB
  0
ENDSEC
  0
SECTION
  2
BLOCKS
  0
BLOCK
  8
0
  2
$MODEL_SPACE
 70
     0
 10
0.0
 20
0.0
 30
0.0
  3
$MODEL_SPACE
  1

  0
ENDBLK
  5
1A
  8
0
  0
BLOCK
 67
     1
  8
0
  2
$PAPER_SPACE
 70
     0
 10
0.0
 20
0.0
 30
0.0
  3
$PAPER_SPACE
  1

  0
ENDBLK
  5
17
 67
     1
  8
0
  0
ENDSEC
  0
SECTION
  2
ENTITIES
  0
TEXT
  5
22
  8
0
 62
     7
 10
137.6727599999999
 20
156.6989999999999
 30
0.0
 40
3.0923400000000001
  1
カウンター切込寸法
 41
0.5
 72
     1
 11
145.9189999999999
 21
156.6989999999999
 31
0.0
  0
TEXT
  5
23
  8
0
 62
     7
 10
38.395299999999992
 20
168.32900000000001
 30
0.0
 40
3.0923400000000001
  1
22
 41
0.5
  0
TEXT
  5
24
  8
0
 62
     7
 10
103.54304999999999
 20
168.32900000000001
 30
0.0
 40
3.0923400000000001
  1
22
 41
0.5
 72
     2
 11
106.12
 21
168.32900000000001
 31
0.0
  0
TEXT
  5
25
  8
0
 62
     7
 10
58.649500000000003
 20
214.55699999999999
 30
0.0
 40
3.0923400000000001
  1
%%c41
 41
0.5
  0
TEXT
  5
26
  8
0
 62
     7
 10
69.370855000000006
 20
168.97399999999999
 30
0.0
 40
3.0923400000000001
  1
%%c236
 41
0.5
 72
     1
 11
72.205500000000001
 21
168.97399999999999
 31
0.0
  0
TEXT
  5
27
  8
0
 62
     7
 10
141.38356799999991
 20
169.16200000000001
 30
0.0
 40
3.0923400000000001
  1
%%c264±2
 41
0.5
 72
     1
 11
145.9189999999999
 21
169.16200000000001
 31
0.0
  0
TEXT
  5
28
  8
0
 62
     7
 10
69.49990249999999
 20
159.4739999999999
 30
0.0
 40
3.0923400000000001
  1
%%c280
 41
0.5
 72
     1
 11
72.205699999999993
 21
159.4739999999999
 31
0.0
  0
TEXT
  5
29
  8
0
 62
     7
 10
111.5049999999999
 20
112.7259825
 30
0.0
 40
3.0923400000000001
  1
120
 50
90.0
 41
0.5
 72
     1
 11
111.5049999999999
 21
114.401
 31
0.0
  0
TEXT
  5
2A
  8
0
 62
     7
 10
105.3679999999999
 20
129.93313499999991
 30
0.0
 40
3.0923400000000001
  1
10
 50
90.0
 41
0.5
 72
     2
 11
105.3679999999999
 21
131.73699999999991
 31
0.0
  0
LINE
  5
2B
  8
0
 62
     7
 10
79.091099999999997
 20
102.4489999999999
 30
0.0
 11
72.182400000000001
 21
102.4489999999999
 31
0.0
  0
ARC
  5
2C
  8
0
 62
     7
 10
80.874500999999995
 20
102.84804800000001
 30
0.0
 40
1.4671590000000001
 50
107.78204700000001
 51
130.10701900000001
  0
ARC
  5
2D
  8
0
 62
     7
 10
81.380426999999983
 20
102.179086
 30
0.0
 40
2.3051560000000002
 50
129.013215
 51
173.279968
  0
ARC
  5
2E
  8
0
 62
     7
 10
78.268725000000003
 20
112.9844689999999
 30
0.0
 40
9.0017789999999991
 50
283.86873199999991
 51
287.98274099999998
  0
ARC
  5
2F
  8
0
 62
     7
 10
75.810816000000003
 20
120.6522149999999
 30
0.0
 40
17.053809999999999
 50
287.88387599999987
 51
294.72358199999991
  0
ARC
  5
30
  8
0
 62
     7
 10
71.985450999999998
 20
129.12479500000001
 30
0.0
 40
26.349775000000001
 50
294.573848
 51
333.69028700000001
  0
ARC
  5
31
  8
0
 62
     7
 10
73.354078999999984
 20
127.9600999999999
 30
0.0
 40
24.610589000000001
 50
334.70873899999998
 51
351.5717009999999
  0
LINE
  5
32
  8
0
 62
     7
 10
65.273799999999994
 20
102.4489999999999
 30
0.0
 11
72.182400000000001
 21
102.4489999999999
 31
0.0
  0
ARC
  5
33
  8
0
 62
     7
 10
63.49038199999999
 20
102.84804800000001
 30
0.0
 40
1.4671590000000001
 50
49.892961
 51
72.217933000000002
  0
ARC
  5
34
  8
0
 62
     7
 10
62.984456000000002
 20
102.179086
 30
0.0
 40
2.3051560000000002
 50
6.7200119999999997
 51
50.986766000000003
  0
ARC
  5
35
  8
0
 62
     7
 10
66.096158000000003
 20
112.9844689999999
 30
0.0
 40
9.0017789999999991
 50
252.017279
 51
256.13128799999998
  0
ARC
  5
36
  8
0
 62
     7
 10
68.554067000000003
 20
120.6522149999999
 30
0.0
 40
17.053809999999999
 50
245.27643699999999
 51
252.11614399999999
  0
ARC
  5
37
  8
0
 62
     7
 10
72.379440999999986
 20
129.1248149999999
 30
0.0
 40
26.349796999999999
 50
206.30975699999999
 51
245.42617200000001
  0
ARC
  5
38
  8
0
 62
     7
 10
71.0137
 20
127.96096
 30
0.0
 40
24.613579000000001
 50
188.42931100000001
 51
205.29020700000001
  0
ARC
  5
39
  8
0
 62
     7
 10
145.918454
 20
206.403344
 30
0.0
 40
26.400100999999999
 50
180.000384
 51
270.00039399999991
  0
ARC
  5
3A
  8
0
 62
     7
 10
145.91863499999999
 20
206.40317200000001
 30
0.0
 40
26.400283000000002
 50
90.0
 51
179.99996999999991
  0
ARC
  5
3B
  8
0
 62
     7
 10
145.9186259999999
 20
206.40317200000001
 30
0.0
 40
26.400283000000002
 50
0.00001
 51
89.999980000000008
  0
ARC
  5
3C
  8
0
 62
     7
 10
145.91879800000001
 20
206.40335300000001
 30
0.0
 40
26.400109999999991
 50
269.99964599999993
 51
359.99961599999989
  0
ARC
  5
3D
  8
0
 62
     7
 10
72.182440999999983
 20
206.403176
 30
0.0
 40
4.1000329999999989
 50
179.99996999999991
 51
270.00002000000001
  0
ARC
  5
3E
  8
0
 62
     7
 10
72.182441999999995
 20
206.403176
 30
0.0
 40
4.1000350000000001
 50
90.0
 51
179.99996999999991
  0
ARC
  5
3F
  8
0
 62
     7
 10
72.182440999999983
 20
206.403176
 30
0.0
 40
4.1000350000000001
 50
0.00001
 51
89.999980000000008
  0
ARC
  5
40
  8
0
 62
     7
 10
72.182440999999983
 20
206.403177
 30
0.0
 40
4.1000350000000001
 50
270.00002000000001
 51
359.99998999999991
  0
ARC
  5
41
  8
0
 62
     7
 10
72.182436999999993
 20
206.40317200000001
 30
0.0
 40
23.600083000000001
 50
179.99996999999991
 51
270.00002000000001
  0
ARC
  5
42
  8
0
 62
     7
 10
72.182531999999995
 20
206.40325899999999
 30
0.0
 40
23.600176999999992
 50
90.000208999999998
 51
180.00021899999999
  0
ARC
  5
43
  8
0
 62
     7
 10
72.182350999999997
 20
206.40325899999999
 30
0.0
 40
23.600176999999992
 50
359.99980099999999
 51
89.999770999999996
  0
ARC
  5
44
  8
0
 62
     7
 10
72.182436999999993
 20
206.40318099999999
 30
0.0
 40
23.600090999999999
 50
270.00002000000001
 51
359.99998999999991
  0
ARC
  5
45
  8
0
 62
     7
 10
72.182436999999993
 20
206.40317200000001
 30
0.0
 40
28.000185999999989
 50
179.99996999999991
 51
270.00002000000001
  0
ARC
  5
46
  8
0
 62
     7
 10
72.182445999999999
 20
206.40317200000001
 30
0.0
 40
28.000195000000001
 50
90.0
 51
179.99996999999991
  0
ARC
  5
47
  8
0
 62
     7
 10
72.182436999999993
 20
206.40317200000001
 30
0.0
 40
28.000195000000001
 50
0.00001
 51
89.999980000000008
  0
ARC
  5
48
  8
0
 62
     7
 10
72.182436999999993
 20
206.40318099999999
 30
0.0
 40
28.000195000000001
 50
270.00002000000001
 51
359.99998999999991
  0
LINE
  5
49
  8
0
 62
     7
 10
105.73699999999999
 20
128.709
 30
0.0
 11
106.32899999999989
 21
126.499
 31
0.0
  0
LINE
  5
4A
  8
0
 62
     7
 10
106.32899999999989
 20
126.499
 30
0.0
 11
106.922
 21
128.709
 31
0.0
  0
LINE
  5
4B
  8
0
 62
     7
 10
106.922
 20
128.709
 30
0.0
 11
105.73699999999999
 21
128.709
 31
0.0
  0
LINE
  5
4C
  8
0
 62
     7
 10
106.907
 20
122.113
 30
0.0
 11
106.315
 21
124.32299999999999
 31
0.0
  0
LINE
  5
4D
  8
0
 62
     7
 10
106.315
 20
124.32299999999999
 30
0.0
 11
105.723
 21
122.113
 31
0.0
  0
LINE
  5
4E
  8
0
 62
     7
 10
105.723
 20
122.113
 30
0.0
 11
106.907
 21
122.113
 31
0.0
  0
LINE
  5
4F
  8
0
 62
     7
 10
106.322
 20
119.6369999999999
 30
0.0
 11
106.322
 21
131.804
 31
0.0
  0
LINE
  5
50
  8
0
  6
AIGENLINE001
 62
     7
 10
114.82899999999999
 20
206.40299999999991
 30
0.0
 11
176.548
 21
206.40299999999991
 31
0.0
  0
LINE
  5
51
  8
0
 62
     7
 10
42.106200000000001
 20
166.97699999999989
 30
0.0
 11
44.316800000000001
 21
167.56899999999999
 31
0.0
  0
LINE
  5
52
  8
0
 62
     7
 10
44.316800000000001
 20
167.56899999999999
 30
0.0
 11
42.106200000000001
 21
168.16099999999989
 31
0.0
  0
LINE
  5
53
  8
0
 62
     7
 10
42.106200000000001
 20
168.16099999999989
 30
0.0
 11
42.106200000000001
 21
166.97699999999989
 31
0.0
  0
LINE
  5
54
  8
0
 62
     7
 10
93.570400000000006
 20
166.97699999999989
 30
0.0
 11
95.781000000000006
 21
167.56899999999999
 31
0.0
  0
LINE
  5
55
  8
0
 62
     7
 10
95.781000000000006
 20
167.56899999999999
 30
0.0
 11
93.570400000000006
 21
168.16099999999989
 31
0.0
  0
LINE
  5
56
  8
0
 62
     7
 10
93.570400000000006
 20
168.16099999999989
 30
0.0
 11
93.570400000000006
 21
166.97699999999989
 31
0.0
  0
LINE
  5
57
  8
0
 62
     7
 10
102.30500000000001
 20
168.14699999999999
 30
0.0
 11
100.095
 21
167.55399999999989
 31
0.0
  0
LINE
  5
58
  8
0
 62
     7
 10
100.095
 20
167.55399999999989
 30
0.0
 11
102.30500000000001
 21
166.96199999999999
 31
0.0
  0
LINE
  5
59
  8
0
 62
     7
 10
102.30500000000001
 20
166.96199999999999
 30
0.0
 11
102.30500000000001
 21
168.14699999999999
 31
0.0
  0
LINE
  5
5A
  8
0
 62
     7
 10
50.840499999999999
 20
168.14699999999999
 30
0.0
 11
48.629899999999992
 21
167.55399999999989
 31
0.0
  0
LINE
  5
5B
  8
0
 62
     7
 10
48.629899999999992
 20
167.55399999999989
 30
0.0
 11
50.840499999999999
 21
166.96199999999999
 31
0.0
  0
LINE
  5
5C
  8
0
 62
     7
 10
50.840499999999999
 20
166.96199999999999
 30
0.0
 11
50.840499999999999
 21
168.14699999999999
 31
0.0
  0
LINE
  5
5D
  8
0
 62
     7
 10
65.334800000000001
 20
213.29699999999991
 30
0.0
 11
58.649500000000003
 21
213.29699999999991
 31
0.0
  0
LINE
  5
5E
  8
0
 62
     7
 10
106.152
 20
167.56200000000001
 30
0.0
 11
38.300600000000003
 21
167.56200000000001
 31
0.0
  0
LINE
  5
5F
  8
0
 62
     7
 10
44.316800000000001
 20
157.4679999999999
 30
0.0
 11
44.316800000000001
 21
200.59899999999999
 31
0.0
  0
LINE
  5
60
  8
0
 62
     7
 10
100.095
 20
157.4679999999999
 30
0.0
 11
100.095
 21
200.59899999999999
 31
0.0
  0
LINE
  5
61
  8
0
 62
     7
 10
169.9559999999999
 20
166.97699999999989
 30
0.0
 11
172.16599999999991
 21
167.56899999999999
 31
0.0
  0
LINE
  5
62
  8
0
 62
     7
 10
172.16599999999991
 20
167.56899999999999
 30
0.0
 11
169.9559999999999
 21
168.16099999999989
 31
0.0
  0
LINE
  5
63
  8
0
 62
     7
 10
169.9559999999999
 20
168.16099999999989
 30
0.0
 11
169.9559999999999
 21
166.97699999999989
 31
0.0
  0
LINE
  5
64
  8
0
 62
     7
 10
121.79600000000001
 20
168.14699999999999
 30
0.0
 11
119.5859999999999
 21
167.55399999999989
 31
0.0
  0
LINE
  5
65
  8
0
 62
     7
 10
119.5859999999999
 20
167.55399999999989
 30
0.0
 11
121.79600000000001
 21
166.96199999999999
 31
0.0
  0
LINE
  5
66
  8
0
 62
     7
 10
121.79600000000001
 20
166.96199999999999
 30
0.0
 11
121.79600000000001
 21
168.14699999999999
 31
0.0
  0
LINE
  5
67
  8
0
 62
     7
 10
172.2459999999999
 20
167.56200000000001
 30
0.0
 11
119.584
 21
167.56200000000001
 31
0.0
  0
LINE
  5
68
  8
0
 62
     7
 10
97.819800000000001
 20
157.62
 30
0.0
 11
100.0299999999999
 21
158.21199999999999
 31
0.0
  0
LINE
  5
69
  8
0
 62
     7
 10
100.0299999999999
 20
158.21199999999999
 30
0.0
 11
97.819800000000001
 21
158.804
 31
0.0
  0
LINE
  5
6A
  8
0
 62
     7
 10
97.819800000000001
 20
158.804
 30
0.0
 11
97.819800000000001
 21
157.62
 31
0.0
  0
LINE
  5
6B
  8
0
 62
     7
 10
46.513399999999997
 20
158.78999999999991
 30
0.0
 11
44.302799999999991
 21
158.19799999999989
 31
0.0
  0
LINE
  5
6C
  8
0
 62
     7
 10
44.302799999999991
 20
158.19799999999989
 30
0.0
 11
46.513399999999997
 21
157.6049999999999
 31
0.0
  0
LINE
  5
6D
  8
0
 62
     7
 10
46.513399999999997
 20
157.6049999999999
 30
0.0
 11
46.513399999999997
 21
158.78999999999991
 31
0.0
  0
LINE
  5
6E
  8
0
 62
     7
 10
100.01299999999991
 20
158.1929999999999
 30
0.0
 11
44.225000000000001
 21
158.1929999999999
 31
0.0
  0
LINE
  5
6F
  8
0
 62
     7
 10
111.762
 20
104.6929999999999
 30
0.0
 11
112.3539999999999
 21
102.4829999999999
 31
0.0
  0
LINE
  5
70
  8
0
 62
     7
 10
112.3539999999999
 20
102.4829999999999
 30
0.0
 11
112.9459999999999
 21
104.6929999999999
 31
0.0
  0
LINE
  5
71
  8
0
 62
     7
 10
112.9459999999999
 20
104.6929999999999
 30
0.0
 11
111.762
 21
104.6929999999999
 31
0.0
  0
LINE
  5
72
  8
0
 62
     7
 10
112.932
 20
123.994
 30
0.0
 11
112.3399999999999
 21
126.205
 31
0.0
  0
LINE
  5
73
  8
0
 62
     7
 10
112.3399999999999
 20
126.205
 30
0.0
 11
111.747
 21
123.994
 31
0.0
  0
LINE
  5
74
  8
0
 62
     7
 10
111.747
 20
123.994
 30
0.0
 11
112.932
 21
123.994
 31
0.0
  0
LINE
  5
75
  8
0
 62
     7
 10
112.34699999999999
 20
102.4939999999999
 30
0.0
 11
112.34699999999999
 21
126.3149999999999
 31
0.0
  0
LINE
  5
76
  8
0
 62
     7
 10
119.61799999999999
 20
166.40999999999991
 30
0.0
 11
119.61799999999999
 21
198.57299999999989
 31
0.0
  0
LINE
  5
77
  8
0
 62
     7
 10
172.21899999999999
 20
166.40999999999991
 30
0.0
 11
172.21899999999999
 21
198.57299999999989
 31
0.0
  0
LINE
  5
78
  8
0
  6
AIGENLINE001
 62
     7
 10
145.9189999999999
 20
236.25
 30
0.0
 11
145.9189999999999
 21
176.03200000000001
 31
0.0
  0
LINE
  5
79
  8
0
 62
     7
 10
67.327100000000002
 20
210.46700000000001
 30
0.0
 11
69.308899999999994
 21
209.32299999999989
 31
0.0
  0
LINE
  5
7A
  8
0
 62
     7
 10
69.308899999999994
 20
209.32299999999989
 30
0.0
 11
68.164699999999996
 21
211.30500000000001
 31
0.0
  0
LINE
  5
7B
  8
0
 62
     7
 10
68.164699999999996
 20
211.30500000000001
 30
0.0
 11
67.327100000000002
 21
210.46700000000001
 31
0.0
  0
LINE
  5
7C
  8
0
 62
     7
 10
77.083799999999997
 20
202.375
 30
0.0
 11
75.102000000000004
 21
203.52000000000001
 31
0.0
  0
LINE
  5
7D
  8
0
 62
     7
 10
75.102000000000004
 20
203.52000000000001
 30
0.0
 11
76.246099999999998
 21
201.5379999999999
 31
0.0
  0
LINE
  5
7E
  8
0
 62
     7
 10
76.246099999999998
 20
201.5379999999999
 30
0.0
 11
77.083799999999997
 21
202.375
 31
0.0
  0
LINE
  5
7F
  8
0
 62
     7
 10
78.474599999999995
 20
200.15700000000001
 30
0.0
 11
65.334800000000001
 21
213.29699999999991
 31
0.0
  0
LINE
  5
80
  8
0
  6
AIGENLINE001
 62
     7
 10
72.182400000000001
 20
237.0319999999999
 30
0.0
 11
72.182400000000001
 21
176.60900000000001
 31
0.0
  0
LINE
  5
81
  8
0
  6
AIGENLINE001
 62
     7
 10
105.1609999999999
 20
206.40299999999991
 30
0.0
 11
41.831800000000001
 21
206.40299999999991
 31
0.0
  0
LINE
  5
82
  8
0
 62
     7
 10
48.600299999999997
 20
166.50200000000001
 30
0.0
 11
48.600299999999997
 21
200.82900000000001
 31
0.0
  0
LINE
  5
83
  8
0
 62
     7
 10
95.8108
 20
166.50200000000001
 30
0.0
 11
95.8108
 21
200.82900000000001
 31
0.0
  0
LINE
  5
84
  8
0
 62
     7
 10
107.5199999999999
 20
124.35299999999999
 30
0.0
 11
100.84999999999989
 21
124.35299999999999
 31
0.0
  0
LINE
  5
85
  8
0
 62
     7
 10
113.4989999999999
 20
126.354
 30
0.0
 11
100.43600000000001
 21
126.354
 31
0.0
  0
LINE
  5
86
  8
0
 62
     7
 10
113.4989999999999
 20
102.4489999999999
 30
0.0
 11
79.921000000000006
 21
102.4489999999999
 31
0.0
  0
LINE
  5
87
  8
0
  6
AIGENLINE001
 62
     7
 10
72.182400000000001
 20
130.43299999999991
 30
0.0
 11
72.182400000000001
 21
99.204599999999999
 31
0.0
  0
LINE
  5
88
  8
0
 62
     7
 10
46.665999999999997
 20
124.35299999999999
 30
0.0
 11
97.653700000000001
 21
124.35299999999999
 31
0.0
  0
ARC
  5
89
  8
0
 62
     7
 10
72.18244
 20
206.403176
 30
0.0
 40
5.7500720000000003
 50
179.99996999999991
 51
270.00002000000001
  0
ARC
  5
8A
  8
0
 62
     7
 10
72.182441999999995
 20
206.403176
 30
0.0
 40
5.7500739999999988
 50
90.0
 51
179.99996999999991
  0
ARC
  5
8B
  8
0
 62
     7
 10
72.18244
 20
206.403176
 30
0.0
 40
5.7500739999999988
 50
0.00001
 51
89.999980000000008
  0
ARC
  5
8C
  8
0
 62
     7
 10
72.18244
 20
206.403178
 30
0.0
 40
5.7500739999999988
 50
270.00002000000001
 51
359.99998999999991
  0
LINE
  5
8D
  8
0
 62
     7
 10
97.653700000000001
 20
124.35299999999999
 30
0.0
 11
100.16
 21
124.35299999999999
 31
0.0
  0
LINE
  5
8E
  8
0
 62
     7
 10
100.16
 20
124.35299999999999
 30
0.0
 11
100.16
 21
125.479
 31
0.0
  0
ARC
  5
8F
  8
0
 62
     7
 10
99.353672000000003
 20
125.55488099999999
 30
0.0
 40
0.8094660000000001
 50
354.60333900000001
 51
39.011465999999999
  0
ARC
  5
90
  8
0
 62
     7
 10
99.357347000000004
 20
125.54622999999999
 30
0.0
 40
0.8121059999999999
 50
39.648940000000003
 51
83.948201999999995
  0
ARC
  5
91
  8
0
 62
     7
 10
99.363727999999995
 20
125.49178499999999
 30
0.0
 40
0.8656579999999999
 50
84.748093000000026
 51
95.251886999999996
  0
LINE
  5
92
  8
0
 62
     7
 10
99.284499999999994
 20
126.354
 30
0.0
 11
96.732299999999995
 21
126.354
 31
0.0
  0
LINE
  5
93
  8
0
 62
     7
 10
96.732299999999995
 20
126.354
 30
0.0
 11
45.081299999999999
 21
126.354
 31
0.0
  0
ARC
  5
94
  8
0
 62
     7
 10
45.031607999999991
 20
125.474418
 30
0.0
 40
0.8807919999999999
 50
86.76876
 51
131.03227299999989
  0
ARC
  5
95
  8
0
 62
     7
 10
45.037137000000001
 20
125.48378
 30
0.0
 40
0.8774209999999998
 50
131.70598699999999
 51
176.096036
  0
ARC
  5
96
  8
0
 62
     7
 10
44.788938000000002
 20
125.49275799999999
 30
0.0
 40
0.6292360000000001
 50
175.37291499999989
 51
181.27562900000001
  0
LINE
  5
97
  8
0
 62
     7
 10
44.159899999999993
 20
125.479
 30
0.0
 11
44.159899999999993
 21
124.35299999999999
 31
0.0
  0
LINE
  5
98
  8
0
 62
     7
 10
44.159899999999993
 20
124.35299999999999
 30
0.0
 11
46.665999999999997
 21
124.35299999999999
 31
0.0
  0
TEXT
  5
99
  8
_________2
 62
     7
 10
29.525700000000001
 20
22.2272
 30
0.0
 40
3.9357000000000002
  1
280サイズ　実容量3L
 41
0.5
  0
LINE
  5
9A
  8
_________2
 62
     7
 10
105.2389999999999
 20
17.428499999999989
 30
0.0
 11
105.2389999999999
 21
0.4485540000000001
 31
0.0
  0
LINE
  5
9B
  8
_________2
 62
     7
 10
81.679900000000004
 20
51.324300000000001
 30
0.0
 11
79.493700000000004
 21
51.324300000000001
 31
0.0
  0
LINE
  5
9C
  8
_________2
 62
     7
 10
82.172600000000017
 20
51.324300000000001
 30
0.0
 11
81.920400000000001
 21
51.324300000000001
 31
0.0
  0
LINE
  5
9D
  8
_________2
 62
     7
 10
82.665199999999984
 20
51.324300000000001
 30
0.0
 11
85.590100000000007
 21
51.324300000000001
 31
0.0
  0
LINE
  5
9E
  8
_________2
 62
     7
 10
82.172600000000017
 20
51.324300000000001
 30
0.0
 11
82.424800000000005
 21
51.324300000000001
 31
0.0
  0
LINE
  5
9F
  8
_________2
 62
     7
 10
75.776399999999995
 20
51.324300000000001
 30
0.0
 11
73.589399999999998
 21
51.324300000000001
 31
0.0
  0
LINE
  5
A0
  8
_________2
 62
     7
 10
76.2684
 20
51.324300000000001
 30
0.0
 11
76.016900000000007
 21
51.324300000000001
 31
0.0
  0
LINE
  5
A1
  8
_________2
 62
     7
 10
76.2684
 20
51.817
 30
0.0
 11
76.2684
 21
54.003900000000002
 31
0.0
  0
LINE
  5
A2
  8
_________2
 62
     7
 10
76.2684
 20
51.324300000000001
 30
0.0
 11
76.2684
 21
51.576900000000002
 31
0.0
  0
LINE
  5
A3
  8
_________2
 62
     7
 10
76.76100000000001
 20
51.324300000000001
 30
0.0
 11
78.947999999999993
 21
51.324300000000001
 31
0.0
  0
LINE
  5
A4
  8
_________2
 62
     7
 10
76.2684
 20
51.324300000000001
 30
0.0
 11
76.520499999999998
 21
51.324300000000001
 31
0.0
  0
LINE
  5
A5
  8
_________2
 62
     7
 10
76.2684
 20
50.832399999999993
 30
0.0
 11
76.2684
 21
48.645699999999998
 31
0.0
  0
LINE
  5
A6
  8
_________2
 62
     7
 10
76.2684
 20
51.324300000000001
 30
0.0
 11
76.2684
 21
51.072800000000001
 31
0.0
  0
LINE
  5
A7
  8
_________2
 62
     7
 10
79.979399999999984
 20
50.104799999999997
 30
0.0
 11
85.157399999999996
 21
49.240000000000002
 31
0.0
  0
LINE
  5
A8
  8
_________2
 62
     7
 10
79.979399999999984
 20
52.544199999999989
 30
0.0
 11
85.157399999999996
 21
53.409700000000001
 31
0.0
  0
LINE
  5
A9
  8
_________2
 62
     7
 10
85.157399999999996
 20
49.240000000000002
 30
0.0
 11
85.157399999999996
 21
53.409700000000001
 31
0.0
  0
LINE
  5
AA
  8
_________2
 62
     7
 10
79.979399999999984
 20
50.104799999999997
 30
0.0
 11
79.979399999999984
 21
52.544199999999989
 31
0.0
  0
ARC
  5
AB
  8
_________2
 62
     7
 10
76.221766000000002
 20
51.277380999999998
 30
0.0
 40
1.267714
 50
2.1220840000000001
 51
87.894083999999992
  0
ARC
  5
AC
  8
_________2
 62
     7
 10
76.315297000000001
 20
51.277734999999993
 30
0.0
 40
1.267374999999999
 50
92.122849999999985
 51
177.893304
  0
ARC
  5
AD
  8
_________2
 62
     7
 10
76.315273000000005
 20
51.371245999999992
 30
0.0
 40
1.267363
 50
182.12181499999991
 51
267.87821400000001
  0
ARC
  5
AE
  8
_________2
 62
     7
 10
76.221461000000005
 20
51.371928999999987
 30
0.0
 40
1.2680439999999991
 50
272.11916400000001
 51
357.84848499999993
  0
ARC
  5
AF
  8
_________2
 62
     7
 10
76.187981999999991
 20
51.244312999999998
 30
0.0
 40
2.1668310000000002
 50
2.1161439999999989
 51
87.874379000000005
  0
ARC
  5
B0
  8
_________2
 62
     7
 10
76.348411999999996
 20
51.245334999999997
 30
0.0
 40
2.1657980000000001
 50
92.118487999999999
 51
177.90988599999989
  0
ARC
  5
B1
  8
_________2
 62
     7
 10
76.348354
 20
51.404327000000002
 30
0.0
 40
2.1657779999999991
 50
182.11700400000001
 51
267.88302499999992
  0
ARC
  5
B2
  8
_________2
 62
     7
 10
76.188378999999983
 20
51.405009999999997
 30
0.0
 40
2.1664590000000001
 50
272.11546800000002
 51
357.86560400000002
  0
TEXT
  5
B3
  8
_________2
 62
     7
 10
109.5439999999999
 20
23.199100000000001
 30
0.0
 40
3.0923400000000001
  1
図番
 41
0.5
  0
LINE
  5
B4
  8
_________2
 62
     7
 10
108.4889999999999
 20
27.4283
 30
0.0
 11
188.49000000000001
 21
27.4283
 31
0.0
  0
TEXT
  5
B5
  8
_________2
 62
     7
 10
109.5439999999999
 20
33.198900000000002
 30
0.0
 40
3.0923400000000001
  1
品番
 41
0.5
  0
TEXT
  5
B6
  8
_________2
 62
     7
 10
109.5439999999999
 20
53.338000000000001
 30
0.0
 40
3.0923400000000001
  1
名称
 41
0.5
  0
TEXT
  5
B7
  8
_________2
 62
     7
 10
96.784058333333334
 20
48.341900000000003
 30
0.0
 40
3.6545800000000002
  1
mm
 41
0.5
 72
     1
 11
98.306799999999996
 21
48.341900000000003
 31
0.0
  0
TEXT
  5
B8
  8
_________2
 62
     7
 10
90.582099999999997
 20
53.338000000000001
 30
0.0
 40
3.0923400000000001
  1
単位
 41
0.5
  0
TEXT
  5
B9
  8
_________2
 62
     7
 10
90.582099999999997
 20
40.930399999999999
 30
0.0
 40
3.0923400000000001
  1
尺度
 41
0.5
  0
TEXT
  5
BA
  8
_________2
 62
     7
 10
95.487658666666675
 20
34.7378
 30
0.0
 40
3.6545800000000002
  1
1 ： 5
 41
0.5
 72
     1
 11
98.898600000000002
 21
34.7378
 31
0.0
  0
TEXT
  5
BB
  8
_________2
 62
     7
 10
141.60152500000001
 20
30.627800000000001
 30
0.0
 40
3.9357000000000002
  1
図中の表参照
 41
0.5
 72
     1
 11
148.489
 21
30.627800000000001
 31
0.0
  0
TEXT
  5
BC
  8
_________2
 62
     7
 10
143.2414
 20
20.626999999999988
 30
0.0
 40
3.9357000000000002
  1
CEL134
 41
0.5
 72
     1
 11
148.489
 21
20.626999999999988
 31
0.0
  0
TEXT
  5
BD
  8
_________2
 62
     7
 10
114.11799999999999
 20
45.745600000000003
 30
0.0
 40
3.9357000000000002
  1
セラオリジナルコレクション カウンター式手洗器
 41
0.5
  0
TEXT
  5
BE
  8
_________2
 62
     7
 10
44.364200333333329
 20
35.122999999999998
 30
0.0
 40
3.6545800000000002
  1
早川
 41
0.5
 72
     1
 11
46.252400000000002
 21
35.122999999999998
 31
0.0
  0
TEXT
  5
BF
  8
_________2
 62
     7
 10
25.72929066666666
 20
35.122999999999998
 30
0.0
 40
3.6545800000000002
  1
石原
 41
0.5
 72
     1
 11
27.6784
 21
35.122999999999998
 31
0.0
  0
TEXT
  5
C0
  8
_________2
 62
     7
 10
72.724699999999999
 20
34.7378
 30
0.0
 40
3.6545800000000002
  1
12.04.18
 41
0.5
  0
TEXT
  5
C1
  8
_________2
 62
     7
 10
71.531999999999996
 20
40.930399999999999
 30
0.0
 40
3.0923400000000001
  1
日付
 41
0.5
  0
TEXT
  5
C2
  8
_________2
 62
     7
 10
34.578299999999992
 20
40.930399999999999
 30
0.0
 40
3.0923400000000001
  1
検図
 41
0.5
  0
TEXT
  5
C3
  8
_________2
 62
     7
 10
22.96019999999999
 20
26.730999999999991
 30
0.0
 40
3.0923400000000001
  1
備考
 41
0.5
  0
TEXT
  5
C4
  8
_________2
 62
     7
 10
22.96019999999999
 20
40.930399999999999
 30
0.0
 40
3.0923400000000001
  1
製図
 41
0.5
  0
TEXT
  5
C5
  8
_________2
 62
     7
 10
28.727365333333339
 20
49.456400000000002
 30
0.0
 40
4.4979399999999989
  1
セラトレーディング株式会社
 41
0.5
 72
     1
 11
46.119399999999992
 21
49.456400000000002
 31
0.0
  0
LINE
  5
C6
  8
_________2
 62
     7
 10
188.49000000000001
 20
17.428499999999989
 30
0.0
 11
21.988499999999991
 21
17.428499999999989
 31
0.0
  0
LINE
  5
C7
  8
_________2
 62
     7
 10
21.988499999999991
 20
17.428499999999989
 30
0.0
 11
21.988499999999991
 21
280.42999999999989
 31
0.0
  0
LINE
  5
C8
  8
_________2
 62
     7
 10
21.988499999999991
 20
280.42999999999989
 30
0.0
 11
188.49000000000001
 21
280.42999999999989
 31
0.0
  0
LINE
  5
C9
  8
_________2
 62
     7
 10
188.49000000000001
 20
280.42999999999989
 30
0.0
 11
188.49000000000001
 21
17.428499999999989
 31
0.0
  0
LINE
  5
CA
  8
_________2
 62
     7
 10
70.488799999999998
 20
30.928899999999999
 30
0.0
 11
70.488799999999998
 21
57.428699999999992
 31
0.0
  0
LINE
  5
CB
  8
_________2
 62
     7
 10
89.488600000000005
 20
30.928899999999999
 30
0.0
 11
89.488600000000005
 21
57.428699999999992
 31
0.0
  0
LINE
  5
CC
  8
_________2
 62
     7
 10
108.4889999999999
 20
17.428499999999989
 30
0.0
 11
108.4889999999999
 21
57.428699999999992
 31
0.0
  0
LINE
  5
CD
  8
_________2
 62
     7
 10
33.488300000000002
 20
30.928899999999999
 30
0.0
 11
33.488300000000002
 21
44.928800000000003
 31
0.0
  0
LINE
  5
CE
  8
_________2
 62
     7
 10
21.988499999999991
 20
30.928899999999999
 30
0.0
 11
108.4889999999999
 21
30.928899999999999
 31
0.0
  0
LINE
  5
CF
  8
_________2
 62
     7
 10
21.988499999999991
 20
44.928800000000003
 30
0.0
 11
108.4889999999999
 21
44.928800000000003
 31
0.0
  0
LINE
  5
D0
  8
_________2
 62
     7
 10
108.4889999999999
 20
37.428100000000001
 30
0.0
 11
188.49000000000001
 21
37.428100000000001
 31
0.0
  0
LINE
  5
D1
  8
_________2
 62
     7
 10
21.988499999999991
 20
57.428699999999992
 30
0.0
 11
188.49000000000001
 21
57.428699999999992
 31
0.0
  0
LINE
  5
D2
  8
_________2
 62
     7
 10
150.4499999999999
 20
280.42999999999989
 30
0.0
 11
150.4499999999999
 21
252.43000000000001
 31
0.0
  0
LINE
  5
D3
  8
_________2
 62
     7
 10
150.4499999999999
 20
280.42999999999989
 30
0.0
 11
150.4499999999999
 21
259.43000000000001
 31
0.0
  0
LINE
  5
D4
  8
_________2
 62
     7
 10
167.715
 20
280.42999999999989
 30
0.0
 11
167.715
 21
252.43000000000001
 31
0.0
  0
LINE
  5
D5
  8
_________2
 62
     7
 10
167.715
 20
280.42999999999989
 30
0.0
 11
167.715
 21
259.43000000000001
 31
0.0
  0
TEXT
  5
D6
  8
_________2
 62
     7
 10
170.17759333333331
 20
254.5809999999999
 30
0.0
 40
3.3734599999999988
  1
ハーベストグレー
 41
0.5
 72
     1
 11
178.04900000000001
 21
254.5809999999999
 31
0.0
  0
TEXT
  5
D7
  8
_________2
 62
     7
 10
153.5836883333333
 20
254.5809999999999
 30
0.0
 40
3.3734599999999988
  1
CEL1345
 41
0.5
 72
     1
 11
158.92500000000001
 21
254.5809999999999
 31
0.0
  0
LINE
  5
D8
  8
_________2
 62
     7
 10
150.4499999999999
 20
252.43000000000001
 30
0.0
 11
188.49000000000001
 21
252.43000000000001
 31
0.0
  0
TEXT
  5
D9
  8
_________2
 62
     7
 10
172.20166933333331
 20
261.5809999999999
 30
0.0
 40
3.3734599999999988
  1
アースグレー
 41
0.5
 72
     1
 11
178.04900000000001
 21
261.5809999999999
 31
0.0
  0
TEXT
  5
DA
  8
_________2
 62
     7
 10
174.28196966666661
 20
268.5809999999999
 30
0.0
 40
3.3734599999999988
  1
ホワイト
 41
0.5
 72
     1
 11
178.04900000000001
 21
268.5809999999999
 31
0.0
  0
TEXT
  5
DB
  8
_________2
 62
     7
 10
176.2498213333333
 20
275.5809999999999
 30
0.0
 40
3.3734599999999988
  1
仕上
 41
0.5
 72
     1
 11
178.04900000000001
 21
275.5809999999999
 31
0.0
  0
TEXT
  5
DC
  8
_________2
 62
     7
 10
153.5836883333333
 20
261.5809999999999
 30
0.0
 40
3.3734599999999988
  1
CEL1343
 41
0.5
 72
     1
 11
158.92500000000001
 21
261.5809999999999
 31
0.0
  0
TEXT
  5
DD
  8
_________2
 62
     7
 10
154.4270533333333
 20
268.5809999999999
 30
0.0
 40
3.3734599999999988
  1
CEL134
 41
0.5
 72
     1
 11
158.92500000000001
 21
268.5809999999999
 31
0.0
  0
TEXT
  5
DE
  8
_________2
 62
     7
 10
157.12582133333331
 20
275.5809999999999
 30
0.0
 40
3.3734599999999988
  1
品番
 41
0.5
 72
     1
 11
158.92500000000001
 21
275.5809999999999
 31
0.0
  0
LINE
  5
DF
  8
_________2
 62
     7
 10
150.4499999999999
 20
259.43000000000001
 30
0.0
 11
188.49000000000001
 21
259.43000000000001
 31
0.0
  0
LINE
  5
E0
  8
_________2
 62
     7
 10
150.4499999999999
 20
266.43099999999993
 30
0.0
 11
188.49000000000001
 21
266.43099999999993
 31
0.0
  0
LINE
  5
E1
  8
_________2
 62
     7
 10
150.4499999999999
 20
273.43000000000001
 30
0.0
 11
188.49000000000001
 21
273.43000000000001
 31
0.0
  0
LINE
  5
E2
  8
_________2
 62
     7
 10
210.24000000000001
 20
148.93100000000001
 30
0.0
 11
188.489
 21
148.93100000000001
 31
0.0
  0
LINE
  5
E3
  8
_________2
 62
     7
 10
105.2389999999999
 20
297.45099999999991
 30
0.0
 11
105.2389999999999
 21
280.42999999999989
 31
0.0
  0
LINE
  5
E4
  8
_________2
 62
     7
 10
21.988499999999991
 20
148.93100000000001
 30
0.0
 11
0.238402
 21
148.93100000000001
 31
0.0
  0
ENDSEC
  0
EOF
