  0
SECTION
  2
HEADER
  9
$ACADVER
  1
AC1009
  9
$INSBASE
 10
0.0
 20
0.0
 30
0.0
  9
$EXTMIN
 10
-4.70052
 20
-21.070699999999992
 30
0.0
  9
$EXTMAX
 10
205.30099999999999
 20
275.93099999999993
 30
0.0
  9
$LIMMIN
 10
0.0
 20
0.0
  9
$LIMMAX
 10
12.0
 20
9.0
  9
$ORTHOMODE
 70
     0
  9
$REGENMODE
 70
     1
  9
$FILLMODE
 70
     1
  9
$QTEXTMODE
 70
     0
  9
$MIRRTEXT
 70
     1
  9
$DRAGMODE
 70
     2
  9
$LTSCALE
 40
1.0
  9
$OSMODE
 70
    37
  9
$ATTMODE
 70
     1
  9
$TEXTSIZE
 40
0.0
  9
$TRACEWID
 40
0.05
  9
$TEXTSTYLE
  7
STANDARD
  9
$CLAYER
  8
0
  9
$CELTYPE
  6
CONTINUOUS
  9
$CECOLOR
 62
   256
  9
$DIMSCALE
 40
1.0
  9
$DIMASZ
 40
0.18
  9
$DIMEXO
 40
0.0625
  9
$DIMDLI
 40
0.38
  9
$DIMRND
 40
0.0
  9
$DIMDLE
 40
0.0
  9
$DIMEXE
 40
0.18
  9
$DIMTP
 40
0.0
  9
$DIMTM
 40
0.0
  9
$DIMTXT
 40
0.18
  9
$DIMCEN
 40
0.09
  9
$DIMTSZ
 40
0.0
  9
$DIMTOL
 70
     0
  9
$DIMLIM
 70
     0
  9
$DIMTIH
 70
     1
  9
$DIMTOH
 70
     1
  9
$DIMSE1
 70
     0
  9
$DIMSE2
 70
     0
  9
$DIMTAD
 70
     0
  9
$DIMZIN
 70
     0
  9
$DIMBLK
  1

  9
$DIMASO
 70
     1
  9
$DIMSHO
 70
     1
  9
$DIMPOST
  1

  9
$DIMAPOST
  1

  9
$DIMALT
 70
     0
  9
$DIMALTD
 70
     2
  9
$DIMALTF
 40
25.399999999999999
  9
$DIMLFAC
 40
1.0
  9
$DIMTOFL
 70
     0
  9
$DIMTVP
 40
0.0
  9
$DIMTIX
 70
     0
  9
$DIMSOXD
 70
     0
  9
$DIMSAH
 70
     0
  9
$DIMBLK1
  1

  9
$DIMBLK2
  1

  9
$DIMSTYLE
  2
STANDARD
  9
$DIMCLRD
 70
     0
  9
$DIMCLRE
 70
     0
  9
$DIMCLRT
 70
     0
  9
$DIMTFAC
 40
1.0
  9
$DIMGAP
 40
0.09
  9
$LUNITS
 70
     2
  9
$LUPREC
 70
     4
  9
$SKETCHINC
 40
0.1
  9
$FILLETRAD
 40
0.0
  9
$AUNITS
 70
     0
  9
$AUPREC
 70
     0
  9
$MENU
  1
.
  9
$ELEVATION
 40
0.0
  9
$PELEVATION
 40
0.0
  9
$THICKNESS
 40
0.0
  9
$LIMCHECK
 70
     0
  9
$BLIPMODE
 70
     0
  9
$CHAMFERA
 40
0.0
  9
$CHAMFERB
 40
0.0
  9
$SKPOLY
 70
     0
  9
$TDCREATE
 40
2444972.375
  9
$TDUPDATE
 40
2456309.4240768859
  9
$TDINDWG
 40
0.0000087963
  9
$TDUSRTIMER
 40
0.0000087963
  9
$USRTIMER
 70
     1
  9
$ANGBASE
 50
0.0
  9
$ANGDIR
 70
     0
  9
$PDMODE
 70
     0
  9
$PDSIZE
 40
0.0
  9
$PLINEWID
 40
0.0
  9
$COORDS
 70
     1
  9
$SPLFRAME
 70
     0
  9
$SPLINETYPE
 70
     6
  9
$SPLINESEGS
 70
     8
  9
$ATTDIA
 70
     0
  9
$ATTREQ
 70
     1
  9
$HANDLING
 70
     1
  9
$HANDSEED
  5
2C1
  9
$SURFTAB1
 70
     6
  9
$SURFTAB2
 70
     6
  9
$SURFTYPE
 70
     6
  9
$SURFU
 70
     6
  9
$SURFV
 70
     6
  9
$UCSNAME
  2

  9
$UCSORG
 10
0.0
 20
0.0
 30
0.0
  9
$UCSXDIR
 10
1.0
 20
0.0
 30
0.0
  9
$UCSYDIR
 10
0.0
 20
1.0
 30
0.0
  9
$PUCSNAME
  2

  9
$PUCSORG
 10
0.0
 20
0.0
 30
0.0
  9
$PUCSXDIR
 10
1.0
 20
0.0
 30
0.0
  9
$PUCSYDIR
 10
0.0
 20
1.0
 30
0.0
  9
$USERI1
 70
     0
  9
$USERI2
 70
     0
  9
$USERI3
 70
     0
  9
$USERI4
 70
     0
  9
$USERI5
 70
     0
  9
$USERR1
 40
0.0
  9
$USERR2
 40
0.0
  9
$USERR3
 40
0.0
  9
$USERR4
 40
0.0
  9
$USERR5
 40
0.0
  9
$WORLDVIEW
 70
     1
  9
$SHADEDGE
 70
     3
  9
$SHADEDIF
 70
    70
  9
$TILEMODE
 70
     1
  9
$MAXACTVP
 70
    48
  9
$PLIMCHECK
 70
     0
  9
$PEXTMIN
 10
1.0000000000000000E+020
 20
1.0000000000000000E+020
 30
1.0000000000000000E+020
  9
$PEXTMAX
 10
-1.0000000000000000E+020
 20
-1.0000000000000000E+020
 30
-1.0000000000000000E+020
  9
$PLIMMIN
 10
0.0
 20
0.0
  9
$PLIMMAX
 10
12.0
 20
9.0
  9
$UNITMODE
 70
     0
  9
$VISRETAIN
 70
     1
  9
$PLINEGEN
 70
     0
  9
$PSLTSCALE
 70
     1
  0
ENDSEC
  0
SECTION
  2
TABLES
  0
TABLE
  2
VPORT
 70
     2
  0
VPORT
  2
*ACTIVE
 70
     0
 10
0.0
 20
0.0
 11
1.0
 21
1.0
 12
205.3104379972244
 22
127.4301499999999
 13
0.0
 23
0.0
 14
1.0
 24
1.0
 15
0.0
 25
0.0
 16
0.0
 26
0.0
 36
1.0
 17
0.0
 27
0.0
 37
0.0
 40
299.24604534005027
 41
2.2894736842105261
 42
50.0
 43
0.0
 44
0.0
 50
0.0
 51
0.0
 71
     0
 72
   100
 73
     1
 74
     1
 75
     0
 76
     0
 77
     0
 78
     0
  0
ENDTAB
  0
TABLE
  2
LTYPE
 70
     4
  0
LTYPE
  2
CONTINUOUS
 70
     0
  3
Solid line
 72
    65
 73
     0
 40
0.0
  0
LTYPE
  2
AIGENLINE001
 70
     0
  3
generate AI->DXF Converter
 72
    65
 73
     2
 40
1.5522299999999991
 49
0.776115
 49
-0.776115
  0
LTYPE
  2
AIGENLINE002
 70
     0
  3
generate AI->DXF Converter
 72
    65
 73
     4
 40
5.8561449999999988
 49
3.5278
 49
-0.776115
 49
0.776115
 49
-0.776115
  0
LTYPE
  2
AIGENLINE003
 70
     0
  3
generate AI->DXF Converter
 72
    65
 73
     6
 40
7.4083750000000004
 49
3.5278
 49
-0.776115
 49
0.776115
 49
-0.776115
 49
0.776115
 49
-0.776115
  0
ENDTAB
  0
TABLE
  2
LAYER
 70
     2
  0
LAYER
  2
0
 70
     0
 62
     7
  6
CONTINUOUS
  0
LAYER
  2
_________2
 70
     0
 62
     7
  6
CONTINUOUS
  0
ENDTAB
  0
TABLE
  2
STYLE
 70
     1
  0
STYLE
  2
STANDARD
 70
     0
 40
0.0
 41
0.0
 50
0.0
 71
     0
 42
0.0
  3
TXT
  4
EXTFONT.SHX
  0
ENDTAB
  0
TABLE
  2
VIEW
 70
     0
  0
ENDTAB
  0
TABLE
  2
UCS
 70
     0
  0
ENDTAB
  0
TABLE
  2
APPID
 70
     1
  0
APPID
  2
ACAD
 70
     0
  0
ENDTAB
  0
TABLE
  2
DIMSTYLE
 70
     1
  0
DIMSTYLE
  2
STANDARD
 70
     0
  3

  4

  5

  6

  7

 40
1.0
 41
0.18
 42
0.0625
 43
0.38
 44
0.18
 45
0.0
 46
0.0
 47
0.0
 48
0.0
140
0.18
141
0.09
142
0.0
143
25.399999999999999
144
1.0
145
0.0
146
1.0
147
0.09
 71
     0
 72
     0
 73
     1
 74
     1
 75
     0
 76
     0
 77
     0
 78
     0
170
     0
171
     2
172
     0
173
     0
174
     0
175
     0
176
     0
177
     0
178
     0
  0
ENDTAB
  0
ENDSEC
  0
SECTION
  2
BLOCKS
  0
BLOCK
  8
0
  2
$MODEL_SPACE
 70
     0
 10
0.0
 20
0.0
 30
0.0
  3
$MODEL_SPACE
  1

  0
ENDBLK
  5
1A
  8
0
  0
BLOCK
 67
     1
  8
0
  2
$PAPER_SPACE
 70
     0
 10
0.0
 20
0.0
 30
0.0
  3
$PAPER_SPACE
  1

  0
ENDBLK
  5
17
 67
     1
  8
0
  0
ENDSEC
  0
SECTION
  2
ENTITIES
  0
TEXT
  5
24
  8
0
 62
     7
 10
63.010899999999999
 20
79.905699999999996
 30
0.0
 40
3.0923400000000001
  1
%%c35
 50
90.0
 41
0.5
  0
TEXT
  5
25
  8
0
 62
     7
 10
158.33699999999999
 20
220.66399999999999
 30
0.0
 40
3.0923400000000001
  1
〈付属品〉
 50
90.0
 41
0.5
  0
TEXT
  5
26
  8
0
 62
     7
 10
162.202
 20
220.66399999999999
 30
0.0
 40
3.0923400000000001
  1
洗面器固定金具×4
 50
90.0
 41
0.5
  0
TEXT
  5
27
  8
0
 62
     7
 10
166.0679999999999
 20
220.66399999999999
 30
0.0
 40
3.0923400000000001
  1
%%c5×20SUSねじ付
 50
90.0
 41
0.5
  0
TEXT
  5
28
  8
0
 62
     7
 10
169.93299999999991
 20
220.66399999999999
 30
0.0
 40
3.0923400000000001
  1
（尺度 1：3）
 50
90.0
 41
0.5
  0
TEXT
  5
29
  8
0
 62
     7
 10
123.19499999999989
 20
229.691
 30
0.0
 40
3.0923400000000001
  1
12.5
 50
90.0
 41
0.5
  0
TEXT
  5
2A
  8
0
 62
     7
 10
138.61799999999991
 20
232.76388800000001
 30
0.0
 40
3.0923400000000001
  1
両面テープ付
 50
90.0
 41
0.5
 72
     2
 11
138.61799999999991
 21
243.48400000000001
 31
0.0
  0
TEXT
  5
2B
  8
0
 62
     7
 10
128.0379999999999
 20
230.73237249999991
 30
0.0
 40
3.0923400000000001
  1
50
 50
90.0
 41
0.5
 72
     1
 11
128.0379999999999
 21
231.89199999999991
 31
0.0
  0
TEXT
  5
2C
  8
0
 62
     7
 10
144.60505000000001
 20
246.10799999999989
 30
0.0
 40
3.0923400000000001
  1
1.5
 41
0.5
 72
     2
 11
147.18199999999999
 21
246.10799999999989
 31
0.0
  0
TEXT
  5
2D
  8
0
 62
     7
 10
144.55421999999999
 20
218.84200000000001
 30
0.0
 40
3.0923400000000001
  1
19
 41
0.5
 72
     1
 11
145.58500000000001
 21
218.84200000000001
 31
0.0
  0
TEXT
  5
2E
  8
0
 62
     7
 10
112.6533724999999
 20
247.03599999999989
 30
0.0
 40
3.0923400000000001
  1
30
 41
0.5
 72
     1
 11
113.8129999999999
 21
247.03599999999989
 31
0.0
  0
TEXT
  5
2F
  8
0
 62
     7
 10
115.295
 20
175.35476
 30
0.0
 40
3.0923400000000001
  1
カウンター切込寸法
 50
90.0
 41
0.5
 72
     1
 11
115.295
 21
183.60099999999991
 31
0.0
  0
TEXT
  5
30
  8
0
 62
     7
 10
74.269180000000006
 20
92.995800000000003
 30
0.0
 40
3.0923400000000001
  1
%%c43
 41
0.5
 72
     2
 11
78.392300000000006
 21
92.995800000000003
 31
0.0
  0
TEXT
  5
31
  8
0
 62
     7
 10
106.2679999999999
 20
163.45628199999999
 30
0.0
 40
3.0923400000000001
  1
洗面器固定用カウンター裏補強木（t30～40）
 50
90.0
 41
0.5
 72
     2
 11
106.2679999999999
 21
202.72900000000001
 31
0.0
  0
TEXT
  5
32
  8
0
 62
     7
 10
35.374600000000001
 20
142.92842949999991
 30
0.0
 40
3.0923400000000001
  1
50以上
 50
90.0
 41
0.5
 72
     1
 11
35.374600000000001
 21
145.995
 31
0.0
  0
TEXT
  5
33
  8
0
 62
     7
 10
39.856699999999989
 20
149.56252499999991
 30
0.0
 40
3.0923400000000001
  1
45
 50
90.0
 41
0.5
 72
     1
 11
39.856699999999989
 21
150.851
 31
0.0
  0
TEXT
  5
34
  8
0
 62
     7
 10
35.374600000000001
 20
218.13142949999991
 30
0.0
 40
3.0923400000000001
  1
50以上
 50
90.0
 41
0.5
 72
     1
 11
35.374600000000001
 21
221.19800000000001
 31
0.0
  0
TEXT
  5
35
  8
0
 62
     7
 10
39.856699999999989
 20
215.06252499999999
 30
0.0
 40
3.0923400000000001
  1
45
 50
90.0
 41
0.5
 72
     1
 11
39.856699999999989
 21
216.351
 31
0.0
  0
TEXT
  5
36
  8
0
 62
     7
 10
35.724699999999999
 20
196.91828749999991
 30
0.0
 40
3.0923400000000001
  1
305
 50
90.0
 41
0.5
 72
     1
 11
35.724699999999999
 21
198.85099999999991
 31
0.0
  0
TEXT
  5
37
  8
0
 62
     7
 10
76.116100000000003
 20
161.345
 30
0.0
 40
3.0923400000000001
  1
R10
 41
0.5
  0
TEXT
  5
38
  8
0
 62
     7
 10
57.250765000000001
 20
161.345
 30
0.0
 40
3.0923400000000001
  1
R10
 41
0.5
 72
     2
 11
60.6008
 21
161.345
 31
0.0
  0
TEXT
  5
39
  8
0
 62
     7
 10
97.377300000000005
 20
181.92598249999989
 30
0.0
 40
3.0923400000000001
  1
610
 50
90.0
 41
0.5
 72
     1
 11
97.377300000000005
 21
183.60099999999991
 31
0.0
  0
TEXT
  5
3A
  8
0
 62
     7
 10
35.724699999999999
 20
91.120629999999991
 30
0.0
 40
3.0923400000000001
  1
100
 50
90.0
 41
0.5
 72
     1
 11
35.724699999999999
 21
92.666799999999995
 31
0.0
  0
TEXT
  5
3B
  8
0
 62
     7
 10
35.724699999999999
 20
101.12083
 30
0.0
 40
3.0923400000000001
  1
100
 50
90.0
 41
0.5
 72
     1
 11
35.724699999999999
 21
102.6669999999999
 31
0.0
  0
TEXT
  5
3C
  8
0
 62
     7
 10
35.724699999999999
 20
166.41828749999991
 30
0.0
 40
3.0923400000000001
  1
305
 50
90.0
 41
0.5
 72
     1
 11
35.724699999999999
 21
168.351
 31
0.0
  0
TEXT
  5
3D
  8
0
 62
     7
 10
66.250787500000001
 20
202.06800000000001
 30
0.0
 40
3.0923400000000001
  1
420
 41
0.5
 72
     1
 11
68.183499999999995
 21
202.06800000000001
 31
0.0
  0
TEXT
  5
3E
  8
0
 62
     7
 10
144.738135
 20
56.892699999999998
 30
0.0
 40
3.0923400000000001
  1
186
 41
0.5
 72
     1
 11
146.54199999999989
 21
56.892699999999998
 31
0.0
  0
TEXT
  5
3F
  8
0
 62
     7
 10
131.54599999999991
 20
195.73400000000001
 30
0.0
 40
3.0923400000000001
  1
15
 41
0.5
  0
TEXT
  5
40
  8
0
 62
     7
 10
142.18713500000001
 20
178.6209999999999
 30
0.0
 40
3.0923400000000001
  1
135
 41
0.5
 72
     1
 11
143.99100000000001
 21
178.6209999999999
 31
0.0
  0
TEXT
  5
41
  8
0
 62
     7
 10
162.078
 20
189.07344000000001
 30
0.0
 40
3.0923400000000001
  1
235
 50
90.0
 41
0.5
 72
     1
 11
162.078
 21
191.13499999999991
 31
0.0
  0
TEXT
  5
42
  8
0
 62
     7
 10
127.3279999999999
 20
148.12399999999991
 30
0.0
 40
3.0923400000000001
  1
25
 50
90.0
 41
0.5
  0
TEXT
  5
43
  8
0
 62
     7
 10
127.3279999999999
 20
206.32505
 30
0.0
 40
3.0923400000000001
  1
25
 50
90.0
 41
0.5
 72
     2
 11
127.3279999999999
 21
208.90199999999999
 31
0.0
  0
TEXT
  5
44
  8
0
 62
     7
 10
127.117
 20
195.8465249999999
 30
0.0
 40
3.0923400000000001
  1
65
 50
90.0
 41
0.5
 72
     1
 11
127.117
 21
197.13499999999991
 31
0.0
  0
TEXT
  5
45
  8
0
 62
     7
 10
127.117
 20
189.72437249999999
 30
0.0
 40
3.0923400000000001
  1
60
 50
90.0
 41
0.5
 72
     1
 11
127.117
 21
190.88399999999999
 31
0.0
  0
TEXT
  5
46
  8
0
 62
     7
 10
127.3279999999999
 20
170.33013500000001
 30
0.0
 40
3.0923400000000001
  1
315
 50
90.0
 41
0.5
 72
     1
 11
127.3279999999999
 21
172.13399999999999
 31
0.0
  0
TEXT
  5
47
  8
0
 62
     7
 10
131.3899999999999
 20
165.9799999999999
 30
0.0
 40
3.0923400000000001
  1
30
 41
0.5
  0
TEXT
  5
48
  8
0
 62
     7
 10
102.10299999999989
 20
134.7920499999999
 30
0.0
 40
3.0923400000000001
  1
25
 50
90.0
 41
0.5
 72
     2
 11
102.10299999999989
 21
137.369
 31
0.0
  0
TEXT
  5
49
  8
0
 62
     7
 10
102.10299999999989
 20
57.458999999999989
 30
0.0
 40
3.0923400000000001
  1
25
 50
90.0
 41
0.5
  0
TEXT
  5
4A
  8
0
 62
     7
 10
108.92399999999989
 20
95.484187500000004
 30
0.0
 40
3.0923400000000001
  1
680
 50
90.0
 41
0.5
 72
     1
 11
108.92399999999989
 21
97.416899999999998
 31
0.0
  0
TEXT
  5
4B
  8
0
 62
     7
 10
102.10299999999989
 20
95.484187500000004
 30
0.0
 40
3.0923400000000001
  1
630
 50
90.0
 41
0.5
 72
     1
 11
102.10299999999989
 21
97.416899999999998
 31
0.0
  0
TEXT
  5
4C
  8
0
 62
     7
 10
54.504372500000002
 20
117.515
 30
0.0
 40
3.0923400000000001
  1
60
 41
0.5
 72
     1
 11
55.663999999999987
 21
117.515
 31
0.0
  0
TEXT
  5
4D
  8
0
 62
     7
 10
47.385172500000003
 20
117.515
 30
0.0
 40
3.0923400000000001
  1
90
 41
0.5
 72
     1
 11
48.544800000000002
 21
117.515
 31
0.0
  0
TEXT
  5
4E
  8
0
 62
     7
 10
95.898250000000004
 20
51.778399999999991
 30
0.0
 40
3.0923400000000001
  1
25
 41
0.5
 72
     2
 11
98.475200000000015
 21
51.778399999999991
 31
0.0
  0
TEXT
  5
4F
  8
0
 62
     7
 10
38.104399999999991
 20
51.778399999999991
 30
0.0
 40
3.0923400000000001
  1
25
 41
0.5
  0
TEXT
  5
50
  8
0
 62
     7
 10
66.250787500000001
 20
45.369799999999991
 30
0.0
 40
3.0923400000000001
  1
490
 41
0.5
 72
     1
 11
68.183499999999995
 21
45.369799999999991
 31
0.0
  0
TEXT
  5
51
  8
0
 62
     7
 10
50.629835
 20
57.591000000000001
 30
0.0
 40
3.0923400000000001
  1
125
 41
0.5
 72
     1
 11
52.433700000000002
 21
57.591000000000001
 31
0.0
  0
TEXT
  5
52
  8
0
 62
     7
 10
72.629634999999993
 20
57.591000000000001
 30
0.0
 40
3.0923400000000001
  1
315
 41
0.5
 72
     1
 11
74.433499999999995
 21
57.591000000000001
 31
0.0
  0
TEXT
  5
53
  8
0
 62
     7
 10
66.250787500000001
 20
51.778399999999991
 30
0.0
 40
3.0923400000000001
  1
440
 41
0.5
 72
     1
 11
68.183499999999995
 21
51.778399999999991
 31
0.0
  0
LINE
  5
54
  8
0
 62
     7
 10
64.378600000000006
 20
85.721400000000003
 30
0.0
 11
64.378600000000006
 21
79.905699999999996
 31
0.0
  0
LINE
  5
55
  8
0
  6
AIGENLINE001
 62
     7
 10
139.74199999999999
 20
192.13399999999999
 30
0.0
 11
139.84700000000001
 21
190.09499999999991
 31
0.0
  0
LINE
  5
56
  8
0
  6
AIGENLINE001
 62
     7
 10
138.74199999999999
 20
199.904
 30
0.0
 11
138.74199999999999
 21
192.13399999999999
 31
0.0
  0
ARC
  5
57
  8
0
  6
AIGENLINE001
 62
     7
 10
149.71183099999999
 20
184.55370600000001
 30
0.0
 40
1.030246999999999
 50
1.3423940000000001
 51
77.021055000000004
  0
ARC
  5
58
  8
0
  6
AIGENLINE001
 62
     7
 10
139.87441100000001
 20
188.72105799999991
 30
0.0
 40
1.0298769999999999
 50
183.535482
 51
256.46382799999998
  0
ARC
  5
59
  8
0
  6
AIGENLINE001
 62
     7
 10
138.22416399999989
 20
199.865272
 30
0.0
 40
0.519082
 50
4.331779
 51
88.006489999999985
  0
LINE
  5
5A
  8
0
  6
AIGENLINE001
 62
     7
 10
139.74199999999999
 20
195.63499999999999
 30
0.0
 11
138.74199999999999
 21
195.63499999999999
 31
0.0
  0
LINE
  5
5B
  8
0
  6
AIGENLINE001
 62
     7
 10
139.74199999999999
 20
192.13399999999999
 30
0.0
 11
138.74199999999999
 21
192.13399999999999
 31
0.0
  0
ARC
  5
5C
  8
0
  6
AIGENLINE001
 62
     7
 10
147.81436999999991
 20
159.72866499999989
 30
0.0
 40
1.0225889999999991
 50
283.07150999999988
 51
343.45380299999999
  0
LINE
  5
5D
  8
0
  6
AIGENLINE001
 62
     7
 10
148.04599999999991
 20
158.733
 30
0.0
 11
137.24199999999999
 21
156.3839999999999
 31
0.0
  0
LINE
  5
5E
  8
0
  6
AIGENLINE001
 62
     7
 10
150.74199999999999
 20
182.88399999999999
 30
0.0
 11
151.84200000000001
 21
181.53399999999999
 31
0.0
  0
LINE
  5
5F
  8
0
  6
AIGENLINE001
 62
     7
 10
151.84200000000001
 20
177.2339999999999
 30
0.0
 11
150.74199999999999
 21
175.88399999999999
 31
0.0
  0
LINE
  5
60
  8
0
  6
AIGENLINE001
 62
     7
 10
150.74199999999999
 20
175.88399999999999
 30
0.0
 11
150.74199999999999
 21
184.57799999999989
 31
0.0
  0
LINE
  5
61
  8
0
  6
AIGENLINE001
 62
     7
 10
151.84200000000001
 20
177.2339999999999
 30
0.0
 11
151.84200000000001
 21
181.53399999999999
 31
0.0
  0
ARC
  5
62
  8
0
 62
     7
 10
152.3642889999999
 20
184.00645900000001
 30
0.0
 40
0.622416
 50
182.01335299999991
 51
267.9208569999999
  0
LINE
  5
63
  8
0
 62
     7
 10
142.24199999999999
 20
188.85900000000001
 30
0.0
 11
142.24199999999999
 21
185.68700000000001
 31
0.0
  0
LINE
  5
64
  8
0
 62
     7
 10
142.24199999999999
 20
189.9079999999999
 30
0.0
 11
142.24199999999999
 21
188.85900000000001
 31
0.0
  0
LINE
  5
65
  8
0
 62
     7
 10
149.84700000000001
 20
187.98400000000001
 30
0.0
 11
142.71600000000001
 21
188.35900000000001
 31
0.0
  0
ARC
  5
66
  8
0
 62
     7
 10
142.760952
 20
188.87651199999999
 30
0.0
 40
0.5192540000000001
 50
181.96089799999999
 51
265.03918900000002
  0
LINE
  5
67
  8
0
 62
     7
 10
151.74199999999999
 20
185.98699999999991
 30
0.0
 11
151.74199999999999
 21
183.98500000000001
 31
0.0
  0
ARC
  5
68
  8
0
 62
     7
 10
149.66888599999999
 20
185.91754199999991
 30
0.0
 40
2.0745299999999989
 50
1.9157919999999991
 51
85.062392000000017
  0
LINE
  5
69
  8
0
 62
     7
 10
141.9729999999999
 20
190.2059999999999
 30
0.0
 11
149.45500000000001
 21
189.4379999999999
 31
0.0
  0
ARC
  5
6A
  8
0
 62
     7
 10
148.64889700000001
 20
183.2871759999999
 30
0.0
 40
6.2029999999999994
 50
3.924666999999999
 51
82.529454999999999
  0
LINE
  5
6B
  8
0
 62
     7
 10
150.24199999999999
 20
158.684
 30
0.0
 11
151.24199999999999
 21
186.38399999999999
 31
0.0
  0
LINE
  5
6C
  8
0
 62
     7
 10
140.40999999999991
 20
182.636
 30
0.0
 11
142.0739999999999
 21
185.1329999999999
 31
0.0
  0
LINE
  5
6D
  8
0
 62
     7
 10
140.24199999999999
 20
182.08199999999991
 30
0.0
 11
140.24199999999999
 21
159.63499999999991
 31
0.0
  0
ARC
  5
6E
  8
0
 62
     7
 10
141.24298200000001
 20
182.08208999999999
 30
0.0
 40
1.0005269999999991
 50
146.37245699999991
 51
180.033264
  0
ARC
  5
6F
  8
0
 62
     7
 10
141.2286159999999
 20
185.690471
 30
0.0
 40
1.013390999999999
 50
326.59235699999999
 51
359.81336499999992
  0
LINE
  5
70
  8
0
 62
     7
 10
140.691
 20
190.33799999999999
 30
0.0
 11
141.9729999999999
 21
190.2059999999999
 31
0.0
  0
ARC
  5
71
  8
0
 62
     7
 10
141.93158700000001
 20
189.89863399999999
 30
0.0
 40
0.310559
 50
1.751677999999999
 51
82.412531000000016
  0
LINE
  5
72
  8
0
 62
     7
 10
140.24199999999999
 20
202.58500000000001
 30
0.0
 11
140.24199999999999
 21
190.8359999999999
 31
0.0
  0
ARC
  5
73
  8
0
 62
     7
 10
140.75977700000001
 20
190.85104199999989
 30
0.0
 40
0.517553
 50
181.71502199999989
 51
262.36457200000001
  0
LINE
  5
74
  8
0
  6
AIGENLINE002
 62
     7
 10
135.85599999999991
 20
193.88399999999999
 30
0.0
 11
141.87
 21
193.88399999999999
 31
0.0
  0
LINE
  5
75
  8
0
 62
     7
 10
152.34200000000001
 20
183.38399999999999
 30
0.0
 11
155.24199999999999
 21
183.38399999999999
 31
0.0
  0
ARC
  5
76
  8
0
 62
     7
 10
155.17686399999991
 20
183.723106
 30
0.0
 40
0.339704
 50
181.91757999999999
 51
265.49255499999992
  0
LINE
  5
77
  8
0
 62
     7
 10
155.84200000000001
 20
182.78399999999999
 30
0.0
 11
155.84200000000001
 21
175.91399999999999
 31
0.0
  0
ARC
  5
78
  8
0
 62
     7
 10
155.21848099999991
 20
182.7610149999999
 30
0.0
 40
0.6239
 50
2.1401259999999991
 51
87.794044999999997
  0
LINE
  5
79
  8
0
 62
     7
 10
155.31700000000001
 20
175.31899999999999
 30
0.0
 11
152.42399999999989
 21
174.95699999999999
 31
0.0
  0
ARC
  5
7A
  8
0
 62
     7
 10
155.2222459999999
 20
175.93141799999989
 30
0.0
 40
0.6199430000000001
 50
278.78333599999991
 51
358.39566600000001
  0
ARC
  5
7B
  8
0
 62
     7
 10
152.5426159999999
 20
174.14331000000001
 30
0.0
 40
0.8222419999999999
 50
98.266873000000004
 51
168.547541
  0
LINE
  5
7C
  8
0
 62
     7
 10
150.24199999999999
 20
158.684
 30
0.0
 11
148.95400000000001
 21
158.684
 31
0.0
  0
ARC
  5
7D
  8
0
 62
     7
 10
148.957899
 20
158.37841900000001
 30
0.0
 40
0.30594
 50
90.642551999999995
 51
148.34968499999999
  0
LINE
  5
7E
  8
0
  6
AIGENLINE001
 62
     7
 10
155.84200000000001
 20
181.53399999999999
 30
0.0
 11
151.84200000000001
 21
181.53399999999999
 31
0.0
  0
LINE
  5
7F
  8
0
  6
AIGENLINE001
 62
     7
 10
155.84200000000001
 20
177.2339999999999
 30
0.0
 11
151.84200000000001
 21
177.2339999999999
 31
0.0
  0
LINE
  5
80
  8
0
 62
     7
 10
151.24199999999999
 20
186.38399999999999
 30
0.0
 11
150.042
 21
186.38399999999999
 31
0.0
  0
LINE
  5
81
  8
0
  6
AIGENLINE002
 62
     7
 10
153.2239999999999
 20
179.38499999999991
 30
0.0
 11
157.14099999999999
 21
179.38499999999991
 31
0.0
  0
LINE
  5
82
  8
0
 62
     7
 10
137.24199999999999
 20
202.88499999999991
 30
0.0
 11
139.94200000000001
 21
202.88499999999991
 31
0.0
  0
ARC
  5
83
  8
0
 62
     7
 10
139.9314399999999
 20
202.57346599999991
 30
0.0
 40
0.311221
 50
2.0835799999999991
 51
88.047973000000013
  0
LINE
  5
84
  8
0
 62
     7
 10
140.44200000000001
 20
159.23400000000001
 30
0.0
 11
142.042
 21
158.03499999999991
 31
0.0
  0
ARC
  5
85
  8
0
 62
     7
 10
140.750787
 20
159.638203
 30
0.0
 40
0.5083450000000001
 50
180.41689999999991
 51
232.6343169999999
  0
LINE
  5
86
  8
0
 62
     7
 10
142.24199999999999
 20
157.6339999999999
 30
0.0
 11
142.24199999999999
 21
155.85599999999991
 31
0.0
  0
ARC
  5
87
  8
0
 62
     7
 10
141.73503700000001
 20
157.63055800000001
 30
0.0
 40
0.506978
 50
0.419415
 51
52.710681999999998
  0
LINE
  5
88
  8
0
 62
     7
 10
147.28999999999991
 20
157.4379999999999
 30
0.0
 11
142.43199999999999
 21
155.9429999999999
 31
0.0
  0
LINE
  5
89
  8
0
 62
     7
 10
140.24199999999999
 20
153.8839999999999
 30
0.0
 11
142.102
 21
155.74399999999989
 31
0.0
  0
ARC
  5
8A
  8
0
 62
     7
 10
142.66426699999991
 20
155.1830159999999
 30
0.0
 40
0.7943620000000001
 50
106.988327
 51
135.04464400000001
  0
ARC
  5
8B
  8
0
 62
     7
 10
147.22408399999989
 20
159.8406929999999
 30
0.0
 40
1.8489329999999999
 50
345.53581000000008
 51
349.92279500000001
  0
ARC
  5
8C
  8
0
 62
     7
 10
143.539793
 20
160.51588599999999
 30
0.0
 40
5.5945640000000001
 50
349.71676600000001
 51
352.41657400000003
  0
ARC
  5
8D
  8
0
 62
     7
 10
135.17411100000001
 20
161.649573
 30
0.0
 40
14.036704
 50
352.335937
 51
354.14966099999992
  0
ARC
  5
8E
  8
0
 62
     7
 10
118.499796
 20
163.408096
 30
0.0
 40
30.803457999999999
 50
354.05713300000002
 51
355.10627099999999
  0
ARC
  5
8F
  8
0
 62
     7
 10
89.418717999999984
 20
165.91698199999999
 30
0.0
 40
59.992556000000008
 50
355.08822400000003
 51
355.87384500000002
  0
ARC
  5
90
  8
0
 62
     7
 10
37.370862000000002
 20
169.66844299999991
 30
0.0
 40
112.175434
 50
355.87550499999992
 51
356.54928699999988
  0
ARC
  5
91
  8
0
 62
     7
 10
-76.295771000000002
 20
176.50781399999991
 30
0.0
 40
226.04764499999999
 50
356.55299100000002
 51
357.43789099999998
  0
ARC
  5
92
  8
0
 62
     7
 10
-307.49626999999998
 20
187.40060399999999
 30
0.0
 40
457.50428499999992
 50
357.36942499999992
 51
357.98438700000003
  0
ARC
  5
93
  8
0
 62
     7
 10
-427.06336900000002
 20
191.949647
 30
0.0
 40
577.15750400000002
 50
357.9505509999999
 51
359.03515399999992
  0
ARC
  5
94
  8
0
 62
     7
 10
-100.61214
 20
186.14011999999991
 30
0.0
 40
250.65492699999999
 50
359.106382
 51
359.90402299999988
  0
ARC
  5
95
  8
0
  6
AIGENLINE001
 62
     7
 10
108.25909899999991
 20
167.95306899999991
 30
0.0
 40
41.420332000000002
 50
348.13593399999991
 51
350.04059199999989
  0
ARC
  5
96
  8
0
  6
AIGENLINE001
 62
     7
 10
81.177526000000015
 20
172.83670499999991
 30
0.0
 40
68.938541999999984
 50
349.93564600000002
 51
351.532512
  0
ARC
  5
97
  8
0
  6
AIGENLINE001
 62
     7
 10
42.846946000000003
 20
178.67917199999999
 30
0.0
 40
107.7116799999999
 50
351.46087399999999
 51
352.71638899999999
  0
ARC
  5
98
  8
0
  6
AIGENLINE001
 62
     7
 10
-11.466350999999991
 20
185.72717599999999
 30
0.0
 40
162.4802949999999
 50
352.67927700000001
 51
354.30270299999989
  0
ARC
  5
99
  8
0
  6
AIGENLINE001
 62
     7
 10
-36.291930000000001
 20
188.499011
 30
0.0
 40
187.45864
 50
354.21295400000002
 51
356.141503
  0
ARC
  5
9A
  8
0
 62
     7
 10
-269.218299
 20
241.28457899999989
 30
0.0
 40
426.23926799999992
 50
350.006393
 51
350.57650099999989
  0
ARC
  5
9B
  8
0
 62
     7
 10
1051.734999999999
 20
23.04313599999999
 30
0.0
 40
912.621307
 50
170.45940100000001
 51
170.63826999999989
  0
ARC
  5
9C
  8
0
 62
     7
 10
146.53826599999991
 20
159.84941299999991
 30
0.0
 40
2.5261099999999992
 50
287.32396799999998
 51
328.73229099999998
  0
ARC
  5
9D
  8
0
 62
     7
 10
146.53870599999999
 20
159.83228199999999
 30
0.0
 40
2.5168840000000001
 50
329.06043599999992
 51
349.62174800000003
  0
LINE
  5
9E
  8
0
 62
     7
 10
136.542
 20
202.88499999999991
 30
0.0
 11
127.3279999999999
 21
202.88499999999991
 31
0.0
  0
LINE
  5
9F
  8
0
  6
AIGENLINE001
 62
     7
 10
138.24199999999999
 20
200.38399999999999
 30
0.0
 11
137.24199999999999
 21
200.38399999999999
 31
0.0
  0
LINE
  5
A0
  8
0
 62
     7
 10
136.542
 20
200.38399999999999
 30
0.0
 11
127.3279999999999
 21
200.38399999999999
 31
0.0
  0
LINE
  5
A1
  8
0
  6
AIGENLINE001
 62
     7
 10
139.74199999999999
 20
192.13399999999999
 30
0.0
 11
139.74199999999999
 21
197.37299999999991
 31
0.0
  0
LINE
  5
A2
  8
0
  6
AIGENLINE001
 62
     7
 10
138.846
 20
188.65799999999999
 30
0.0
 11
138.74199999999999
 21
192.13399999999999
 31
0.0
  0
LINE
  5
A3
  8
0
  6
AIGENLINE001
 62
     7
 10
139.6329999999999
 20
187.72
 30
0.0
 11
149.9429999999999
 21
185.55799999999991
 31
0.0
  0
LINE
  5
A4
  8
0
 62
     7
 10
138.6339999999999
 20
187.88399999999999
 30
0.0
 11
127.3279999999999
 21
187.88399999999999
 31
0.0
  0
LINE
  5
A5
  8
0
 62
     7
 10
136.542
 20
156.3839999999999
 30
0.0
 11
127.3279999999999
 21
156.3839999999999
 31
0.0
  0
LINE
  5
A6
  8
0
 62
     7
 10
136.542
 20
153.8839999999999
 30
0.0
 11
127.3279999999999
 21
153.8839999999999
 31
0.0
  0
LINE
  5
A7
  8
0
 62
     7
 10
140.24199999999999
 20
153.8839999999999
 30
0.0
 11
137.24199999999999
 21
153.8839999999999
 31
0.0
  0
LINE
  5
A8
  8
0
 62
     7
 10
137.24199999999999
 20
202.88499999999991
 30
0.0
 11
137.24199999999999
 21
153.8839999999999
 31
0.0
  0
LINE
  5
A9
  8
0
 62
     7
 10
163.36399999999989
 20
200.67400000000001
 30
0.0
 11
162.77099999999999
 21
202.88599999999991
 31
0.0
  0
LINE
  5
AA
  8
0
 62
     7
 10
162.77099999999999
 20
202.88599999999991
 30
0.0
 11
162.179
 21
200.67400000000001
 31
0.0
  0
LINE
  5
AB
  8
0
 62
     7
 10
162.179
 20
200.67400000000001
 30
0.0
 11
163.36399999999989
 21
200.67400000000001
 31
0.0
  0
LINE
  5
AC
  8
0
 62
     7
 10
162.1929999999999
 20
181.59599999999989
 30
0.0
 11
162.786
 21
179.38499999999991
 31
0.0
  0
LINE
  5
AD
  8
0
 62
     7
 10
162.786
 20
179.38499999999991
 30
0.0
 11
163.3779999999999
 21
181.59599999999989
 31
0.0
  0
LINE
  5
AE
  8
0
 62
     7
 10
163.3779999999999
 20
181.59599999999989
 30
0.0
 11
162.1929999999999
 21
181.59599999999989
 31
0.0
  0
LINE
  5
AF
  8
0
 62
     7
 10
162.77799999999999
 20
202.88499999999991
 30
0.0
 11
162.77799999999999
 21
179.386
 31
0.0
  0
LINE
  5
B0
  8
0
 62
     7
 10
142.45400000000001
 20
165.87299999999999
 30
0.0
 11
140.24199999999999
 21
165.28
 31
0.0
  0
LINE
  5
B1
  8
0
 62
     7
 10
140.24199999999999
 20
165.28
 30
0.0
 11
142.45400000000001
 21
164.6879999999999
 31
0.0
  0
LINE
  5
B2
  8
0
 62
     7
 10
142.45400000000001
 20
164.6879999999999
 30
0.0
 11
142.45400000000001
 21
165.87299999999999
 31
0.0
  0
LINE
  5
B3
  8
0
 62
     7
 10
135.03
 20
164.6879999999999
 30
0.0
 11
137.24199999999999
 21
165.28
 31
0.0
  0
LINE
  5
B4
  8
0
 62
     7
 10
137.24199999999999
 20
165.28
 30
0.0
 11
135.03
 21
165.87299999999999
 31
0.0
  0
LINE
  5
B5
  8
0
 62
     7
 10
135.03
 20
165.87299999999999
 30
0.0
 11
135.03
 21
164.6879999999999
 31
0.0
  0
LINE
  5
B6
  8
0
 62
     7
 10
131.38900000000001
 20
165.28
 30
0.0
 11
143.83000000000001
 21
165.28
 31
0.0
  0
LINE
  5
B7
  8
0
 62
     7
 10
140.95399999999989
 20
195.62700000000001
 30
0.0
 11
138.74199999999999
 21
195.03399999999999
 31
0.0
  0
LINE
  5
B8
  8
0
 62
     7
 10
138.74199999999999
 20
195.03399999999999
 30
0.0
 11
140.95399999999989
 21
194.44200000000001
 31
0.0
  0
LINE
  5
B9
  8
0
 62
     7
 10
140.95399999999989
 20
194.44200000000001
 30
0.0
 11
140.95399999999989
 21
195.62700000000001
 31
0.0
  0
LINE
  5
BA
  8
0
 62
     7
 10
135.03
 20
194.44200000000001
 30
0.0
 11
137.24199999999999
 21
195.03399999999999
 31
0.0
  0
LINE
  5
BB
  8
0
 62
     7
 10
137.24199999999999
 20
195.03399999999999
 30
0.0
 11
135.03
 21
195.62700000000001
 31
0.0
  0
LINE
  5
BC
  8
0
 62
     7
 10
135.03
 20
195.62700000000001
 30
0.0
 11
135.03
 21
194.44200000000001
 31
0.0
  0
LINE
  5
BD
  8
0
 62
     7
 10
131.54599999999991
 20
195.03399999999999
 30
0.0
 11
141.935
 21
195.03399999999999
 31
0.0
  0
LINE
  5
BE
  8
0
 62
     7
 10
139.453
 20
178.50700000000001
 30
0.0
 11
137.24000000000001
 21
177.91399999999999
 31
0.0
  0
LINE
  5
BF
  8
0
 62
     7
 10
137.24000000000001
 20
177.91399999999999
 30
0.0
 11
139.453
 21
177.322
 31
0.0
  0
LINE
  5
C0
  8
0
 62
     7
 10
139.453
 20
177.322
 30
0.0
 11
139.453
 21
178.50700000000001
 31
0.0
  0
LINE
  5
C1
  8
0
 62
     7
 10
148.53100000000001
 20
177.3359999999999
 30
0.0
 11
150.74299999999999
 21
177.929
 31
0.0
  0
LINE
  5
C2
  8
0
 62
     7
 10
150.74299999999999
 20
177.929
 30
0.0
 11
148.53100000000001
 21
178.52099999999999
 31
0.0
  0
LINE
  5
C3
  8
0
 62
     7
 10
148.53100000000001
 20
178.52099999999999
 30
0.0
 11
148.53100000000001
 21
177.3359999999999
 31
0.0
  0
LINE
  5
C4
  8
0
 62
     7
 10
137.24199999999999
 20
177.92099999999991
 30
0.0
 11
150.74199999999999
 21
177.92099999999991
 31
0.0
  0
LINE
  5
C5
  8
0
 62
     7
 10
140.958
 20
202.88499999999991
 30
0.0
 11
163.47799999999989
 21
202.88499999999991
 31
0.0
  0
LINE
  5
C6
  8
0
 62
     7
 10
158.047
 20
179.38499999999991
 30
0.0
 11
163.47799999999989
 21
179.38499999999991
 31
0.0
  0
ARC
  5
C7
  8
0
 62
     7
 10
36.424708000000003
 20
218.60113100000001
 30
0.0
 40
0.5296870000000001
 50
179.99996999999991
 51
270.00002000000001
  0
ARC
  5
C8
  8
0
 62
     7
 10
36.424708000000003
 20
218.60113100000001
 30
0.0
 40
0.5296870000000001
 50
270.00002000000001
 51
359.99998999999991
  0
ARC
  5
C9
  8
0
 62
     7
 10
36.424708000000003
 20
218.60113100000001
 30
0.0
 40
0.5296870000000001
 50
0.00001
 51
89.999980000000008
  0
ARC
  5
CA
  8
0
 62
     7
 10
36.424708000000003
 20
218.60113100000001
 30
0.0
 40
0.5296870000000001
 50
90.0
 51
179.99996999999991
  0
LINE
  5
CB
  8
0
 62
     7
 10
37.017299999999992
 20
211.88999999999999
 30
0.0
 11
36.424700000000001
 21
214.101
 31
0.0
  0
LINE
  5
CC
  8
0
 62
     7
 10
36.424700000000001
 20
214.101
 30
0.0
 11
35.83209999999999
 21
211.88999999999999
 31
0.0
  0
LINE
  5
CD
  8
0
 62
     7
 10
35.83209999999999
 20
211.88999999999999
 30
0.0
 11
37.017299999999992
 21
211.88999999999999
 31
0.0
  0
LINE
  5
CE
  8
0
 62
     7
 10
35.83209999999999
 20
185.8129999999999
 30
0.0
 11
36.424700000000001
 21
183.60099999999991
 31
0.0
  0
LINE
  5
CF
  8
0
 62
     7
 10
36.424700000000001
 20
183.60099999999991
 30
0.0
 11
37.017299999999992
 21
185.8129999999999
 31
0.0
  0
LINE
  5
D0
  8
0
 62
     7
 10
37.017299999999992
 20
185.8129999999999
 30
0.0
 11
35.83209999999999
 21
185.8129999999999
 31
0.0
  0
LINE
  5
D1
  8
0
 62
     7
 10
35.83209999999999
 20
225.8129999999999
 30
0.0
 11
36.424700000000001
 21
223.60099999999991
 31
0.0
  0
LINE
  5
D2
  8
0
 62
     7
 10
36.424700000000001
 20
223.60099999999991
 30
0.0
 11
37.017299999999992
 21
225.8129999999999
 31
0.0
  0
LINE
  5
D3
  8
0
 62
     7
 10
37.017299999999992
 20
225.8129999999999
 30
0.0
 11
35.83209999999999
 21
225.8129999999999
 31
0.0
  0
ARC
  5
D4
  8
0
 62
     7
 10
36.424708000000003
 20
148.60065399999991
 30
0.0
 40
0.5296870000000001
 50
179.99996999999991
 51
270.00002000000001
  0
ARC
  5
D5
  8
0
 62
     7
 10
36.424708000000003
 20
148.60065499999999
 30
0.0
 40
0.5296870000000001
 50
270.00002000000001
 51
359.99998999999991
  0
ARC
  5
D6
  8
0
 62
     7
 10
36.424708000000003
 20
148.60065399999991
 30
0.0
 40
0.5296870000000001
 50
0.00001
 51
89.999980000000008
  0
ARC
  5
D7
  8
0
 62
     7
 10
36.424708000000003
 20
148.60065399999991
 30
0.0
 40
0.5296870000000001
 50
90.0
 51
179.99996999999991
  0
LINE
  5
D8
  8
0
 62
     7
 10
37.017299999999992
 20
95.205099999999987
 30
0.0
 11
36.424700000000001
 21
97.416899999999998
 31
0.0
  0
LINE
  5
D9
  8
0
 62
     7
 10
36.424700000000001
 20
97.416899999999998
 30
0.0
 11
35.83209999999999
 21
95.205099999999987
 31
0.0
  0
LINE
  5
DA
  8
0
 62
     7
 10
35.83209999999999
 20
95.205099999999987
 30
0.0
 11
37.017299999999992
 21
95.205099999999987
 31
0.0
  0
LINE
  5
DB
  8
0
 62
     7
 10
37.017299999999992
 20
105.2049999999999
 30
0.0
 11
36.424700000000001
 21
107.417
 31
0.0
  0
LINE
  5
DC
  8
0
 62
     7
 10
36.424700000000001
 20
107.417
 30
0.0
 11
35.83209999999999
 21
105.2049999999999
 31
0.0
  0
LINE
  5
DD
  8
0
 62
     7
 10
35.83209999999999
 20
105.2049999999999
 30
0.0
 11
37.017299999999992
 21
105.2049999999999
 31
0.0
  0
LINE
  5
DE
  8
0
 62
     7
 10
37.017299999999992
 20
141.38900000000001
 30
0.0
 11
36.424700000000001
 21
143.601
 31
0.0
  0
LINE
  5
DF
  8
0
 62
     7
 10
36.424700000000001
 20
143.601
 30
0.0
 11
35.83209999999999
 21
141.38900000000001
 31
0.0
  0
LINE
  5
E0
  8
0
 62
     7
 10
35.83209999999999
 20
141.38900000000001
 30
0.0
 11
37.017299999999992
 21
141.38900000000001
 31
0.0
  0
LINE
  5
E1
  8
0
 62
     7
 10
37.017299999999992
 20
181.38900000000001
 30
0.0
 11
36.424700000000001
 21
183.60099999999991
 31
0.0
  0
LINE
  5
E2
  8
0
 62
     7
 10
36.424700000000001
 20
183.60099999999991
 30
0.0
 11
35.83209999999999
 21
181.38900000000001
 31
0.0
  0
LINE
  5
E3
  8
0
 62
     7
 10
35.83209999999999
 20
181.38900000000001
 30
0.0
 11
37.017299999999992
 21
181.38900000000001
 31
0.0
  0
LINE
  5
E4
  8
0
 62
     7
 10
102.20999999999999
 20
133.62899999999991
 30
0.0
 11
102.8029999999999
 21
131.417
 31
0.0
  0
LINE
  5
E5
  8
0
 62
     7
 10
102.8029999999999
 20
131.417
 30
0.0
 11
103.3959999999999
 21
133.62899999999991
 31
0.0
  0
LINE
  5
E6
  8
0
 62
     7
 10
103.3959999999999
 20
133.62899999999991
 30
0.0
 11
102.20999999999999
 21
133.62899999999991
 31
0.0
  0
LINE
  5
E7
  8
0
 62
     7
 10
103.3959999999999
 20
61.205300000000001
 30
0.0
 11
102.8029999999999
 21
63.417000000000002
 31
0.0
  0
LINE
  5
E8
  8
0
 62
     7
 10
102.8029999999999
 20
63.417000000000002
 30
0.0
 11
102.20999999999999
 21
61.205300000000001
 31
0.0
  0
LINE
  5
E9
  8
0
 62
     7
 10
102.20999999999999
 20
61.205300000000001
 30
0.0
 11
103.3959999999999
 21
61.205300000000001
 31
0.0
  0
LINE
  5
EA
  8
0
 62
     7
 10
106.9679999999999
 20
154.67699999999999
 30
0.0
 11
106.9679999999999
 21
202.72900000000001
 31
0.0
  0
LINE
  5
EB
  8
0
 62
     7
 10
90.918400000000005
 20
147.595
 30
0.0
 11
89.183800000000005
 21
146.10099999999991
 31
0.0
  0
LINE
  5
EC
  8
0
 62
     7
 10
89.183800000000005
 20
146.10099999999991
 30
0.0
 11
91.433099999999996
 21
146.52799999999991
 31
0.0
  0
LINE
  5
ED
  8
0
 62
     7
 10
91.433099999999996
 20
146.52799999999991
 30
0.0
 11
90.918400000000005
 21
147.595
 31
0.0
  0
LINE
  5
EE
  8
0
 62
     7
 10
106.9679999999999
 20
154.67699999999999
 30
0.0
 11
89.183800000000005
 21
146.10099999999991
 31
0.0
  0
LINE
  5
EF
  8
0
 62
     7
 10
48.62149999999999
 20
155.376
 30
0.0
 11
47.476500000000001
 21
153.39400000000001
 31
0.0
  0
LINE
  5
F0
  8
0
 62
     7
 10
47.476500000000001
 20
153.39400000000001
 30
0.0
 11
49.459499999999991
 21
154.5379999999999
 31
0.0
  0
LINE
  5
F1
  8
0
 62
     7
 10
49.459499999999991
 20
154.5379999999999
 30
0.0
 11
48.62149999999999
 21
155.376
 31
0.0
  0
LINE
  5
F2
  8
0
 62
     7
 10
47.476500000000001
 20
153.39400000000001
 30
0.0
 11
54.727800000000002
 21
160.64500000000001
 31
0.0
  0
LINE
  5
F3
  8
0
 62
     7
 10
86.908100000000005
 20
154.5379999999999
 30
0.0
 11
88.890900000000016
 21
153.39400000000001
 31
0.0
  0
LINE
  5
F4
  8
0
 62
     7
 10
88.890900000000016
 20
153.39400000000001
 30
0.0
 11
87.746099999999998
 21
155.37700000000001
 31
0.0
  0
LINE
  5
F5
  8
0
 62
     7
 10
87.746099999999998
 20
155.37700000000001
 30
0.0
 11
86.908100000000005
 21
154.5379999999999
 31
0.0
  0
LINE
  5
F6
  8
0
 62
     7
 10
88.890900000000016
 20
153.39400000000001
 30
0.0
 11
81.639300000000006
 21
160.64500000000001
 31
0.0
  0
LINE
  5
F7
  8
0
 62
     7
 10
97.492000000000004
 20
155.31100000000001
 30
0.0
 11
98.084599999999995
 21
153.09999999999991
 31
0.0
  0
LINE
  5
F8
  8
0
 62
     7
 10
98.084599999999995
 20
153.09999999999991
 30
0.0
 11
98.677099999999996
 21
155.31100000000001
 31
0.0
  0
LINE
  5
F9
  8
0
 62
     7
 10
98.677099999999996
 20
155.31100000000001
 30
0.0
 11
97.492000000000004
 21
155.31100000000001
 31
0.0
  0
LINE
  5
FA
  8
0
 62
     7
 10
98.662599999999998
 20
211.88999999999999
 30
0.0
 11
98.070099999999996
 21
214.102
 31
0.0
  0
LINE
  5
FB
  8
0
 62
     7
 10
98.070099999999996
 20
214.102
 30
0.0
 11
97.477500000000006
 21
211.88999999999999
 31
0.0
  0
LINE
  5
FC
  8
0
 62
     7
 10
97.477500000000006
 20
211.88999999999999
 30
0.0
 11
98.662599999999998
 21
211.88999999999999
 31
0.0
  0
LINE
  5
FD
  8
0
 62
     7
 10
98.077299999999994
 20
153.101
 30
0.0
 11
98.077299999999994
 21
214.101
 31
0.0
  0
LINE
  5
FE
  8
0
 62
     7
 10
98.777400000000014
 20
153.101
 30
0.0
 11
89.916899999999998
 21
153.101
 31
0.0
  0
LINE
  5
FF
  8
0
 62
     7
 10
98.777400000000014
 20
214.101
 30
0.0
 11
89.916899999999998
 21
214.101
 31
0.0
  0
LINE
  5
100
  8
0
 62
     7
 10
49.394399999999997
 20
201.953
 30
0.0
 11
47.1828
 21
201.36000000000001
 31
0.0
  0
LINE
  5
101
  8
0
 62
     7
 10
47.1828
 20
201.36000000000001
 30
0.0
 11
49.394399999999997
 21
200.768
 31
0.0
  0
LINE
  5
102
  8
0
 62
     7
 10
49.394399999999997
 20
200.768
 30
0.0
 11
49.394399999999997
 21
201.953
 31
0.0
  0
LINE
  5
103
  8
0
 62
     7
 10
86.972999999999999
 20
200.78200000000001
 30
0.0
 11
89.184600000000003
 21
201.37499999999989
 31
0.0
  0
LINE
  5
104
  8
0
 62
     7
 10
89.184600000000003
 20
201.37499999999989
 30
0.0
 11
86.972999999999999
 21
201.96700000000001
 31
0.0
  0
LINE
  5
105
  8
0
 62
     7
 10
86.972999999999999
 20
201.96700000000001
 30
0.0
 11
86.972999999999999
 21
200.78200000000001
 31
0.0
  0
LINE
  5
106
  8
0
 62
     7
 10
47.183599999999991
 20
201.36799999999991
 30
0.0
 11
89.183800000000005
 21
201.36799999999991
 31
0.0
  0
LINE
  5
107
  8
0
 62
     7
 10
35.724699999999999
 20
107.417
 30
0.0
 11
48.526499999999999
 21
107.417
 31
0.0
  0
LINE
  5
108
  8
0
 62
     7
 10
35.83209999999999
 20
99.628699999999995
 30
0.0
 11
36.424700000000001
 21
97.416899999999998
 31
0.0
  0
LINE
  5
109
  8
0
 62
     7
 10
36.424700000000001
 20
97.416899999999998
 30
0.0
 11
37.017299999999992
 21
99.628699999999995
 31
0.0
  0
LINE
  5
10A
  8
0
 62
     7
 10
37.017299999999992
 20
99.628699999999995
 30
0.0
 11
35.83209999999999
 21
99.628699999999995
 31
0.0
  0
LINE
  5
10B
  8
0
 62
     7
 10
35.724699999999999
 20
97.416899999999998
 30
0.0
 11
39.815899999999999
 21
97.416899999999998
 31
0.0
  0
LINE
  5
10C
  8
0
 62
     7
 10
35.83209999999999
 20
89.628500000000017
 30
0.0
 11
36.424700000000001
 21
87.416700000000006
 31
0.0
  0
LINE
  5
10D
  8
0
 62
     7
 10
36.424700000000001
 20
87.416700000000006
 30
0.0
 11
37.017299999999992
 21
89.628500000000017
 31
0.0
  0
LINE
  5
10E
  8
0
 62
     7
 10
37.017299999999992
 20
89.628500000000017
 30
0.0
 11
35.83209999999999
 21
89.628500000000017
 31
0.0
  0
LINE
  5
10F
  8
0
 62
     7
 10
36.424700000000001
 20
107.417
 30
0.0
 11
36.424700000000001
 21
87.416700000000006
 31
0.0
  0
LINE
  5
110
  8
0
 62
     7
 10
35.724699999999999
 20
87.416700000000006
 30
0.0
 11
48.526499999999999
 21
87.416700000000006
 31
0.0
  0
LINE
  5
111
  8
0
 62
     7
 10
35.83209999999999
 20
155.31200000000001
 30
0.0
 11
36.424700000000001
 21
153.101
 31
0.0
  0
LINE
  5
112
  8
0
 62
     7
 10
36.424700000000001
 20
153.101
 30
0.0
 11
37.017299999999992
 21
155.31200000000001
 31
0.0
  0
LINE
  5
113
  8
0
 62
     7
 10
37.017299999999992
 20
155.31200000000001
 30
0.0
 11
35.83209999999999
 21
155.31200000000001
 31
0.0
  0
LINE
  5
114
  8
0
 62
     7
 10
36.424700000000001
 20
227.56
 30
0.0
 11
36.424700000000001
 21
139.93899999999991
 31
0.0
  0
LINE
  5
115
  8
0
 62
     7
 10
35.724699999999999
 20
223.60099999999991
 30
0.0
 11
46.483199999999997
 21
223.60099999999991
 31
0.0
  0
LINE
  5
116
  8
0
 62
     7
 10
35.724699999999999
 20
218.601
 30
0.0
 11
46.483199999999997
 21
218.601
 31
0.0
  0
LINE
  5
117
  8
0
 62
     7
 10
35.724699999999999
 20
214.101
 30
0.0
 11
46.483199999999997
 21
214.101
 31
0.0
  0
LINE
  5
118
  8
0
 62
     7
 10
35.724699999999999
 20
183.60099999999991
 30
0.0
 11
43.313000000000002
 21
183.60099999999991
 31
0.0
  0
LINE
  5
119
  8
0
 62
     7
 10
35.724699999999999
 20
153.101
 30
0.0
 11
46.483199999999997
 21
153.101
 31
0.0
  0
LINE
  5
11A
  8
0
 62
     7
 10
76.116100000000003
 20
160.64500000000001
 30
0.0
 11
81.639300000000006
 21
160.64500000000001
 31
0.0
  0
LINE
  5
11B
  8
0
 62
     7
 10
54.727800000000002
 20
160.64500000000001
 30
0.0
 11
60.6008
 21
160.64500000000001
 31
0.0
  0
LINE
  5
11C
  8
0
 62
     7
 10
35.724699999999999
 20
148.601
 30
0.0
 11
46.483199999999997
 21
148.601
 31
0.0
  0
LINE
  5
11D
  8
0
 62
     7
 10
35.724699999999999
 20
143.601
 30
0.0
 11
46.483199999999997
 21
143.601
 31
0.0
  0
LINE
  5
11E
  8
0
 62
     7
 10
48.183399999999999
 20
214.101
 30
0.0
 11
88.183599999999998
 21
214.101
 31
0.0
  0
ARC
  5
11F
  8
0
 62
     7
 10
88.183718999999996
 20
213.10108699999989
 30
0.0
 40
1.000032
 50
0.004945
 51
90.004914999999997
  0
ARC
  5
120
  8
0
 62
     7
 10
48.183323999999999
 20
213.10108699999989
 30
0.0
 40
1.000032
 50
89.995064999999997
 51
179.995036
  0
LINE
  5
121
  8
0
  6
AIGENLINE003
 62
     7
 10
89.183800000000005
 20
218.601
 30
0.0
 11
47.183300000000003
 21
223.60099999999991
 31
0.0
  0
LINE
  5
122
  8
0
  6
AIGENLINE003
 62
     7
 10
47.183300000000003
 20
218.601
 30
0.0
 11
89.183800000000005
 21
223.60099999999991
 31
0.0
  0
LINE
  5
123
  8
0
  6
AIGENLINE003
 62
     7
 10
89.183800000000005
 20
218.601
 30
0.0
 11
89.183800000000005
 21
223.60099999999991
 31
0.0
  0
LINE
  5
124
  8
0
  6
AIGENLINE003
 62
     7
 10
47.183300000000003
 20
218.601
 30
0.0
 11
47.183300000000003
 21
223.60099999999991
 31
0.0
  0
LINE
  5
125
  8
0
  6
AIGENLINE003
 62
     7
 10
47.183300000000003
 20
218.601
 30
0.0
 11
89.183800000000005
 21
218.601
 31
0.0
  0
LINE
  5
126
  8
0
  6
AIGENLINE003
 62
     7
 10
47.183300000000003
 20
223.60099999999991
 30
0.0
 11
89.183800000000005
 21
223.60099999999991
 31
0.0
  0
LINE
  5
127
  8
0
  6
AIGENLINE002
 62
     7
 10
44.013100000000001
 20
183.60099999999991
 30
0.0
 11
91.937799999999996
 21
183.60099999999991
 31
0.0
  0
LINE
  5
128
  8
0
 62
     7
 10
89.183800000000005
 20
213.10099999999991
 30
0.0
 11
89.183800000000005
 21
154.10099999999991
 31
0.0
  0
LINE
  5
129
  8
0
 62
     7
 10
48.183399999999999
 20
153.101
 30
0.0
 11
88.183599999999998
 21
153.101
 31
0.0
  0
ARC
  5
12A
  8
0
 62
     7
 10
88.183718999999996
 20
154.1008709999999
 30
0.0
 40
1.000032
 50
269.99508500000002
 51
359.99505499999992
  0
LINE
  5
12B
  8
0
 62
     7
 10
47.183300000000003
 20
213.10099999999991
 30
0.0
 11
47.183300000000003
 21
154.10099999999991
 31
0.0
  0
ARC
  5
12C
  8
0
 62
     7
 10
48.183323999999999
 20
154.1008699999999
 30
0.0
 40
1.000030999999999
 50
180.00494499999991
 51
270.004954
  0
LINE
  5
12D
  8
0
  6
AIGENLINE003
 62
     7
 10
89.183800000000005
 20
148.601
 30
0.0
 11
47.183300000000003
 21
143.601
 31
0.0
  0
LINE
  5
12E
  8
0
  6
AIGENLINE003
 62
     7
 10
47.183300000000003
 20
148.601
 30
0.0
 11
89.183800000000005
 21
143.601
 31
0.0
  0
LINE
  5
12F
  8
0
  6
AIGENLINE003
 62
     7
 10
89.183800000000005
 20
148.601
 30
0.0
 11
89.183800000000005
 21
143.601
 31
0.0
  0
LINE
  5
130
  8
0
  6
AIGENLINE003
 62
     7
 10
47.183300000000003
 20
148.601
 30
0.0
 11
47.183300000000003
 21
143.601
 31
0.0
  0
LINE
  5
131
  8
0
  6
AIGENLINE003
 62
     7
 10
47.183300000000003
 20
148.601
 30
0.0
 11
89.183800000000005
 21
148.601
 31
0.0
  0
LINE
  5
132
  8
0
  6
AIGENLINE003
 62
     7
 10
47.183300000000003
 20
143.601
 30
0.0
 11
89.183800000000005
 21
143.601
 31
0.0
  0
LINE
  5
133
  8
0
  6
AIGENLINE002
 62
     7
 10
140.24199999999999
 20
95.264399999999995
 30
0.0
 11
140.24199999999999
 21
99.677599999999998
 31
0.0
  0
LINE
  5
134
  8
0
 62
     7
 10
135.15600000000001
 20
193.88499999999999
 30
0.0
 11
127.3279999999999
 21
193.88399999999999
 31
0.0
  0
LINE
  5
135
  8
0
 62
     7
 10
128.62100000000001
 20
151.672
 30
0.0
 11
128.02799999999991
 21
153.8839999999999
 31
0.0
  0
LINE
  5
136
  8
0
 62
     7
 10
128.02799999999991
 20
153.8839999999999
 30
0.0
 11
127.43600000000001
 21
151.672
 31
0.0
  0
LINE
  5
137
  8
0
 62
     7
 10
127.43600000000001
 20
151.672
 30
0.0
 11
128.62100000000001
 21
151.672
 31
0.0
  0
LINE
  5
138
  8
0
 62
     7
 10
128.62100000000001
 20
191.673
 30
0.0
 11
128.02799999999991
 21
193.88399999999999
 31
0.0
  0
LINE
  5
139
  8
0
 62
     7
 10
128.02799999999991
 20
193.88399999999999
 30
0.0
 11
127.43600000000001
 21
191.673
 31
0.0
  0
LINE
  5
13A
  8
0
 62
     7
 10
127.43600000000001
 20
191.673
 30
0.0
 11
128.62100000000001
 21
191.673
 31
0.0
  0
LINE
  5
13B
  8
0
 62
     7
 10
128.62100000000001
 20
185.67299999999989
 30
0.0
 11
128.02799999999991
 21
187.88399999999999
 31
0.0
  0
LINE
  5
13C
  8
0
 62
     7
 10
128.02799999999991
 20
187.88399999999999
 30
0.0
 11
127.43600000000001
 21
185.67299999999989
 31
0.0
  0
LINE
  5
13D
  8
0
 62
     7
 10
127.43600000000001
 20
185.67299999999989
 30
0.0
 11
128.62100000000001
 21
185.67299999999989
 31
0.0
  0
LINE
  5
13E
  8
0
 62
     7
 10
128.62100000000001
 20
198.17299999999989
 30
0.0
 11
128.02799999999991
 21
200.38399999999999
 31
0.0
  0
LINE
  5
13F
  8
0
 62
     7
 10
128.02799999999991
 20
200.38399999999999
 30
0.0
 11
127.43600000000001
 21
198.17299999999989
 31
0.0
  0
LINE
  5
140
  8
0
 62
     7
 10
127.43600000000001
 20
198.17299999999989
 30
0.0
 11
128.62100000000001
 21
198.17299999999989
 31
0.0
  0
LINE
  5
141
  8
0
 62
     7
 10
127.43600000000001
 20
205.09599999999989
 30
0.0
 11
128.02799999999991
 21
202.88499999999991
 31
0.0
  0
LINE
  5
142
  8
0
 62
     7
 10
128.02799999999991
 20
202.88499999999991
 30
0.0
 11
128.62100000000001
 21
205.09599999999989
 31
0.0
  0
LINE
  5
143
  8
0
 62
     7
 10
128.62100000000001
 20
205.09599999999989
 30
0.0
 11
127.43600000000001
 21
205.09599999999989
 31
0.0
  0
LINE
  5
144
  8
0
 62
     7
 10
127.43600000000001
 20
196.09599999999989
 30
0.0
 11
128.02799999999991
 21
193.88399999999999
 31
0.0
  0
LINE
  5
145
  8
0
 62
     7
 10
128.02799999999991
 20
193.88399999999999
 30
0.0
 11
128.62100000000001
 21
196.09599999999989
 31
0.0
  0
LINE
  5
146
  8
0
 62
     7
 10
128.62100000000001
 20
196.09599999999989
 30
0.0
 11
127.43600000000001
 21
196.09599999999989
 31
0.0
  0
LINE
  5
147
  8
0
 62
     7
 10
127.43600000000001
 20
190.09599999999989
 30
0.0
 11
128.02799999999991
 21
187.88399999999999
 31
0.0
  0
LINE
  5
148
  8
0
 62
     7
 10
128.02799999999991
 20
187.88399999999999
 30
0.0
 11
128.62100000000001
 21
190.09599999999989
 31
0.0
  0
LINE
  5
149
  8
0
 62
     7
 10
128.62100000000001
 20
190.09599999999989
 30
0.0
 11
127.43600000000001
 21
190.09599999999989
 31
0.0
  0
LINE
  5
14A
  8
0
 62
     7
 10
127.43600000000001
 20
158.596
 30
0.0
 11
128.02799999999991
 21
156.3839999999999
 31
0.0
  0
LINE
  5
14B
  8
0
 62
     7
 10
128.02799999999991
 20
156.3839999999999
 30
0.0
 11
128.62100000000001
 21
158.596
 31
0.0
  0
LINE
  5
14C
  8
0
 62
     7
 10
128.62100000000001
 20
158.596
 30
0.0
 11
127.43600000000001
 21
158.596
 31
0.0
  0
LINE
  5
14D
  8
0
 62
     7
 10
128.02799999999991
 20
208.90199999999999
 30
0.0
 11
128.02799999999991
 21
148.12399999999991
 31
0.0
  0
LINE
  5
14E
  8
0
 62
     7
 10
142.666
 20
129.352
 30
0.0
 11
146.858
 21
128.70699999999991
 31
0.0
  0
ARC
  5
14F
  8
0
 62
     7
 10
142.75916499999991
 20
129.86066899999989
 30
0.0
 40
0.517358
 50
181.57274599999991
 51
259.63644599999992
  0
LINE
  5
150
  8
0
 62
     7
 10
155.27899999999991
 20
101.452
 30
0.0
 11
152.50999999999991
 21
101.625
 31
0.0
  0
ARC
  5
151
  8
0
 62
     7
 10
152.58273700000001
 20
102.448227
 30
0.0
 40
0.826004
 50
188.11024499999999
 51
264.93613499999998
  0
LINE
  5
152
  8
0
 62
     7
 10
155.84200000000001
 20
97.416899999999998
 30
0.0
 11
155.84200000000001
 21
100.85299999999989
 31
0.0
  0
ARC
  5
153
  8
0
 62
     7
 10
155.22114999999999
 20
100.83344
 30
0.0
 40
0.621107
 50
1.809428
 51
84.622415000000004
  0
LINE
  5
154
  8
0
 62
     7
 10
150.24199999999999
 20
126.6669999999999
 30
0.0
 11
149.18100000000001
 21
126.6669999999999
 31
0.0
  0
ARC
  5
155
  8
0
 62
     7
 10
149.188019
 20
126.976381
 30
0.0
 40
0.3091489999999999
 50
196.38338100000001
 51
268.66428799999989
  0
ARC
  5
156
  8
0
 62
     7
 10
146.1492749999999
 20
68.833252000000002
 30
0.0
 40
2.8603900000000002
 50
349.45514300000002
 51
352.48356899999987
  0
ARC
  5
157
  8
0
 62
     7
 10
138.5168689999999
 20
69.863458999999992
 30
0.0
 40
10.561999999999999
 50
352.35903899999988
 51
354.42648500000001
  0
ARC
  5
158
  8
0
 62
     7
 10
114.23758100000001
 20
72.307345999999995
 30
0.0
 40
34.963941999999989
 50
354.30479500000001
 51
355.38140800000002
  0
ARC
  5
159
  8
0
 62
     7
 10
63.414473000000001
 20
76.462905000000006
 30
0.0
 40
85.956647000000004
 50
355.34830099999988
 51
356.02633100000003
  0
ARC
  5
15A
  8
0
 62
     7
 10
-33.577086999999992
 20
83.26051600000001
 30
0.0
 40
183.18611000000001
 50
356.0075819999999
 51
356.46266299999991
  0
ARC
  5
15B
  8
0
 62
     7
 10
-191.321878
 20
93.032216999999989
 30
0.0
 40
341.233271
 50
356.45923900000003
 51
356.82681899999989
  0
ARC
  5
15C
  8
0
 62
     7
 10
-448.63736499999999
 20
107.29735100000001
 30
0.0
 40
598.94387199999994
 50
356.82684
 51
357.35788600000001
  0
ARC
  5
15D
  8
0
 62
     7
 10
-636.56315900000004
 20
116.44070499999999
 30
0.0
 40
787.09151699999995
 50
357.32361600000002
 51
358.02256499999999
  0
ARC
  5
15E
  8
0
 62
     7
 10
-293.16318999999987
 20
104.43152499999989
 30
0.0
 40
443.48168399999992
 50
358.04229299999997
 51
358.64759800000002
  0
ARC
  5
15F
  8
0
 62
     7
 10
-27.174744
 20
98.103275999999994
 30
0.0
 40
177.41797999999989
 50
358.66332999999992
 51
359.77833700000002
  0
ARC
  5
160
  8
0
 62
     7
 10
-702.31192800000008
 20
174.148944
 30
0.0
 40
857.94131399999992
 50
353.57565199999999
 51
353.97369700000002
  0
ARC
  5
161
  8
0
 62
     7
 10
-1410.9300000000001
 20
249.79119900000001
 30
0.0
 40
1570.585
 50
353.94341900000001
 51
354.10926499999988
  0
ARC
  5
162
  8
0
 62
     7
 10
-5899.5069999999987
 20
716.38994500000001
 30
0.0
 40
6083.348
 50
354.07663400000001
 51
354.113587
  0
ARC
  5
163
  8
0
 62
     7
 10
146.14857599999991
 20
126.00040799999999
 30
0.0
 40
2.8611
 50
7.5171799999999998
 51
10.544748
  0
ARC
  5
164
  8
0
 62
     7
 10
138.51252099999991
 20
124.9698269999999
 30
0.0
 40
10.566376999999999
 50
5.573944
 51
7.6405329999999996
  0
ARC
  5
165
  8
0
 62
     7
 10
114.2199419999999
 20
122.524874
 30
0.0
 40
34.98164899999999
 50
4.6188180000000001
 51
5.6948949999999998
  0
ARC
  5
166
  8
0
 62
     7
 10
63.430106999999992
 20
118.37202600000001
 30
0.0
 40
85.94097099999999
 50
3.9736319999999998
 51
4.651781999999999
  0
ARC
  5
167
  8
0
 62
     7
 10
-33.602052
 20
111.57167199999989
 30
0.0
 40
183.21112599999989
 50
3.537353
 51
3.9923739999999999
  0
ARC
  5
168
  8
0
 62
     7
 10
-191.411045
 20
101.79629
 30
0.0
 40
341.32259299999998
 50
3.173238
 51
3.540721
  0
ARC
  5
169
  8
0
 62
     7
 10
-448.70768299999997
 20
87.532893000000001
 30
0.0
 40
599.01427899999999
 50
2.6421419999999989
 51
3.173125999999999
  0
ARC
  5
16A
  8
0
 62
     7
 10
-636.58490999999992
 20
78.392195000000001
 30
0.0
 40
787.11328600000002
 50
1.9774449999999999
 51
2.676374
  0
ARC
  5
16B
  8
0
 62
     7
 10
-293.16318999999987
 20
90.402259000000015
 30
0.0
 40
443.48168399999992
 50
1.3524020000000001
 51
1.957706999999999
  0
ARC
  5
16C
  8
0
 62
     7
 10
-27.174744
 20
96.730506999999989
 30
0.0
 40
177.41797999999989
 50
0.221663
 51
1.33667
  0
ARC
  5
16D
  8
0
 62
     7
 10
-702.2880419999999
 20
20.687526999999999
 30
0.0
 40
857.91727799999978
 50
6.0262910000000014
 51
6.4243480000000002
  0
ARC
  5
16E
  8
0
 62
     7
 10
-1410.1079999999999
 20
-54.871654999999997
 30
0.0
 40
1569.759
 50
5.8906989999999997
 51
6.0566310000000003
  0
ARC
  5
16F
  8
0
 62
     7
 10
-5902.1930000000002
 20
-521.833977
 30
0.0
 40
6086.049
 50
5.8864209999999986
 51
5.9233579999999986
  0
ARC
  5
170
  8
0
 62
     7
 10
146.41318200000001
 20
126.1734889999999
 30
0.0
 40
2.5721699999999998
 50
7.8320530000000002
 51
80.031107999999989
  0
LINE
  5
171
  8
0
 62
     7
 10
151.84200000000001
 20
97.416899999999998
 30
0.0
 11
151.84200000000001
 21
101.2289999999999
 31
0.0
  0
LINE
  5
172
  8
0
 62
     7
 10
150.24199999999999
 20
97.416899999999998
 30
0.0
 11
150.24199999999999
 21
126.6669999999999
 31
0.0
  0
LINE
  5
173
  8
0
 62
     7
 10
142.666
 20
65.481999999999999
 30
0.0
 11
146.858
 21
66.126999999999995
 31
0.0
  0
ARC
  5
174
  8
0
 62
     7
 10
142.7580979999999
 20
64.974009999999993
 30
0.0
 40
0.5162860000000001
 50
100.26495300000001
 51
178.44693000000001
  0
LINE
  5
175
  8
0
 62
     7
 10
155.27899999999991
 20
93.382000000000005
 30
0.0
 11
152.50999999999991
 21
93.208999999999989
 31
0.0
  0
ARC
  5
176
  8
0
 62
     7
 10
152.58277399999989
 20
92.386319999999998
 30
0.0
 40
0.825933
 50
95.066851
 51
171.94256200000001
  0
LINE
  5
177
  8
0
 62
     7
 10
155.84200000000001
 20
97.416899999999998
 30
0.0
 11
155.84200000000001
 21
93.980699999999999
 31
0.0
  0
ARC
  5
178
  8
0
 62
     7
 10
155.22114999999999
 20
94.000342999999987
 30
0.0
 40
0.621107
 50
275.37758500000001
 51
358.19057199999997
  0
LINE
  5
179
  8
0
 62
     7
 10
150.24199999999999
 20
68.167199999999994
 30
0.0
 11
149.18100000000001
 21
68.167199999999994
 31
0.0
  0
ARC
  5
17A
  8
0
 62
     7
 10
149.18752599999999
 20
67.858734999999996
 30
0.0
 40
0.308496
 50
91.247061999999985
 51
163.7052689999999
  0
ARC
  5
17B
  8
0
 62
     7
 10
146.4108719999999
 20
68.662520000000001
 30
0.0
 40
2.574762999999999
 50
280.01095099999998
 51
352.12588799999997
  0
LINE
  5
17C
  8
0
 62
     7
 10
151.84200000000001
 20
97.416899999999998
 30
0.0
 11
151.84200000000001
 21
93.605900000000005
 31
0.0
  0
LINE
  5
17D
  8
0
 62
     7
 10
150.24199999999999
 20
97.416899999999998
 30
0.0
 11
150.24199999999999
 21
68.167199999999994
 31
0.0
  0
ARC
  5
17E
  8
0
  6
AIGENLINE001
 62
     7
 10
140.2027939999999
 20
97.378290000000007
 30
0.0
 40
1.039806999999999
 50
2.127529
 51
87.832988
  0
ARC
  5
17F
  8
0
  6
AIGENLINE001
 62
     7
 10
140.24228299999999
 20
97.417063999999996
 30
0.0
 40
1.000289999999999
 50
90.009867000000014
 51
180.0098769999999
  0
ARC
  5
180
  8
0
  6
AIGENLINE001
 62
     7
 10
140.280407
 20
97.455545999999998
 30
0.0
 40
1.0391330000000001
 50
182.1318259999999
 51
267.887944
  0
ARC
  5
181
  8
0
  6
AIGENLINE001
 62
     7
 10
140.20348100000001
 20
97.455522000000002
 30
0.0
 40
1.0391209999999991
 50
272.13049699999999
 51
357.86951299999993
  0
LINE
  5
182
  8
0
  6
AIGENLINE002
 62
     7
 10
158.101
 20
97.416899999999998
 30
0.0
 11
135.41199999999989
 21
97.416899999999998
 31
0.0
  0
LINE
  5
183
  8
0
 62
     7
 10
142.24199999999999
 20
131.11699999999999
 30
0.0
 11
142.24199999999999
 21
63.716799999999999
 31
0.0
  0
LINE
  5
184
  8
0
 62
     7
 10
141.94200000000001
 20
63.417000000000002
 30
0.0
 11
137.24199999999999
 21
63.417000000000002
 31
0.0
  0
ARC
  5
185
  8
0
 62
     7
 10
141.930283
 20
63.728762000000003
 30
0.0
 40
0.31195
 50
272.14013599999993
 51
357.7940549999999
  0
LINE
  5
186
  8
0
 62
     7
 10
141.94200000000001
 20
131.417
 30
0.0
 11
137.24199999999999
 21
131.417
 31
0.0
  0
ARC
  5
187
  8
0
 62
     7
 10
141.93031199999999
 20
131.1057659999999
 30
0.0
 40
0.311893
 50
2.069439
 51
87.864806999999999
  0
LINE
  5
188
  8
0
 62
     7
 10
140.24199999999999
 20
131.417
 30
0.0
 11
140.24199999999999
 21
63.417000000000002
 31
0.0
  0
LINE
  5
189
  8
0
 62
     7
 10
137.24199999999999
 20
131.417
 30
0.0
 11
137.24199999999999
 21
63.417000000000002
 31
0.0
  0
LINE
  5
18A
  8
0
 62
     7
 10
87.972099999999983
 20
56.298400000000001
 30
0.0
 11
90.183499999999995
 21
56.890900000000002
 31
0.0
  0
LINE
  5
18B
  8
0
 62
     7
 10
90.183499999999995
 20
56.890900000000002
 30
0.0
 11
87.972099999999983
 21
57.483499999999999
 31
0.0
  0
LINE
  5
18C
  8
0
 62
     7
 10
87.972099999999983
 20
57.483499999999999
 30
0.0
 11
87.972099999999983
 21
56.298400000000001
 31
0.0
  0
LINE
  5
18D
  8
0
 62
     7
 10
56.472200000000001
 20
56.298400000000001
 30
0.0
 11
58.683599999999998
 21
56.890900000000002
 31
0.0
  0
LINE
  5
18E
  8
0
 62
     7
 10
58.683599999999998
 20
56.890900000000002
 30
0.0
 11
56.472200000000001
 21
57.483499999999999
 31
0.0
  0
LINE
  5
18F
  8
0
 62
     7
 10
56.472200000000001
 20
57.483499999999999
 30
0.0
 11
56.472200000000001
 21
56.298400000000001
 31
0.0
  0
LINE
  5
190
  8
0
 62
     7
 10
41.472000000000001
 20
50.485799999999998
 30
0.0
 11
43.683399999999992
 21
51.078299999999992
 31
0.0
  0
LINE
  5
191
  8
0
 62
     7
 10
43.683399999999992
 20
51.078299999999992
 30
0.0
 11
41.472000000000001
 21
51.670900000000003
 31
0.0
  0
LINE
  5
192
  8
0
 62
     7
 10
41.472000000000001
 20
51.670900000000003
 30
0.0
 11
41.472000000000001
 21
50.485799999999998
 31
0.0
  0
LINE
  5
193
  8
0
 62
     7
 10
87.972099999999983
 20
50.485799999999998
 30
0.0
 11
90.183499999999995
 21
51.078299999999992
 31
0.0
  0
LINE
  5
194
  8
0
 62
     7
 10
90.183499999999995
 20
51.078299999999992
 30
0.0
 11
87.972099999999983
 21
51.670900000000003
 31
0.0
  0
LINE
  5
195
  8
0
 62
     7
 10
87.972099999999983
 20
51.670900000000003
 30
0.0
 11
87.972099999999983
 21
50.485799999999998
 31
0.0
  0
LINE
  5
196
  8
0
 62
     7
 10
60.895200000000003
 20
57.483499999999999
 30
0.0
 11
58.683599999999998
 21
56.890900000000002
 31
0.0
  0
LINE
  5
197
  8
0
 62
     7
 10
58.683599999999998
 20
56.890900000000002
 30
0.0
 11
60.895200000000003
 21
56.298400000000001
 31
0.0
  0
LINE
  5
198
  8
0
 62
     7
 10
60.895200000000003
 20
56.298400000000001
 30
0.0
 11
60.895200000000003
 21
57.483499999999999
 31
0.0
  0
LINE
  5
199
  8
0
 62
     7
 10
48.395099999999999
 20
57.483499999999999
 30
0.0
 11
46.183500000000002
 21
56.890900000000002
 31
0.0
  0
LINE
  5
19A
  8
0
 62
     7
 10
46.183500000000002
 20
56.890900000000002
 30
0.0
 11
48.395099999999999
 21
56.298400000000001
 31
0.0
  0
LINE
  5
19B
  8
0
 62
     7
 10
48.395099999999999
 20
56.298400000000001
 30
0.0
 11
48.395099999999999
 21
57.483499999999999
 31
0.0
  0
LINE
  5
19C
  8
0
 62
     7
 10
48.395099999999999
 20
51.670900000000003
 30
0.0
 11
46.183500000000002
 21
51.078299999999992
 31
0.0
  0
LINE
  5
19D
  8
0
 62
     7
 10
46.183500000000002
 20
51.078299999999992
 30
0.0
 11
48.395099999999999
 21
50.485799999999998
 31
0.0
  0
LINE
  5
19E
  8
0
 62
     7
 10
48.395099999999999
 20
50.485799999999998
 30
0.0
 11
48.395099999999999
 21
51.670900000000003
 31
0.0
  0
LINE
  5
19F
  8
0
 62
     7
 10
90.183499999999995
 20
56.890900000000002
 30
0.0
 11
46.183500000000002
 21
56.890900000000002
 31
0.0
  0
LINE
  5
1A0
  8
0
 62
     7
 10
98.475200000000015
 20
51.078299999999992
 30
0.0
 11
38.104399999999991
 21
51.078299999999992
 31
0.0
  0
LINE
  5
1A1
  8
0
 62
     7
 10
90.472899999999996
 20
44.084099999999992
 30
0.0
 11
92.684499999999986
 21
44.676600000000001
 31
0.0
  0
LINE
  5
1A2
  8
0
 62
     7
 10
92.684499999999986
 20
44.676600000000001
 30
0.0
 11
90.472899999999996
 21
45.269199999999991
 31
0.0
  0
LINE
  5
1A3
  8
0
 62
     7
 10
90.472899999999996
 20
45.269199999999991
 30
0.0
 11
90.472899999999996
 21
44.084099999999992
 31
0.0
  0
LINE
  5
1A4
  8
0
 62
     7
 10
94.895099999999999
 20
51.670900000000003
 30
0.0
 11
92.683599999999984
 21
51.078299999999992
 31
0.0
  0
LINE
  5
1A5
  8
0
 62
     7
 10
92.683599999999984
 20
51.078299999999992
 30
0.0
 11
94.895099999999999
 21
50.485799999999998
 31
0.0
  0
LINE
  5
1A6
  8
0
 62
     7
 10
94.895099999999999
 20
50.485799999999998
 30
0.0
 11
94.895099999999999
 21
51.670900000000003
 31
0.0
  0
LINE
  5
1A7
  8
0
 62
     7
 10
45.894099999999987
 20
45.2547
 30
0.0
 11
43.68249999999999
 21
44.662199999999991
 31
0.0
  0
LINE
  5
1A8
  8
0
 62
     7
 10
43.68249999999999
 20
44.662199999999991
 30
0.0
 11
45.894099999999987
 21
44.069600000000001
 31
0.0
  0
LINE
  5
1A9
  8
0
 62
     7
 10
45.894099999999987
 20
44.069600000000001
 30
0.0
 11
45.894099999999987
 21
45.2547
 31
0.0
  0
LINE
  5
1AA
  8
0
 62
     7
 10
92.683599999999984
 20
44.669699999999992
 30
0.0
 11
43.683399999999992
 21
44.669699999999992
 31
0.0
  0
LINE
  5
1AB
  8
0
 62
     7
 10
43.683399999999992
 20
62.850000000000001
 30
0.0
 11
43.683399999999992
 21
43.969700000000003
 31
0.0
  0
LINE
  5
1AC
  8
0
 62
     7
 10
58.683599999999998
 20
65.4696
 30
0.0
 11
58.683599999999998
 21
56.190899999999992
 31
0.0
  0
LINE
  5
1AD
  8
0
 62
     7
 10
46.183500000000002
 20
64.844700000000003
 30
0.0
 11
46.183500000000002
 21
50.378300000000003
 31
0.0
  0
LINE
  5
1AE
  8
0
 62
     7
 10
90.183499999999995
 20
64.844700000000003
 30
0.0
 11
90.183499999999995
 21
50.378300000000003
 31
0.0
  0
LINE
  5
1AF
  8
0
 62
     7
 10
92.683599999999984
 20
62.850000000000001
 30
0.0
 11
92.683599999999984
 21
43.969700000000003
 31
0.0
  0
LINE
  5
1B0
  8
0
 62
     7
 10
110.209
 20
129.20699999999999
 30
0.0
 11
109.617
 21
131.41800000000001
 31
0.0
  0
LINE
  5
1B1
  8
0
 62
     7
 10
109.617
 20
131.41800000000001
 30
0.0
 11
109.024
 21
129.20699999999999
 31
0.0
  0
LINE
  5
1B2
  8
0
 62
     7
 10
109.024
 20
129.20699999999999
 30
0.0
 11
110.209
 21
129.20699999999999
 31
0.0
  0
LINE
  5
1B3
  8
0
 62
     7
 10
109.0389999999999
 20
65.627399999999994
 30
0.0
 11
109.631
 21
63.415700000000001
 31
0.0
  0
LINE
  5
1B4
  8
0
 62
     7
 10
109.631
 20
63.415700000000001
 30
0.0
 11
110.2239999999999
 21
65.627399999999994
 31
0.0
  0
LINE
  5
1B5
  8
0
 62
     7
 10
110.2239999999999
 20
65.627399999999994
 30
0.0
 11
109.0389999999999
 21
65.627399999999994
 31
0.0
  0
LINE
  5
1B6
  8
0
 62
     7
 10
109.6239999999999
 20
131.417
 30
0.0
 11
109.6239999999999
 21
63.417000000000002
 31
0.0
  0
LINE
  5
1B7
  8
0
 62
     7
 10
103.3959999999999
 20
126.706
 30
0.0
 11
102.8029999999999
 21
128.917
 31
0.0
  0
LINE
  5
1B8
  8
0
 62
     7
 10
102.8029999999999
 20
128.917
 30
0.0
 11
102.20999999999999
 21
126.706
 31
0.0
  0
LINE
  5
1B9
  8
0
 62
     7
 10
102.20999999999999
 20
126.706
 30
0.0
 11
103.3959999999999
 21
126.706
 31
0.0
  0
LINE
  5
1BA
  8
0
 62
     7
 10
102.20999999999999
 20
68.128600000000006
 30
0.0
 11
102.8029999999999
 21
65.916799999999995
 31
0.0
  0
LINE
  5
1BB
  8
0
 62
     7
 10
102.8029999999999
 20
65.916799999999995
 30
0.0
 11
103.3959999999999
 21
68.128600000000006
 31
0.0
  0
LINE
  5
1BC
  8
0
 62
     7
 10
103.3959999999999
 20
68.128600000000006
 30
0.0
 11
102.20999999999999
 21
68.128600000000006
 31
0.0
  0
LINE
  5
1BD
  8
0
 62
     7
 10
102.8029999999999
 20
137.369
 30
0.0
 11
102.8029999999999
 21
57.458999999999989
 31
0.0
  0
LINE
  5
1BE
  8
0
 62
     7
 10
103.5029999999999
 20
65.916799999999995
 30
0.0
 11
90.783699999999996
 21
65.916799999999995
 31
0.0
  0
LINE
  5
1BF
  8
0
 62
     7
 10
103.5029999999999
 20
128.917
 30
0.0
 11
90.783699999999996
 21
128.917
 31
0.0
  0
LINE
  5
1C0
  8
0
 62
     7
 10
58.683399999999992
 20
66.917299999999983
 30
0.0
 11
58.683399999999992
 21
127.917
 31
0.0
  0
LINE
  5
1C1
  8
0
 62
     7
 10
90.183499999999995
 20
66.917299999999983
 30
0.0
 11
90.183499999999995
 21
127.917
 31
0.0
  0
LINE
  5
1C2
  8
0
 62
     7
 10
47.183300000000003
 20
65.916799999999995
 30
0.0
 11
89.183800000000005
 21
65.916799999999995
 31
0.0
  0
ARC
  5
1C3
  8
0
 62
     7
 10
89.145468999999991
 20
66.954835000000003
 30
0.0
 40
1.038734
 50
272.112056
 51
357.92742799999991
  0
LINE
  5
1C4
  8
0
 62
     7
 10
47.183300000000003
 20
128.917
 30
0.0
 11
89.183800000000005
 21
128.917
 31
0.0
  0
ARC
  5
1C5
  8
0
 62
     7
 10
89.145522999999997
 20
127.87897599999989
 30
0.0
 40
1.0387040000000001
 50
2.109141999999999
 51
87.890847999999991
  0
LINE
  5
1C6
  8
0
 62
     7
 10
46.183500000000002
 20
66.917299999999983
 30
0.0
 11
46.183500000000002
 21
127.917
 31
0.0
  0
ARC
  5
1C7
  8
0
 62
     7
 10
47.221916999999991
 20
127.878579
 30
0.0
 40
1.039115999999999
 50
92.130204000000006
 51
177.86976599999991
  0
ARC
  5
1C8
  8
0
 62
     7
 10
47.222217000000001
 20
66.955477999999985
 30
0.0
 40
1.0394000000000001
 50
182.10672999999991
 51
267.85382599999991
  0
LINE
  5
1C9
  8
0
 62
     7
 10
91.083699999999979
 20
66.0167
 30
0.0
 11
91.083699999999979
 21
128.81700000000001
 31
0.0
  0
LINE
  5
1CA
  8
0
 62
     7
 10
46.2834
 20
65.016900000000007
 30
0.0
 11
90.083600000000004
 21
65.016900000000007
 31
0.0
  0
ARC
  5
1CB
  8
0
 62
     7
 10
90.045392000000007
 20
66.055295999999998
 30
0.0
 40
1.039058
 50
272.10820899999987
 51
357.87206099999992
  0
LINE
  5
1CC
  8
0
 62
     7
 10
46.2834
 20
129.8179999999999
 30
0.0
 11
90.083600000000004
 21
129.8179999999999
 31
0.0
  0
ARC
  5
1CD
  8
0
 62
     7
 10
90.083443000000003
 20
128.817241
 30
0.0
 40
1.000289999999999
 50
359.99014299999999
 51
89.990113000000008
  0
LINE
  5
1CE
  8
0
 62
     7
 10
45.28329999999999
 20
66.0167
 30
0.0
 11
45.28329999999999
 21
128.81700000000001
 31
0.0
  0
ARC
  5
1CF
  8
0
 62
     7
 10
46.283599999999993
 20
128.817241
 30
0.0
 40
1.000289999999999
 50
90.009867000000014
 51
180.0098769999999
  0
ARC
  5
1D0
  8
0
 62
     7
 10
46.321336999999993
 20
66.054981999999995
 30
0.0
 40
1.0387319999999991
 50
182.11125799999999
 51
267.90851199999997
  0
LINE
  5
1D1
  8
0
 62
     7
 10
110.3239999999999
 20
131.417
 30
0.0
 11
93.085999999999999
 21
131.417
 31
0.0
  0
LINE
  5
1D2
  8
0
 62
     7
 10
110.3239999999999
 20
63.417000000000002
 30
0.0
 11
93.085999999999999
 21
63.417000000000002
 31
0.0
  0
LINE
  5
1D3
  8
0
 62
     7
 10
56.471800000000002
 20
116.23
 30
0.0
 11
58.683399999999992
 21
116.822
 31
0.0
  0
LINE
  5
1D4
  8
0
 62
     7
 10
58.683399999999992
 20
116.822
 30
0.0
 11
56.471800000000002
 21
117.41500000000001
 31
0.0
  0
LINE
  5
1D5
  8
0
 62
     7
 10
56.471800000000002
 20
117.41500000000001
 30
0.0
 11
56.471800000000002
 21
116.23
 31
0.0
  0
LINE
  5
1D6
  8
0
 62
     7
 10
54.89589999999999
 20
117.40000000000001
 30
0.0
 11
52.6843
 21
116.80800000000001
 31
0.0
  0
LINE
  5
1D7
  8
0
 62
     7
 10
52.6843
 20
116.80800000000001
 30
0.0
 11
54.89589999999999
 21
116.215
 31
0.0
  0
LINE
  5
1D8
  8
0
 62
     7
 10
54.89589999999999
 20
116.215
 30
0.0
 11
54.89589999999999
 21
117.40000000000001
 31
0.0
  0
LINE
  5
1D9
  8
0
 62
     7
 10
58.682600000000001
 20
116.815
 30
0.0
 11
52.685099999999998
 21
116.815
 31
0.0
  0
LINE
  5
1DA
  8
0
 62
     7
 10
50.47270000000001
 20
116.23
 30
0.0
 11
52.6843
 21
116.822
 31
0.0
  0
LINE
  5
1DB
  8
0
 62
     7
 10
52.6843
 20
116.822
 30
0.0
 11
50.47270000000001
 21
117.41500000000001
 31
0.0
  0
LINE
  5
1DC
  8
0
 62
     7
 10
50.47270000000001
 20
117.41500000000001
 30
0.0
 11
50.47270000000001
 21
116.23
 31
0.0
  0
LINE
  5
1DD
  8
0
 62
     7
 10
45.894099999999987
 20
117.40000000000001
 30
0.0
 11
43.68249999999999
 21
116.80800000000001
 31
0.0
  0
LINE
  5
1DE
  8
0
 62
     7
 10
43.68249999999999
 20
116.80800000000001
 30
0.0
 11
45.894099999999987
 21
116.215
 31
0.0
  0
LINE
  5
1DF
  8
0
 62
     7
 10
45.894099999999987
 20
116.215
 30
0.0
 11
45.894099999999987
 21
117.40000000000001
 31
0.0
  0
LINE
  5
1E0
  8
0
 62
     7
 10
78.392300000000006
 20
91.727299999999985
 30
0.0
 11
72.873199999999997
 21
91.727299999999985
 31
0.0
  0
LINE
  5
1E1
  8
0
 62
     7
 10
52.683399999999999
 20
116.815
 30
0.0
 11
43.683399999999992
 21
116.815
 31
0.0
  0
LINE
  5
1E2
  8
0
 62
     7
 10
52.683399999999999
 20
117.515
 30
0.0
 11
52.683399999999999
 21
111.724
 31
0.0
  0
LINE
  5
1E3
  8
0
 62
     7
 10
49.46329999999999
 20
99.798800000000014
 30
0.0
 11
51.445900000000002
 21
98.654399999999995
 31
0.0
  0
LINE
  5
1E4
  8
0
 62
     7
 10
51.445900000000002
 20
98.654399999999995
 30
0.0
 11
50.301299999999991
 21
100.6369999999999
 31
0.0
  0
LINE
  5
1E5
  8
0
 62
     7
 10
50.301299999999991
 20
100.6369999999999
 30
0.0
 11
49.46329999999999
 21
99.798800000000014
 31
0.0
  0
LINE
  5
1E6
  8
0
 62
     7
 10
55.904800000000002
 20
95.032899999999984
 30
0.0
 11
53.9221
 21
96.177999999999997
 31
0.0
  0
LINE
  5
1E7
  8
0
 62
     7
 10
53.9221
 20
96.177999999999997
 30
0.0
 11
55.066800000000001
 21
94.194999999999993
 31
0.0
  0
LINE
  5
1E8
  8
0
 62
     7
 10
55.066800000000001
 20
94.194999999999993
 30
0.0
 11
55.904800000000002
 21
95.032899999999984
 31
0.0
  0
LINE
  5
1E9
  8
0
 62
     7
 10
64.378600000000006
 20
85.721400000000003
 30
0.0
 11
48.772500000000001
 21
101.3279999999999
 31
0.0
  0
LINE
  5
1EA
  8
0
 62
     7
 10
63.680599999999991
 20
100.08199999999999
 30
0.0
 11
65.663200000000003
 21
98.937600000000003
 31
0.0
  0
LINE
  5
1EB
  8
0
 62
     7
 10
65.663200000000003
 20
98.937600000000003
 30
0.0
 11
64.518600000000006
 21
100.92100000000001
 31
0.0
  0
LINE
  5
1EC
  8
0
 62
     7
 10
64.518600000000006
 20
100.92100000000001
 30
0.0
 11
63.680599999999991
 21
100.08199999999999
 31
0.0
  0
LINE
  5
1ED
  8
0
 62
     7
 10
70.686400000000006
 20
94.7517
 30
0.0
 11
68.703699999999998
 21
95.896900000000002
 31
0.0
  0
LINE
  5
1EE
  8
0
 62
     7
 10
68.703699999999998
 20
95.896900000000002
 30
0.0
 11
69.848399999999998
 21
93.913899999999984
 31
0.0
  0
LINE
  5
1EF
  8
0
 62
     7
 10
69.848399999999998
 20
93.913899999999984
 30
0.0
 11
70.686400000000006
 21
94.7517
 31
0.0
  0
LINE
  5
1F0
  8
0
 62
     7
 10
72.873199999999997
 20
91.727299999999985
 30
0.0
 11
63.233699999999999
 21
101.367
 31
0.0
  0
ARC
  5
1F1
  8
0
 62
     7
 10
67.100717000000003
 20
97.334389999999999
 30
0.0
 40
2.2344810000000002
 50
2.1159609999999991
 51
87.874848999999998
  0
ARC
  5
1F2
  8
0
 62
     7
 10
67.265724000000006
 20
97.335102000000006
 30
0.0
 40
2.233743
 50
92.107557999999983
 51
177.90159199999991
  0
ARC
  5
1F3
  8
0
 62
     7
 10
67.18340400000001
 20
97.417063999999996
 30
0.0
 40
2.1499250000000001
 50
180.00460100000001
 51
270.00461000000001
  0
ARC
  5
1F4
  8
0
 62
     7
 10
67.183747999999994
 20
97.417063999999996
 30
0.0
 40
2.1499259999999989
 50
269.99542899999989
 51
359.99539900000002
  0
ARC
  5
1F5
  8
0
  6
AIGENLINE001
 62
     7
 10
52.616199999999999
 20
107.349811
 30
0.0
 40
1.818584999999999
 50
2.1183809999999998
 51
87.881609000000012
  0
ARC
  5
1F6
  8
0
  6
AIGENLINE001
 62
     7
 10
52.750256999999998
 20
107.350199
 30
0.0
 40
1.8181830000000001
 50
92.106615000000005
 51
177.89335500000001
  0
ARC
  5
1F7
  8
0
  6
AIGENLINE001
 62
     7
 10
52.750643999999987
 20
107.484256
 30
0.0
 40
1.818584999999999
 50
182.11838299999999
 51
267.88164599999988
  0
ARC
  5
1F8
  8
0
  6
AIGENLINE001
 62
     7
 10
52.616587000000003
 20
107.4838689999999
 30
0.0
 40
1.818184
 50
272.10665199999988
 51
357.89335799999998
  0
LINE
  5
1F9
  8
0
  6
AIGENLINE002
 62
     7
 10
56.409700000000001
 20
107.417
 30
0.0
 11
49.226599999999998
 21
107.417
 31
0.0
  0
ARC
  5
1FA
  8
0
  6
AIGENLINE001
 62
     7
 10
52.616205000000008
 20
87.349531999999996
 30
0.0
 40
1.818579999999999
 50
2.1182279999999989
 51
87.881761999999995
  0
ARC
  5
1FB
  8
0
  6
AIGENLINE001
 62
     7
 10
52.750649000000003
 20
87.349523000000005
 30
0.0
 40
1.8185899999999999
 50
92.118506999999994
 51
177.881463
  0
ARC
  5
1FC
  8
0
  6
AIGENLINE001
 62
     7
 10
52.750639
 20
87.483967000000007
 30
0.0
 40
1.8185789999999999
 50
182.11823000000001
 51
267.8818
  0
ARC
  5
1FD
  8
0
  6
AIGENLINE001
 62
     7
 10
52.616193999999993
 20
87.483978000000008
 30
0.0
 40
1.8185899999999999
 50
272.11854399999987
 51
357.88146599999988
  0
LINE
  5
1FE
  8
0
  6
AIGENLINE002
 62
     7
 10
56.409700000000001
 20
87.416700000000006
 30
0.0
 11
49.226599999999998
 21
87.416700000000006
 31
0.0
  0
ARC
  5
1FF
  8
0
 62
     7
 10
52.616199999999999
 20
97.349668999999992
 30
0.0
 40
1.818584999999999
 50
2.1183809999999998
 51
87.881609000000012
  0
ARC
  5
200
  8
0
 62
     7
 10
52.750256999999998
 20
97.350057000000007
 30
0.0
 40
1.8181830000000001
 50
92.106615000000005
 51
177.89335500000001
  0
ARC
  5
201
  8
0
 62
     7
 10
52.750643999999987
 20
97.484114000000005
 30
0.0
 40
1.818584999999999
 50
182.11838299999999
 51
267.88164599999988
  0
ARC
  5
202
  8
0
 62
     7
 10
52.616587000000003
 20
97.483727999999999
 30
0.0
 40
1.818184
 50
272.10665199999988
 51
357.89335799999998
  0
LINE
  5
203
  8
0
  6
AIGENLINE002
 62
     7
 10
52.683399999999999
 20
83.749099999999984
 30
0.0
 11
52.683399999999999
 21
111.024
 31
0.0
  0
LINE
  5
204
  8
0
  6
AIGENLINE002
 62
     7
 10
95.385000000000005
 20
97.416899999999998
 30
0.0
 11
40.515999999999991
 21
97.416899999999998
 31
0.0
  0
LINE
  5
205
  8
0
 62
     7
 10
91.883700000000005
 20
65.216800000000006
 30
0.0
 11
91.883700000000005
 21
129.61699999999999
 31
0.0
  0
LINE
  5
206
  8
0
 62
     7
 10
45.483499999999999
 20
64.216999999999999
 30
0.0
 11
90.883599999999987
 21
64.216999999999999
 31
0.0
  0
ARC
  5
207
  8
0
 62
     7
 10
90.845342999999986
 20
65.255344999999991
 30
0.0
 40
1.039062999999999
 50
272.108473
 51
357.87179700000002
  0
LINE
  5
208
  8
0
 62
     7
 10
45.483499999999999
 20
130.61699999999999
 30
0.0
 11
90.883599999999987
 21
130.61699999999999
 31
0.0
  0
ARC
  5
209
  8
0
 62
     7
 10
90.883398999999983
 20
129.617197
 30
0.0
 40
1.000289999999999
 50
359.99014299999999
 51
89.990113000000008
  0
LINE
  5
20A
  8
0
 62
     7
 10
44.483400000000003
 20
65.216800000000006
 30
0.0
 11
44.483400000000003
 21
129.61699999999999
 31
0.0
  0
ARC
  5
20B
  8
0
 62
     7
 10
45.483643999999991
 20
129.617197
 30
0.0
 40
1.000289999999999
 50
90.009867000000014
 51
180.0098769999999
  0
ARC
  5
20C
  8
0
 62
     7
 10
45.521380999999991
 20
65.255025000000003
 30
0.0
 40
1.0387319999999991
 50
182.11125799999999
 51
267.90851199999997
  0
LINE
  5
20D
  8
0
 62
     7
 10
92.683599999999984
 20
64.416799999999995
 30
0.0
 11
92.683599999999984
 21
130.417
 31
0.0
  0
LINE
  5
20E
  8
0
 62
     7
 10
44.683500000000002
 20
131.417
 30
0.0
 11
91.683499999999995
 21
131.417
 31
0.0
  0
ARC
  5
20F
  8
0
 62
     7
 10
91.644543999999996
 20
130.378355
 30
0.0
 40
1.039819
 50
2.1288459999999989
 51
87.851410999999999
  0
LINE
  5
210
  8
0
 62
     7
 10
43.683399999999992
 20
64.416799999999995
 30
0.0
 11
43.683399999999992
 21
130.417
 31
0.0
  0
ARC
  5
211
  8
0
 62
     7
 10
44.683687999999997
 20
130.41715300000001
 30
0.0
 40
1.000289999999999
 50
90.009867000000014
 51
180.0098769999999
  0
LINE
  5
212
  8
0
 62
     7
 10
44.683500000000002
 20
63.417000000000002
 30
0.0
 11
91.683499999999995
 21
63.417000000000002
 31
0.0
  0
ARC
  5
213
  8
0
 62
     7
 10
91.645308999999997
 20
64.455379000000008
 30
0.0
 40
1.0390520000000001
 50
272.10794399999997
 51
357.87232599999999
  0
ARC
  5
214
  8
0
 62
     7
 10
44.721423999999999
 20
64.455068999999995
 30
0.0
 40
1.0387319999999991
 50
182.11125799999999
 51
267.90851199999997
  0
ARC
  5
215
  8
0
 62
     7
 10
67.183402999999998
 20
97.417063999999996
 30
0.0
 40
3.500067
 50
359.99718999999988
 51
89.997159999999994
  0
ARC
  5
216
  8
0
 62
     7
 10
67.183577
 20
97.416891000000021
 30
0.0
 40
3.5002399999999998
 50
90.0
 51
179.99996999999991
  0
ARC
  5
217
  8
0
 62
     7
 10
67.183231000000006
 20
97.417236000000003
 30
0.0
 40
3.4998939999999998
 50
180.00565
 51
270.00565999999998
  0
ARC
  5
218
  8
0
 62
     7
 10
67.183747999999994
 20
97.417065000000008
 30
0.0
 40
3.4997229999999999
 50
269.99720000000002
 51
359.99716999999998
  0
LINE
  5
219
  8
0
  6
AIGENLINE002
 62
     7
 10
67.183599999999998
 20
92.090699999999998
 30
0.0
 11
67.183599999999998
 21
102.77799999999991
 31
0.0
  0
ARC
  5
21A
  8
0
 62
     7
 10
59.722172
 20
127.87823
 30
0.0
 40
1.0394639999999991
 50
92.128997999999996
 51
177.85123200000001
  0
ARC
  5
21B
  8
0
 62
     7
 10
59.683728000000002
 20
66.917096000000001
 30
0.0
 40
1.000289999999999
 50
179.99010399999989
 51
269.99015299999991
  0
ARC
  5
21C
  8
0
 62
     7
 10
113.81272199999989
 20
236.88781299999999
 30
0.0
 40
1.000289999999999
 50
89.990132999999986
 51
179.99010399999989
  0
ARC
  5
21D
  8
0
 62
     7
 10
113.77424000000001
 20
236.84968900000001
 30
0.0
 40
1.0391330000000001
 50
2.1120659999999991
 51
87.868183999999985
  0
ARC
  5
21E
  8
0
 62
     7
 10
113.7742639999999
 20
235.25986800000001
 30
0.0
 40
1.0391209999999991
 50
272.13049699999999
 51
357.86951299999993
  0
ARC
  5
21F
  8
0
 62
     7
 10
113.8514959999999
 20
235.2605549999999
 30
0.0
 40
1.039806999999999
 50
182.167022
 51
267.87248099999988
  0
LINE
  5
220
  8
0
  6
AIGENLINE002
 62
     7
 10
113.8129999999999
 20
233.64400000000001
 30
0.0
 11
113.8129999999999
 21
238.46599999999989
 31
0.0
  0
LINE
  5
221
  8
0
  6
AIGENLINE002
 62
     7
 10
115.19799999999999
 20
236.05499999999989
 30
0.0
 11
112.4109999999999
 21
236.05499999999989
 31
0.0
  0
LINE
  5
222
  8
0
  6
AIGENLINE002
 62
     7
 10
112.25399999999991
 20
236.88800000000001
 30
0.0
 11
115.441
 21
236.88800000000001
 31
0.0
  0
LINE
  5
223
  8
0
  6
AIGENLINE002
 62
     7
 10
112.25399999999991
 20
235.22099999999989
 30
0.0
 11
115.441
 21
235.22099999999989
 31
0.0
  0
LINE
  5
224
  8
0
 62
     7
 10
112.812
 20
236.88800000000001
 30
0.0
 11
112.812
 21
235.22099999999989
 31
0.0
  0
LINE
  5
225
  8
0
 62
     7
 10
114.8129999999999
 20
236.88800000000001
 30
0.0
 11
114.8129999999999
 21
235.22099999999989
 31
0.0
  0
LINE
  5
226
  8
0
  6
AIGENLINE002
 62
     7
 10
146.98699999999999
 20
236.05499999999989
 30
0.0
 11
149.869
 21
236.05499999999989
 31
0.0
  0
LINE
  5
227
  8
0
 62
     7
 10
118.812
 20
228.55500000000001
 30
0.0
 11
108.8129999999999
 21
228.55500000000001
 31
0.0
  0
LINE
  5
228
  8
0
 62
     7
 10
118.479
 20
225.22099999999989
 30
0.0
 11
109.146
 21
225.22099999999989
 31
0.0
  0
LINE
  5
229
  8
0
 62
     7
 10
148.648
 20
240.84999999999999
 30
0.0
 11
148.648
 21
245.89500000000001
 31
0.0
  0
LINE
  5
22A
  8
0
 62
     7
 10
148.14799999999991
 20
240.84999999999999
 30
0.0
 11
148.14799999999991
 21
245.89500000000001
 31
0.0
  0
LINE
  5
22B
  8
0
 62
     7
 10
108.8129999999999
 20
240.22099999999989
 30
0.0
 11
108.8129999999999
 21
223.55499999999989
 31
0.0
  0
LINE
  5
22C
  8
0
 62
     7
 10
118.812
 20
223.55499999999989
 30
0.0
 11
108.8129999999999
 21
223.55499999999989
 31
0.0
  0
LINE
  5
22D
  8
0
 62
     7
 10
118.812
 20
240.22099999999989
 30
0.0
 11
118.812
 21
223.55499999999989
 31
0.0
  0
LINE
  5
22E
  8
0
 62
     7
 10
118.812
 20
240.22099999999989
 30
0.0
 11
108.8129999999999
 21
240.22099999999989
 31
0.0
  0
LINE
  5
22F
  8
0
 62
     7
 10
148.648
 20
240.22099999999989
 30
0.0
 11
148.648
 21
228.6509999999999
 31
0.0
  0
LINE
  5
230
  8
0
 62
     7
 10
148.315
 20
228.07400000000001
 30
0.0
 11
142.815
 21
224.89799999999991
 31
0.0
  0
ARC
  5
231
  8
0
 62
     7
 10
147.96977299999989
 20
228.65727200000001
 30
0.0
 40
0.6781080000000002
 50
300.60943399999991
 51
359.47465699999992
  0
LINE
  5
232
  8
0
 62
     7
 10
148.14799999999991
 20
228.589
 30
0.0
 11
142.64799999999991
 21
225.41399999999999
 31
0.0
  0
LINE
  5
233
  8
0
 62
     7
 10
142.31499999999991
 20
224.8359999999999
 30
0.0
 11
142.31499999999991
 21
223.55499999999989
 31
0.0
  0
ARC
  5
234
  8
0
 62
     7
 10
142.99688999999989
 20
224.82788500000001
 30
0.0
 40
0.681903
 50
120.7891939999999
 51
179.29485700000001
  0
LINE
  5
235
  8
0
 62
     7
 10
142.815
 20
224.89799999999991
 30
0.0
 11
142.815
 21
223.55499999999989
 31
0.0
  0
LINE
  5
236
  8
0
 62
     7
 10
142.815
 20
223.55499999999989
 30
0.0
 11
142.31499999999991
 21
223.55499999999989
 31
0.0
  0
LINE
  5
237
  8
0
 62
     7
 10
148.14799999999991
 20
240.22099999999989
 30
0.0
 11
148.14799999999991
 21
228.589
 31
0.0
  0
LINE
  5
238
  8
0
 62
     7
 10
148.648
 20
240.22099999999989
 30
0.0
 11
148.14799999999991
 21
240.22099999999989
 31
0.0
  0
LINE
  5
239
  8
0
 62
     7
 10
115.43299999999989
 20
236.05499999999989
 30
0.0
 11
124.407
 21
236.05499999999989
 31
0.0
  0
LINE
  5
23A
  8
0
 62
     7
 10
124.38200000000001
 20
238.7469999999999
 30
0.0
 11
123.9859999999999
 21
240.22099999999989
 31
0.0
  0
LINE
  5
23B
  8
0
 62
     7
 10
123.9859999999999
 20
240.22099999999989
 30
0.0
 11
123.592
 21
238.7469999999999
 31
0.0
  0
LINE
  5
23C
  8
0
 62
     7
 10
123.592
 20
238.7469999999999
 30
0.0
 11
124.38200000000001
 21
238.7469999999999
 31
0.0
  0
LINE
  5
23D
  8
0
 62
     7
 10
123.601
 20
237.529
 30
0.0
 11
123.996
 21
236.05499999999989
 31
0.0
  0
LINE
  5
23E
  8
0
 62
     7
 10
123.996
 20
236.05499999999989
 30
0.0
 11
124.39100000000001
 21
237.529
 31
0.0
  0
LINE
  5
23F
  8
0
 62
     7
 10
124.39100000000001
 20
237.529
 30
0.0
 11
123.601
 21
237.529
 31
0.0
  0
LINE
  5
240
  8
0
 62
     7
 10
123.996
 20
240.22099999999989
 30
0.0
 11
123.996
 21
229.5859999999999
 31
0.0
  0
LINE
  5
241
  8
0
 62
     7
 10
119.455
 20
223.55499999999989
 30
0.0
 11
129.33699999999999
 21
223.55499999999989
 31
0.0
  0
LINE
  5
242
  8
0
 62
     7
 10
119.455
 20
240.22099999999989
 30
0.0
 11
129.33699999999999
 21
240.22099999999989
 31
0.0
  0
LINE
  5
243
  8
0
 62
     7
 10
141.0089999999999
 20
225.22399999999999
 30
0.0
 11
142.33199999999991
 21
224.4609999999999
 31
0.0
  0
LINE
  5
244
  8
0
 62
     7
 10
142.33199999999991
 20
224.4609999999999
 30
0.0
 11
141.5679999999999
 21
225.7829999999999
 31
0.0
  0
LINE
  5
245
  8
0
 62
     7
 10
141.5679999999999
 20
225.7829999999999
 30
0.0
 11
141.0089999999999
 21
225.22399999999999
 31
0.0
  0
LINE
  5
246
  8
0
 62
     7
 10
139.57599999999991
 20
227.21599999999989
 30
0.0
 11
142.33199999999991
 21
224.4609999999999
 31
0.0
  0
LINE
  5
247
  8
0
 62
     7
 10
139.57599999999991
 20
243.489
 30
0.0
 11
139.57599999999991
 21
227.21599999999989
 31
0.0
  0
LINE
  5
248
  8
0
 62
     7
 10
129.31200000000001
 20
238.7469999999999
 30
0.0
 11
128.916
 21
240.22200000000001
 31
0.0
  0
LINE
  5
249
  8
0
 62
     7
 10
128.916
 20
240.22200000000001
 30
0.0
 11
128.52099999999999
 21
238.7469999999999
 31
0.0
  0
LINE
  5
24A
  8
0
 62
     7
 10
128.52099999999999
 20
238.7469999999999
 30
0.0
 11
129.31200000000001
 21
238.7469999999999
 31
0.0
  0
LINE
  5
24B
  8
0
 62
     7
 10
128.53100000000001
 20
225.029
 30
0.0
 11
128.92599999999999
 21
223.55499999999989
 31
0.0
  0
LINE
  5
24C
  8
0
 62
     7
 10
128.92599999999999
 20
223.55499999999989
 30
0.0
 11
129.32099999999991
 21
225.029
 31
0.0
  0
LINE
  5
24D
  8
0
 62
     7
 10
129.32099999999991
 20
225.029
 30
0.0
 11
128.53100000000001
 21
225.029
 31
0.0
  0
LINE
  5
24E
  8
0
 62
     7
 10
128.92599999999999
 20
240.22099999999989
 30
0.0
 11
128.92599999999999
 21
223.55499999999989
 31
0.0
  0
LINE
  5
24F
  8
0
 62
     7
 10
148.648
 20
227.62
 30
0.0
 11
148.648
 21
217.798
 31
0.0
  0
LINE
  5
250
  8
0
 62
     7
 10
142.31499999999991
 20
222.93899999999999
 30
0.0
 11
142.31499999999991
 21
217.798
 31
0.0
  0
LINE
  5
251
  8
0
 62
     7
 10
143.7889999999999
 20
218.602
 30
0.0
 11
142.31399999999991
 21
218.208
 31
0.0
  0
LINE
  5
252
  8
0
 62
     7
 10
142.31399999999991
 20
218.208
 30
0.0
 11
143.7889999999999
 21
217.81200000000001
 31
0.0
  0
LINE
  5
253
  8
0
 62
     7
 10
143.7889999999999
 20
217.81200000000001
 30
0.0
 11
143.7889999999999
 21
218.602
 31
0.0
  0
LINE
  5
254
  8
0
 62
     7
 10
147.17400000000001
 20
217.822
 30
0.0
 11
148.649
 21
218.21700000000001
 31
0.0
  0
LINE
  5
255
  8
0
 62
     7
 10
148.649
 20
218.21700000000001
 30
0.0
 11
147.17400000000001
 21
218.61199999999991
 31
0.0
  0
LINE
  5
256
  8
0
 62
     7
 10
147.17400000000001
 20
218.61199999999991
 30
0.0
 11
147.17400000000001
 21
217.822
 31
0.0
  0
LINE
  5
257
  8
0
 62
     7
 10
142.31499999999991
 20
218.208
 30
0.0
 11
148.648
 21
218.208
 31
0.0
  0
LINE
  5
258
  8
0
 62
     7
 10
118.812
 20
240.84999999999999
 30
0.0
 11
118.812
 21
247.03499999999991
 31
0.0
  0
LINE
  5
259
  8
0
 62
     7
 10
108.8129999999999
 20
240.84999999999999
 30
0.0
 11
108.8129999999999
 21
247.03499999999991
 31
0.0
  0
LINE
  5
25A
  8
0
 62
     7
 10
150.12200000000001
 20
245.87899999999999
 30
0.0
 11
148.648
 21
245.48400000000001
 31
0.0
  0
LINE
  5
25B
  8
0
 62
     7
 10
148.648
 20
245.48400000000001
 30
0.0
 11
150.12200000000001
 21
245.089
 31
0.0
  0
LINE
  5
25C
  8
0
 62
     7
 10
150.12200000000001
 20
245.089
 30
0.0
 11
150.12200000000001
 21
245.87899999999999
 31
0.0
  0
LINE
  5
25D
  8
0
 62
     7
 10
146.67400000000001
 20
245.089
 30
0.0
 11
148.14799999999991
 21
245.48400000000001
 31
0.0
  0
LINE
  5
25E
  8
0
 62
     7
 10
148.14799999999991
 20
245.48400000000001
 30
0.0
 11
146.67400000000001
 21
245.87899999999999
 31
0.0
  0
LINE
  5
25F
  8
0
 62
     7
 10
146.67400000000001
 20
245.87899999999999
 30
0.0
 11
146.67400000000001
 21
245.089
 31
0.0
  0
LINE
  5
260
  8
0
 62
     7
 10
142.80799999999999
 20
245.48400000000001
 30
0.0
 11
151.10099999999991
 21
245.48400000000001
 31
0.0
  0
LINE
  5
261
  8
0
 62
     7
 10
110.28700000000001
 20
247.01900000000001
 30
0.0
 11
108.8129999999999
 21
246.624
 31
0.0
  0
LINE
  5
262
  8
0
 62
     7
 10
108.8129999999999
 20
246.624
 30
0.0
 11
110.28700000000001
 21
246.22900000000001
 31
0.0
  0
LINE
  5
263
  8
0
 62
     7
 10
110.28700000000001
 20
246.22900000000001
 30
0.0
 11
110.28700000000001
 21
247.01900000000001
 31
0.0
  0
LINE
  5
264
  8
0
 62
     7
 10
117.3389999999999
 20
246.238
 30
0.0
 11
118.8129999999999
 21
246.6329999999999
 31
0.0
  0
LINE
  5
265
  8
0
 62
     7
 10
118.8129999999999
 20
246.6329999999999
 30
0.0
 11
117.3389999999999
 21
247.02799999999991
 31
0.0
  0
LINE
  5
266
  8
0
 62
     7
 10
117.3389999999999
 20
247.02799999999991
 30
0.0
 11
117.3389999999999
 21
246.238
 31
0.0
  0
LINE
  5
267
  8
0
 62
     7
 10
108.8129999999999
 20
246.624
 30
0.0
 11
118.812
 21
246.624
 31
0.0
  0
LINE
  5
268
  8
0
 62
     7
 10
139.453
 20
56.778300000000002
 30
0.0
 11
137.24100000000001
 21
56.185699999999997
 31
0.0
  0
LINE
  5
269
  8
0
 62
     7
 10
137.24100000000001
 20
56.185699999999997
 30
0.0
 11
139.453
 21
55.593200000000003
 31
0.0
  0
LINE
  5
26A
  8
0
 62
     7
 10
139.453
 20
55.593200000000003
 30
0.0
 11
139.453
 21
56.778300000000002
 31
0.0
  0
LINE
  5
26B
  8
0
 62
     7
 10
153.631
 20
55.607599999999998
 30
0.0
 11
155.84200000000001
 21
56.200200000000002
 31
0.0
  0
LINE
  5
26C
  8
0
 62
     7
 10
155.84200000000001
 20
56.200200000000002
 30
0.0
 11
153.631
 21
56.7928
 31
0.0
  0
LINE
  5
26D
  8
0
 62
     7
 10
153.631
 20
56.7928
 30
0.0
 11
153.631
 21
55.607599999999998
 31
0.0
  0
LINE
  5
26E
  8
0
 62
     7
 10
137.24199999999999
 20
56.192599999999999
 30
0.0
 11
155.84100000000001
 21
56.192599999999999
 31
0.0
  0
LINE
  5
26F
  8
0
 62
     7
 10
137.24199999999999
 20
55.485700000000001
 30
0.0
 11
137.24199999999999
 21
62.716999999999999
 31
0.0
  0
LINE
  5
270
  8
0
 62
     7
 10
155.84200000000001
 20
55.500199999999992
 30
0.0
 11
155.84200000000001
 21
92.630899999999997
 31
0.0
  0
TEXT
  5
271
  8
_________2
 62
     7
 10
90.092336166666669
 20
13.218199999999991
 30
0.0
 40
3.6545800000000002
  1
1 ： 10
 41
0.5
 72
     1
 11
93.960099999999997
 21
13.218199999999991
 31
0.0
  0
LINE
  5
272
  8
_________2
 62
     7
 10
205.30099999999999
 20
127.41200000000001
 30
0.0
 11
183.55000000000001
 21
127.41200000000001
 31
0.0
  0
LINE
  5
273
  8
_________2
 62
     7
 10
100.2999999999999
 20
-4.0903900000000002
 30
0.0
 11
100.2999999999999
 21
-21.070699999999992
 31
0.0
  0
LINE
  5
274
  8
_________2
 62
     7
 10
100.2999999999999
 20
275.93099999999993
 30
0.0
 11
100.2999999999999
 21
258.911
 31
0.0
  0
LINE
  5
275
  8
_________2
 62
     7
 10
17.049499999999998
 20
127.41200000000001
 30
0.0
 11
-4.70052
 21
127.41200000000001
 31
0.0
  0
LINE
  5
276
  8
_________2
 62
     7
 10
76.741399999999999
 20
29.805099999999999
 30
0.0
 11
74.554699999999997
 21
29.805099999999999
 31
0.0
  0
LINE
  5
277
  8
_________2
 62
     7
 10
77.233999999999995
 20
29.805099999999999
 30
0.0
 11
76.981800000000007
 21
29.805099999999999
 31
0.0
  0
LINE
  5
278
  8
_________2
 62
     7
 10
77.726299999999995
 20
29.805099999999999
 30
0.0
 11
80.651600000000002
 21
29.805099999999999
 31
0.0
  0
LINE
  5
279
  8
_________2
 62
     7
 10
77.233999999999995
 20
29.805099999999999
 30
0.0
 11
77.485900000000001
 21
29.805099999999999
 31
0.0
  0
LINE
  5
27A
  8
_________2
 62
     7
 10
70.837500000000006
 20
29.805099999999999
 30
0.0
 11
68.650499999999994
 21
29.805099999999999
 31
0.0
  0
LINE
  5
27B
  8
_________2
 62
     7
 10
71.329800000000006
 20
29.805099999999999
 30
0.0
 11
71.0779
 21
29.805099999999999
 31
0.0
  0
LINE
  5
27C
  8
_________2
 62
     7
 10
71.329800000000006
 20
30.2974
 30
0.0
 11
71.329800000000006
 21
32.484400000000001
 31
0.0
  0
LINE
  5
27D
  8
_________2
 62
     7
 10
71.329800000000006
 20
29.805099999999999
 30
0.0
 11
71.329800000000006
 21
30.057600000000001
 31
0.0
  0
LINE
  5
27E
  8
_________2
 62
     7
 10
71.822400000000002
 20
29.805099999999999
 30
0.0
 11
74.009
 21
29.805099999999999
 31
0.0
  0
LINE
  5
27F
  8
_________2
 62
     7
 10
71.329800000000006
 20
29.805099999999999
 30
0.0
 11
71.581999999999994
 21
29.805099999999999
 31
0.0
  0
LINE
  5
280
  8
_________2
 62
     7
 10
71.329800000000006
 20
29.312799999999999
 30
0.0
 11
71.329800000000006
 21
27.126200000000001
 31
0.0
  0
LINE
  5
281
  8
_________2
 62
     7
 10
71.329800000000006
 20
29.805099999999999
 30
0.0
 11
71.329800000000006
 21
29.5532
 31
0.0
  0
LINE
  5
282
  8
_________2
 62
     7
 10
75.040899999999993
 20
28.585899999999992
 30
0.0
 11
80.218500000000006
 21
27.720400000000001
 31
0.0
  0
LINE
  5
283
  8
_________2
 62
     7
 10
75.040899999999993
 20
31.024699999999999
 30
0.0
 11
80.218500000000006
 21
31.8901
 31
0.0
  0
LINE
  5
284
  8
_________2
 62
     7
 10
80.218500000000006
 20
27.720400000000001
 30
0.0
 11
80.218500000000006
 21
31.8901
 31
0.0
  0
LINE
  5
285
  8
_________2
 62
     7
 10
75.040899999999993
 20
28.585899999999992
 30
0.0
 11
75.040899999999993
 21
31.024699999999999
 31
0.0
  0
ARC
  5
286
  8
_________2
 62
     7
 10
71.283201000000005
 20
29.758156
 30
0.0
 40
1.2673589999999999
 50
2.122214
 51
87.893958999999995
  0
ARC
  5
287
  8
_________2
 62
     7
 10
71.376300000000001
 20
29.758562000000001
 30
0.0
 40
1.2669509999999991
 50
92.104485999999994
 51
177.89548500000001
  0
ARC
  5
288
  8
_________2
 62
     7
 10
71.376343999999989
 20
29.852014
 30
0.0
 40
1.2670099999999991
 50
182.1225849999999
 51
267.89363300000002
  0
ARC
  5
289
  8
_________2
 62
     7
 10
71.282900999999995
 20
29.852677
 30
0.0
 40
1.267684
 50
272.11907200000002
 51
357.848567
  0
ARC
  5
28A
  8
_________2
 62
     7
 10
71.249426999999997
 20
29.725096999999991
 30
0.0
 40
2.1664659999999989
 50
2.1159629999999998
 51
87.874558999999991
  0
ARC
  5
28B
  8
_________2
 62
     7
 10
71.409410999999992
 20
29.725809000000002
 30
0.0
 40
2.1657280000000001
 50
92.107296999999988
 51
177.902142
  0
ARC
  5
28C
  8
_________2
 62
     7
 10
71.409789000000004
 20
29.885100999999999
 30
0.0
 40
2.1661329999999999
 50
182.116929
 51
267.88310000000001
  0
ARC
  5
28D
  8
_________2
 62
     7
 10
71.249769999999998
 20
29.88509199999999
 30
0.0
 40
2.1661229999999989
 50
272.11667999999992
 51
357.88332999999989
  0
TEXT
  5
28E
  8
_________2
 62
     7
 10
104.605
 20
1.6794899999999999
 30
0.0
 40
3.0923400000000001
  1
図番
 41
0.5
  0
LINE
  5
28F
  8
_________2
 62
     7
 10
103.55
 20
5.9087199999999989
 30
0.0
 11
183.55099999999999
 21
5.9087199999999989
 31
0.0
  0
TEXT
  5
290
  8
_________2
 62
     7
 10
104.605
 20
11.679600000000001
 30
0.0
 40
3.0923400000000001
  1
品番
 41
0.5
  0
TEXT
  5
291
  8
_________2
 62
     7
 10
104.605
 20
31.8184
 30
0.0
 40
3.0923400000000001
  1
名称
 41
0.5
  0
TEXT
  5
292
  8
_________2
 62
     7
 10
91.84545833333334
 20
26.822299999999998
 30
0.0
 40
3.6545800000000002
  1
mm
 41
0.5
 72
     1
 11
93.368200000000016
 21
26.822299999999998
 31
0.0
  0
TEXT
  5
293
  8
_________2
 62
     7
 10
85.643199999999993
 20
31.8184
 30
0.0
 40
3.0923400000000001
  1
単位
 41
0.5
  0
TEXT
  5
294
  8
_________2
 62
     7
 10
85.643199999999993
 20
19.411200000000001
 30
0.0
 40
3.0923400000000001
  1
尺度
 41
0.5
  0
TEXT
  5
295
  8
_________2
 62
     7
 10
137.31847500000001
 20
9.1082000000000001
 30
0.0
 40
3.9357000000000002
  1
CEL1585
 41
0.5
 72
     1
 11
143.55000000000001
 21
9.1082000000000001
 31
0.0
  0
TEXT
  5
296
  8
_________2
 62
     7
 10
137.31847500000001
 20
-0.8919409999999999
 30
0.0
 40
3.9357000000000002
  1
CEL1585
 41
0.5
 72
     1
 11
143.55000000000001
 21
-0.8919409999999999
 31
0.0
  0
TEXT
  5
297
  8
_________2
 62
     7
 10
24.587099999999989
 20
0.707627
 30
0.0
 40
3.9357000000000002
  1
実容量：9L、重量16kg、オーバーフロー付
 41
0.5
  0
TEXT
  5
298
  8
_________2
 62
     7
 10
109.179
 20
24.226400000000002
 30
0.0
 40
3.9357000000000002
  1
アンダーカウンター式洗面器
 41
0.5
  0
TEXT
  5
299
  8
_________2
 62
     7
 10
39.425300333333333
 20
13.603400000000001
 30
0.0
 40
3.6545800000000002
  1
早川
 41
0.5
 72
     1
 11
41.313499999999998
 21
13.603400000000001
 31
0.0
  0
TEXT
  5
29A
  8
_________2
 62
     7
 10
20.79039066666666
 20
13.603400000000001
 30
0.0
 40
3.6545800000000002
  1
石原
 41
0.5
 72
     1
 11
22.7395
 21
13.603400000000001
 31
0.0
  0
TEXT
  5
29B
  8
_________2
 62
     7
 10
67.785799999999995
 20
13.218199999999991
 30
0.0
 40
3.6545800000000002
  1
12.11.12
 41
0.5
  0
TEXT
  5
29C
  8
_________2
 62
     7
 10
66.593100000000007
 20
19.411200000000001
 30
0.0
 40
3.0923400000000001
  1
日付
 41
0.5
  0
TEXT
  5
29D
  8
_________2
 62
     7
 10
29.639399999999998
 20
19.411200000000001
 30
0.0
 40
3.0923400000000001
  1
検図
 41
0.5
  0
TEXT
  5
29E
  8
_________2
 62
     7
 10
18.021399999999989
 20
5.2117699999999987
 30
0.0
 40
3.0923400000000001
  1
備考
 41
0.5
  0
TEXT
  5
29F
  8
_________2
 62
     7
 10
18.021399999999989
 20
19.411200000000001
 30
0.0
 40
3.0923400000000001
  1
製図
 41
0.5
  0
TEXT
  5
2A0
  8
_________2
 62
     7
 10
23.78886533333333
 20
27.936800000000002
 30
0.0
 40
4.4979399999999989
  1
セラトレーディング株式会社
 41
0.5
 72
     1
 11
41.180900000000001
 21
27.936800000000002
 31
0.0
  0
LINE
  5
2A1
  8
_________2
 62
     7
 10
183.55099999999999
 20
-4.0910799999999998
 30
0.0
 11
17.049499999999998
 21
-4.0910799999999998
 31
0.0
  0
LINE
  5
2A2
  8
_________2
 62
     7
 10
17.049499999999998
 20
-4.0910799999999998
 30
0.0
 11
17.049499999999998
 21
258.911
 31
0.0
  0
LINE
  5
2A3
  8
_________2
 62
     7
 10
17.049499999999998
 20
258.911
 30
0.0
 11
183.55099999999999
 21
258.911
 31
0.0
  0
LINE
  5
2A4
  8
_________2
 62
     7
 10
183.55099999999999
 20
258.911
 30
0.0
 11
183.55099999999999
 21
-4.0910799999999998
 31
0.0
  0
LINE
  5
2A5
  8
_________2
 62
     7
 10
65.549899999999994
 20
9.4096499999999992
 30
0.0
 11
65.549899999999994
 21
35.909500000000001
 31
0.0
  0
LINE
  5
2A6
  8
_________2
 62
     7
 10
84.550099999999986
 20
9.4096499999999992
 30
0.0
 11
84.550099999999986
 21
35.909500000000001
 31
0.0
  0
LINE
  5
2A7
  8
_________2
 62
     7
 10
103.55
 20
-4.0910799999999998
 30
0.0
 11
103.55
 21
35.909500000000001
 31
0.0
  0
LINE
  5
2A8
  8
_________2
 62
     7
 10
28.549700000000001
 20
9.4096499999999992
 30
0.0
 11
28.549700000000001
 21
23.409199999999998
 31
0.0
  0
LINE
  5
2A9
  8
_________2
 62
     7
 10
17.049499999999998
 20
9.4096499999999992
 30
0.0
 11
103.55
 21
9.4096499999999992
 31
0.0
  0
LINE
  5
2AA
  8
_________2
 62
     7
 10
17.049499999999998
 20
23.409199999999998
 30
0.0
 11
103.55
 21
23.409199999999998
 31
0.0
  0
LINE
  5
2AB
  8
_________2
 62
     7
 10
103.55
 20
15.9092
 30
0.0
 11
183.55099999999999
 21
15.9092
 31
0.0
  0
LINE
  5
2AC
  8
_________2
 62
     7
 10
17.049499999999998
 20
35.909500000000001
 30
0.0
 11
183.55099999999999
 21
35.909500000000001
 31
0.0
  0
ENDSEC
  0
EOF
