  0
SECTION
  2
HEADER
  9
$ACADVER
  1
AC1009
  9
$INSBASE
 10
0.0
 20
0.0
 30
0.0
  9
$EXTMIN
 10
-4.70052
 20
-21.071400000000001
 30
0.0
  9
$EXTMAX
 10
205.30099999999999
 20
275.93099999999998
 30
0.0
  9
$LIMMIN
 10
0.0
 20
0.0
  9
$LIMMAX
 10
12.0
 20
9.0
  9
$ORTHOMODE
 70
     0
  9
$REGENMODE
 70
     1
  9
$FILLMODE
 70
     1
  9
$QTEXTMODE
 70
     0
  9
$MIRRTEXT
 70
     1
  9
$DRAGMODE
 70
     2
  9
$LTSCALE
 40
1.0
  9
$OSMODE
 70
    37
  9
$ATTMODE
 70
     1
  9
$TEXTSIZE
 40
0.0
  9
$TRACEWID
 40
0.05
  9
$TEXTSTYLE
  7
STANDARD
  9
$CLAYER
  8
0
  9
$CELTYPE
  6
CONTINUOUS
  9
$CECOLOR
 62
   256
  9
$DIMSCALE
 40
1.0
  9
$DIMASZ
 40
0.18
  9
$DIMEXO
 40
0.0625
  9
$DIMDLI
 40
0.38
  9
$DIMRND
 40
0.0
  9
$DIMDLE
 40
0.0
  9
$DIMEXE
 40
0.18
  9
$DIMTP
 40
0.0
  9
$DIMTM
 40
0.0
  9
$DIMTXT
 40
0.18
  9
$DIMCEN
 40
0.09
  9
$DIMTSZ
 40
0.0
  9
$DIMTOL
 70
     0
  9
$DIMLIM
 70
     0
  9
$DIMTIH
 70
     1
  9
$DIMTOH
 70
     1
  9
$DIMSE1
 70
     0
  9
$DIMSE2
 70
     0
  9
$DIMTAD
 70
     0
  9
$DIMZIN
 70
     0
  9
$DIMBLK
  1

  9
$DIMASO
 70
     1
  9
$DIMSHO
 70
     1
  9
$DIMPOST
  1

  9
$DIMAPOST
  1

  9
$DIMALT
 70
     0
  9
$DIMALTD
 70
     2
  9
$DIMALTF
 40
25.399999999999999
  9
$DIMLFAC
 40
1.0
  9
$DIMTOFL
 70
     0
  9
$DIMTVP
 40
0.0
  9
$DIMTIX
 70
     0
  9
$DIMSOXD
 70
     0
  9
$DIMSAH
 70
     0
  9
$DIMBLK1
  1

  9
$DIMBLK2
  1

  9
$DIMSTYLE
  2
STANDARD
  9
$DIMCLRD
 70
     0
  9
$DIMCLRE
 70
     0
  9
$DIMCLRT
 70
     0
  9
$DIMTFAC
 40
1.0
  9
$DIMGAP
 40
0.09
  9
$LUNITS
 70
     2
  9
$LUPREC
 70
     4
  9
$SKETCHINC
 40
0.1
  9
$FILLETRAD
 40
0.0
  9
$AUNITS
 70
     0
  9
$AUPREC
 70
     0
  9
$MENU
  1
.
  9
$ELEVATION
 40
0.0
  9
$PELEVATION
 40
0.0
  9
$THICKNESS
 40
0.0
  9
$LIMCHECK
 70
     0
  9
$BLIPMODE
 70
     0
  9
$CHAMFERA
 40
0.0
  9
$CHAMFERB
 40
0.0
  9
$SKPOLY
 70
     0
  9
$TDCREATE
 40
2444972.375
  9
$TDUPDATE
 40
2458214.2490925342
  9
$TDINDWG
 40
0.0000313889
  9
$TDUSRTIMER
 40
0.0000313889
  9
$USRTIMER
 70
     1
  9
$ANGBASE
 50
0.0
  9
$ANGDIR
 70
     0
  9
$PDMODE
 70
     0
  9
$PDSIZE
 40
0.0
  9
$PLINEWID
 40
0.0
  9
$COORDS
 70
     1
  9
$SPLFRAME
 70
     0
  9
$SPLINETYPE
 70
     6
  9
$SPLINESEGS
 70
     8
  9
$ATTDIA
 70
     1
  9
$ATTREQ
 70
     1
  9
$HANDLING
 70
     1
  9
$HANDSEED
  5
1DA
  9
$SURFTAB1
 70
     6
  9
$SURFTAB2
 70
     6
  9
$SURFTYPE
 70
     6
  9
$SURFU
 70
     6
  9
$SURFV
 70
     6
  9
$UCSNAME
  2

  9
$UCSORG
 10
0.0
 20
0.0
 30
0.0
  9
$UCSXDIR
 10
1.0
 20
0.0
 30
0.0
  9
$UCSYDIR
 10
0.0
 20
1.0
 30
0.0
  9
$PUCSNAME
  2

  9
$PUCSORG
 10
0.0
 20
0.0
 30
0.0
  9
$PUCSXDIR
 10
1.0
 20
0.0
 30
0.0
  9
$PUCSYDIR
 10
0.0
 20
1.0
 30
0.0
  9
$USERI1
 70
     0
  9
$USERI2
 70
     0
  9
$USERI3
 70
     0
  9
$USERI4
 70
     0
  9
$USERI5
 70
     0
  9
$USERR1
 40
0.0
  9
$USERR2
 40
0.0
  9
$USERR3
 40
0.0
  9
$USERR4
 40
0.0
  9
$USERR5
 40
0.0
  9
$WORLDVIEW
 70
     1
  9
$SHADEDGE
 70
     3
  9
$SHADEDIF
 70
    70
  9
$TILEMODE
 70
     1
  9
$MAXACTVP
 70
    48
  9
$PLIMCHECK
 70
     0
  9
$PEXTMIN
 10
1.0000000000000000E+020
 20
1.0000000000000000E+020
 30
1.0000000000000000E+020
  9
$PEXTMAX
 10
-1.0000000000000000E+020
 20
-1.0000000000000000E+020
 30
-1.0000000000000000E+020
  9
$PLIMMIN
 10
0.0
 20
0.0
  9
$PLIMMAX
 10
12.0
 20
9.0
  9
$UNITMODE
 70
     0
  9
$VISRETAIN
 70
     1
  9
$PLINEGEN
 70
     0
  9
$PSLTSCALE
 70
     1
  0
ENDSEC
  0
SECTION
  2
TABLES
  0
TABLE
  2
VPORT
 70
     1
  0
VPORT
  2
*ACTIVE
 70
     0
 10
0.0
 20
0.0
 11
1.0
 21
1.0
 12
190.8818955579932
 22
127.4298
 13
0.0
 23
0.0
 14
1.0
 24
1.0
 15
0.0
 25
0.0
 16
0.0
 26
0.0
 36
1.0
 17
0.0
 27
0.0
 37
0.0
 40
280.9492874949953
 41
2.298642533936651
 42
50.0
 43
0.0
 44
0.0
 50
0.0
 51
0.0
 71
     0
 72
   100
 73
     1
 74
     1
 75
     0
 76
     0
 77
     0
 78
     0
  0
ENDTAB
  0
TABLE
  2
LTYPE
 70
     3
  0
LTYPE
  2
CONTINUOUS
 70
     0
  3
Solid line
 72
    65
 73
     0
 40
0.0
  0
LTYPE
  2
AIGENLINE001
 70
     0
  3
generate AI->DXF Converter
 72
    65
 73
     4
 40
5.8561449999999988
 49
3.5278
 49
-0.776115
 49
0.776115
 49
-0.776115
  0
LTYPE
  2
AIGENLINE002
 70
     0
  3
generate AI->DXF Converter
 72
    65
 73
     2
 40
1.5522299999999991
 49
0.776115
 49
-0.776115
  0
ENDTAB
  0
TABLE
  2
LAYER
 70
     2
  0
LAYER
  2
0
 70
     0
 62
     7
  6
CONTINUOUS
  0
LAYER
  2
_________2
 70
     0
 62
     7
  6
CONTINUOUS
  0
ENDTAB
  0
TABLE
  2
STYLE
 70
     1
  0
STYLE
  2
STANDARD
 70
     0
 40
0.0
 41
0.0
 50
0.0
 71
     0
 42
0.0
  3
TXT
  4
EXTFONT.SHX
  0
ENDTAB
  0
TABLE
  2
VIEW
 70
     0
  0
ENDTAB
  0
TABLE
  2
UCS
 70
     0
  0
ENDTAB
  0
TABLE
  2
APPID
 70
     3
  0
APPID
  2
ACAD
 70
     0
  0
APPID
  2
ACAD_NAV_VCDISPLAY
 70
     0
  0
APPID
  2
ACAD_MLEADERVER
 70
     0
  0
ENDTAB
  0
TABLE
  2
DIMSTYLE
 70
     1
  0
DIMSTYLE
  2
STANDARD
 70
     0
  3

  4

  5

  6

  7

 40
1.0
 41
0.18
 42
0.0625
 43
0.38
 44
0.18
 45
0.0
 46
0.0
 47
0.0
 48
0.0
140
0.18
141
0.09
142
0.0
143
25.399999999999999
144
1.0
145
0.0
146
1.0
147
0.09
 71
     0
 72
     0
 73
     1
 74
     1
 75
     0
 76
     0
 77
     0
 78
     0
170
     0
171
     2
172
     0
173
     0
174
     0
175
     0
176
     0
177
     0
178
     0
  0
ENDTAB
  0
ENDSEC
  0
SECTION
  2
BLOCKS
  0
BLOCK
  8
0
  2
$MODEL_SPACE
 70
     0
 10
0.0
 20
0.0
 30
0.0
  3
$MODEL_SPACE
  1

  0
ENDBLK
  5
1A
  8
0
  0
BLOCK
 67
     1
  8
0
  2
$PAPER_SPACE
 70
     0
 10
0.0
 20
0.0
 30
0.0
  3
$PAPER_SPACE
  1

  0
ENDBLK
  5
17
 67
     1
  8
0
  0
ENDSEC
  0
SECTION
  2
ENTITIES
  0
TEXT
  5
23
  8
0
 62
     7
 10
72.656279999999995
 20
196.053
 30
0.0
 40
3.0923400000000001
  1
%%c46
 41
0.5
 72
     2
 11
76.779399999999995
 21
196.053
 31
0.0
  0
TEXT
  5
24
  8
0
 62
     7
 10
94.586600000000004
 20
99.131372499999998
 30
0.0
 40
3.0923400000000001
  1
60
 50
90.0
 41
0.5
 72
     1
 11
94.586600000000004
 21
100.291
 31
0.0
  0
TEXT
  5
25
  8
0
 62
     7
 10
102.46299999999999
 20
92.375982500000006
 30
0.0
 40
3.0923400000000001
  1
120
 50
90.0
 41
0.5
 72
     1
 11
102.46299999999999
 21
94.051000000000002
 31
0.0
  0
TEXT
  5
26
  8
0
 62
     7
 10
138.59075999999999
 20
149.387
 30
0.0
 40
3.0923400000000001
  1
カウンター切込寸法
 41
0.5
 72
     1
 11
146.83699999999999
 21
149.387
 31
0.0
  0
TEXT
  5
27
  8
0
 62
     7
 10
164.00899999999999
 20
176.5979825
 30
0.0
 40
3.0923400000000001
  1
120
 50
90.0
 41
0.5
 72
     1
 11
164.00899999999999
 21
178.273
 31
0.0
  0
TEXT
  5
28
  8
0
 62
     7
 10
97.074399999999997
 20
176.32128750000001
 30
0.0
 40
3.0923400000000001
  1
250
 50
90.0
 41
0.5
 72
     1
 11
97.074399999999997
 21
178.25399999999999
 31
0.0
  0
TEXT
  5
29
  8
0
 62
     7
 10
81.103399999999979
 20
177.09437249999999
 30
0.0
 40
3.0923400000000001
  1
80
 50
90.0
 41
0.5
 72
     1
 11
81.103399999999979
 21
178.25399999999999
 31
0.0
  0
TEXT
  5
2A
  8
0
 62
     7
 10
75.506799999999984
 20
177.36521999999999
 30
0.0
 40
3.0923400000000001
  1
21
 50
90.0
 41
0.5
 72
     1
 11
75.506799999999984
 21
178.39599999999999
 31
0.0
  0
TEXT
  5
2B
  8
0
 62
     7
 10
60.156087499999998
 20
143.523
 30
0.0
 40
3.0923400000000001
  1
250
 41
0.5
 72
     1
 11
62.088799999999999
 21
143.523
 31
0.0
  0
TEXT
  5
2C
  8
0
 62
     7
 10
149.3249825
 20
172.25399999999999
 30
0.0
 40
3.0923400000000001
  1
R10
 41
0.5
 72
     1
 11
151.0
 21
172.25399999999999
 31
0.0
  0
TEXT
  5
2D
  8
0
 62
     7
 10
136.62598249999999
 20
180.98500000000001
 30
0.0
 40
3.0923400000000001
  1
R10
 41
0.5
 72
     1
 11
138.30099999999999
 21
180.98500000000001
 31
0.0
  0
TEXT
  5
2E
  8
0
 62
     7
 10
142.97498250000001
 20
159.291
 30
0.0
 40
3.0923400000000001
  1
120
 41
0.5
 72
     1
 11
144.65000000000001
 21
159.291
 31
0.0
  0
TEXT
  5
2F
  8
0
 62
     7
 10
60.9291725
 20
159.72900000000001
 30
0.0
 40
3.0923400000000001
  1
80
 41
0.5
 72
     1
 11
62.088799999999999
 21
159.72900000000001
 31
0.0
  0
TEXT
  5
30
  8
0
 62
     7
 10
61.199919999999992
 20
165.32499999999999
 30
0.0
 40
3.0923400000000001
  1
21
 41
0.5
 72
     1
 11
62.230699999999992
 21
165.32499999999999
 31
0.0
  0
LINE
  5
31
  8
0
  6
AIGENLINE001
 62
     7
 10
90.488100000000017
 20
178.18299999999999
 30
0.0
 11
83.079700000000003
 21
178.18299999999999
 31
0.0
  0
LINE
  5
32
  8
0
  6
AIGENLINE001
 62
     7
 10
62.017800000000001
 20
157.751
 30
0.0
 11
62.017800000000001
 21
150.3429999999999
 31
0.0
  0
LINE
  5
33
  8
0
 62
     7
 10
59.676000000000002
 20
171.761
 30
0.0
 11
60.073500000000003
 21
174.01400000000001
 31
0.0
  0
LINE
  5
34
  8
0
 62
     7
 10
60.073500000000003
 20
174.01400000000001
 30
0.0
 11
58.602499999999999
 21
172.261
 31
0.0
  0
LINE
  5
35
  8
0
 62
     7
 10
58.602499999999999
 20
172.261
 30
0.0
 11
59.676000000000002
 21
171.761
 31
0.0
  0
LINE
  5
36
  8
0
 62
     7
 10
64.365099999999998
 20
184.60300000000001
 30
0.0
 11
63.9679
 21
182.34899999999999
 31
0.0
  0
LINE
  5
37
  8
0
 62
     7
 10
63.9679
 20
182.34899999999999
 30
0.0
 11
65.438999999999993
 21
184.102
 31
0.0
  0
LINE
  5
38
  8
0
 62
     7
 10
65.438999999999993
 20
184.102
 30
0.0
 11
64.365099999999998
 21
184.60300000000001
 31
0.0
  0
LINE
  5
39
  8
0
 62
     7
 10
70.024100000000004
 20
195.35299999999989
 30
0.0
 11
58.81260000000001
 21
171.31
 31
0.0
  0
LINE
  5
3A
  8
0
 62
     7
 10
70.024100000000004
 20
195.35299999999989
 30
0.0
 11
76.779399999999995
 21
195.35299999999989
 31
0.0
  0
ARC
  5
3B
  8
0
 62
     7
 10
154.464158
 20
168.183132
 30
0.0
 40
1.9999769999999999
 50
270.00248699999997
 51
0.002457
  0
LINE
  5
3C
  8
0
 62
     7
 10
154.464
 20
166.18299999999999
 30
0.0
 11
134.464
 21
166.18299999999999
 31
0.0
  0
ARC
  5
3D
  8
0
 62
     7
 10
134.464046
 20
168.183131
 30
0.0
 40
1.9999759999999991
 50
179.99750299999999
 51
269.99755199999998
  0
LINE
  5
3E
  8
0
 62
     7
 10
132.464
 20
168.18299999999999
 30
0.0
 11
132.464
 21
188.18299999999999
 31
0.0
  0
ARC
  5
3F
  8
0
 62
     7
 10
134.46396100000001
 20
188.18332899999999
 30
0.0
 40
1.9998910000000001
 50
90.0
 51
179.99996999999999
  0
LINE
  5
40
  8
0
 62
     7
 10
134.464
 20
190.18299999999999
 30
0.0
 11
154.464
 21
190.18299999999999
 31
0.0
  0
ARC
  5
41
  8
0
 62
     7
 10
154.46424400000001
 20
188.18332899999999
 30
0.0
 40
1.9998910000000001
 50
0.00001
 51
89.999980000000008
  0
LINE
  5
42
  8
0
 62
     7
 10
156.464
 20
188.18299999999999
 30
0.0
 11
156.464
 21
168.18299999999999
 31
0.0
  0
LINE
  5
43
  8
0
 62
     7
 10
89.241100000000003
 20
94.250799999999984
 30
0.0
 11
96.216099999999997
 21
94.250799999999984
 31
0.0
  0
LINE
  5
44
  8
0
 62
     7
 10
88.235699999999994
 20
106.251
 30
0.0
 11
104.036
 21
106.251
 31
0.0
  0
LINE
  5
45
  8
0
 62
     7
 10
70.231800000000007
 20
82.250799999999998
 30
0.0
 11
104.036
 21
82.250799999999998
 31
0.0
  0
LINE
  5
46
  8
0
 62
     7
 10
96.083799999999997
 20
104.04000000000001
 30
0.0
 11
95.491600000000005
 21
106.251
 31
0.0
  0
LINE
  5
47
  8
0
 62
     7
 10
95.491600000000005
 20
106.251
 30
0.0
 11
94.899000000000001
 21
104.04000000000001
 31
0.0
  0
LINE
  5
48
  8
0
 62
     7
 10
94.899000000000001
 20
104.04000000000001
 30
0.0
 11
96.083799999999997
 21
104.04000000000001
 31
0.0
  0
LINE
  5
49
  8
0
 62
     7
 10
94.913799999999995
 20
96.461600000000004
 30
0.0
 11
95.506100000000004
 21
94.250799999999984
 31
0.0
  0
LINE
  5
4A
  8
0
 62
     7
 10
95.506100000000004
 20
94.250799999999984
 30
0.0
 11
96.098600000000005
 21
96.461600000000004
 31
0.0
  0
LINE
  5
4B
  8
0
 62
     7
 10
96.098600000000005
 20
96.461600000000004
 30
0.0
 11
94.913799999999995
 21
96.461600000000004
 31
0.0
  0
LINE
  5
4C
  8
0
 62
     7
 10
95.498799999999989
 20
106.251
 30
0.0
 11
95.498799999999989
 21
94.250799999999984
 31
0.0
  0
LINE
  5
4D
  8
0
 62
     7
 10
103.911
 20
104.04000000000001
 30
0.0
 11
103.318
 21
106.251
 31
0.0
  0
LINE
  5
4E
  8
0
 62
     7
 10
103.318
 20
106.251
 30
0.0
 11
102.727
 21
104.04000000000001
 31
0.0
  0
LINE
  5
4F
  8
0
 62
     7
 10
102.727
 20
104.04000000000001
 30
0.0
 11
103.911
 21
104.04000000000001
 31
0.0
  0
LINE
  5
50
  8
0
 62
     7
 10
102.741
 20
84.461500000000015
 30
0.0
 11
103.333
 21
82.250799999999998
 31
0.0
  0
LINE
  5
51
  8
0
 62
     7
 10
103.333
 20
82.250799999999998
 30
0.0
 11
103.925
 21
84.461500000000015
 31
0.0
  0
LINE
  5
52
  8
0
 62
     7
 10
103.925
 20
84.461500000000015
 30
0.0
 11
102.741
 21
84.461500000000015
 31
0.0
  0
LINE
  5
53
  8
0
 62
     7
 10
103.32599999999999
 20
106.251
 30
0.0
 11
103.32599999999999
 21
82.250799999999998
 31
0.0
  0
LINE
  5
54
  8
0
 62
     7
 10
54.017899999999997
 20
186.18299999999999
 30
0.0
 11
38.043900000000001
 21
202.15700000000001
 31
0.0
  0
ARC
  5
55
  8
0
  6
AIGENLINE002
 62
     7
 10
62.017881000000003
 20
178.18327400000001
 30
0.0
 40
4.6000069999999988
 50
269.9989470000001
 51
359.99891700000001
  0
ARC
  5
56
  8
0
  6
AIGENLINE002
 62
     7
 10
62.017793999999988
 20
178.183187
 30
0.0
 40
4.59992
 50
179.99996999999999
 51
270.00002000000001
  0
ARC
  5
57
  8
0
  6
AIGENLINE002
 62
     7
 10
62.017881999999993
 20
178.18327300000001
 30
0.0
 40
4.6000069999999988
 50
90.001073000000005
 51
180.00108299999999
  0
ARC
  5
58
  8
0
  6
AIGENLINE002
 62
     7
 10
62.017793999999988
 20
178.183187
 30
0.0
 40
4.6000940000000003
 50
0.00001
 51
89.999980000000008
  0
LINE
  5
59
  8
0
 62
     7
 10
52.979500000000002
 20
88.033799999999999
 30
0.0
 11
71.055899999999994
 21
88.033799999999999
 31
0.0
  0
LINE
  5
5A
  8
0
 62
     7
 10
51.617699999999999
 20
94.201899999999995
 30
0.0
 11
72.418099999999995
 21
94.201899999999995
 31
0.0
  0
ARC
  5
5B
  8
0
 62
     7
 10
50.644241000000001
 20
93.662109999999984
 30
0.0
 40
1.0063379999999991
 50
3.8247779999999989
 51
35.803789000000002
  0
ARC
  5
5C
  8
0
 62
     7
 10
52.997695
 20
88.666667000000004
 30
0.0
 40
1.0189449999999991
 50
184.32567800000001
 51
241.41275999999999
  0
LINE
  5
5D
  8
0
 62
     7
 10
51.981699999999996
 20
88.589799999999997
 30
0.0
 11
51.648299999999999
 21
93.729200000000006
 31
0.0
  0
LINE
  5
5E
  8
0
 62
     7
 10
54.617699999999999
 20
86.650899999999993
 30
0.0
 11
52.510100000000001
 21
87.771900000000002
 31
0.0
  0
LINE
  5
5F
  8
0
 62
     7
 10
69.017899999999997
 20
82.250799999999998
 30
0.0
 11
69.417900000000003
 21
86.650899999999993
 31
0.0
  0
ARC
  5
60
  8
0
 62
     7
 10
71.038468000000009
 20
88.666297
 30
0.0
 40
1.018346999999999
 50
298.56893500000012
 51
355.69266599999997
  0
LINE
  5
61
  8
0
 62
     7
 10
69.417900000000003
 20
86.650899999999993
 30
0.0
 11
71.525499999999994
 21
87.771900000000002
 31
0.0
  0
LINE
  5
62
  8
0
 62
     7
 10
72.053899999999999
 20
88.589799999999997
 30
0.0
 11
72.387100000000004
 21
93.729200000000006
 31
0.0
  0
ARC
  5
63
  8
0
 62
     7
 10
73.387480999999994
 20
93.663173999999984
 30
0.0
 40
1.0025790000000001
 50
144.116151
 51
176.22174899999999
  0
LINE
  5
64
  8
0
 62
     7
 10
64.6755
 20
86.650899999999993
 30
0.0
 11
69.417900000000003
 21
86.650899999999993
 31
0.0
  0
ARC
  5
65
  8
0
 62
     7
 10
62.017794999999992
 20
96.555290000000014
 30
0.0
 40
10.254778999999999
 50
254.97916599999999
 51
285.02085399999999
  0
LINE
  5
66
  8
0
 62
     7
 10
59.360100000000003
 20
86.650899999999993
 30
0.0
 11
59.517699999999991
 21
82.250799999999998
 31
0.0
  0
LINE
  5
67
  8
0
 62
     7
 10
64.6755
 20
86.650899999999993
 30
0.0
 11
64.517700000000005
 21
82.250799999999998
 31
0.0
  0
LINE
  5
68
  8
0
 62
     7
 10
54.617699999999999
 20
86.650899999999993
 30
0.0
 11
59.360100000000003
 21
86.650899999999993
 31
0.0
  0
LINE
  5
69
  8
0
 62
     7
 10
55.017699999999998
 20
82.250799999999998
 30
0.0
 11
54.617699999999999
 21
86.650899999999993
 31
0.0
  0
LINE
  5
6A
  8
0
 62
     7
 10
69.017899999999997
 20
82.250799999999998
 30
0.0
 11
69.417900000000003
 21
86.650899999999993
 31
0.0
  0
ARC
  5
6B
  8
0
 62
     7
 10
86.594844999999992
 20
153.60631000000001
 30
0.0
 40
0.623558
 50
272.1438740000001
 51
357.85613499999999
  0
ARC
  5
6C
  8
0
 62
     7
 10
37.44036400000001
 20
153.60593499999999
 30
0.0
 40
0.623163
 50
182.110736
 51
267.90574600000008
  0
ARC
  5
6D
  8
0
 62
     7
 10
37.440140999999997
 20
202.760841
 30
0.0
 40
0.622926
 50
92.074595000000016
 51
177.925375
  0
ARC
  5
6E
  8
0
 62
     7
 10
86.595057999999995
 20
202.760457
 30
0.0
 40
0.6233310000000002
 50
2.1086269999999998
 51
87.874910000000014
  0
LINE
  5
6F
  8
0
 62
     7
 10
37.4176
 20
152.983
 30
0.0
 11
86.618200000000002
 21
152.983
 31
0.0
  0
LINE
  5
70
  8
0
 62
     7
 10
36.817599999999999
 20
153.583
 30
0.0
 11
36.817599999999999
 21
202.78299999999999
 31
0.0
  0
LINE
  5
71
  8
0
 62
     7
 10
87.217999999999989
 20
153.583
 30
0.0
 11
87.217999999999989
 21
202.78299999999999
 31
0.0
  0
LINE
  5
72
  8
0
 62
     7
 10
37.4176
 20
203.38300000000001
 30
0.0
 11
86.618200000000002
 21
203.38300000000001
 31
0.0
  0
ARC
  5
73
  8
0
 62
     7
 10
60.333100000000002
 20
176.498492
 30
0.0
 40
0.415558
 50
182.10972899999999
 51
267.89030000000002
  0
ARC
  5
74
  8
0
 62
     7
 10
63.702494999999992
 20
176.49848700000001
 30
0.0
 40
0.415553
 50
272.10907500000002
 51
357.89093400000002
  0
ARC
  5
75
  8
0
 62
     7
 10
63.702490000000012
 20
179.868055
 30
0.0
 40
0.415558
 50
2.109726999999999
 51
87.890263000000004
  0
ARC
  5
76
  8
0
 62
     7
 10
60.333094999999993
 20
179.86806000000001
 30
0.0
 40
0.415553
 50
92.109037999999998
 51
177.89093199999999
  0
LINE
  5
77
  8
0
 62
     7
 10
60.317799999999998
 20
176.083
 30
0.0
 11
63.717799999999997
 21
176.083
 31
0.0
  0
LINE
  5
78
  8
0
 62
     7
 10
60.317799999999998
 20
180.28299999999999
 30
0.0
 11
63.717799999999997
 21
180.28299999999999
 31
0.0
  0
LINE
  5
79
  8
0
 62
     7
 10
64.117800000000003
 20
176.483
 30
0.0
 11
64.117800000000003
 21
179.88300000000001
 31
0.0
  0
LINE
  5
7A
  8
0
 62
     7
 10
59.9178
 20
176.483
 30
0.0
 11
59.9178
 21
179.88300000000001
 31
0.0
  0
ARC
  5
7B
  8
0
 62
     7
 10
37.640701
 20
153.80608699999999
 30
0.0
 40
0.6235109999999999
 50
182.108723
 51
267.87485900000001
  0
ARC
  5
7C
  8
0
 62
     7
 10
86.394649000000001
 20
153.80614800000001
 30
0.0
 40
0.6235810000000001
 50
272.14700099999999
 51
357.88590900000003
  0
ARC
  5
7D
  8
0
 62
     7
 10
86.394897
 20
202.56046799999999
 30
0.0
 40
0.6233310000000002
 50
2.1086269999999998
 51
87.874910000000014
  0
ARC
  5
7E
  8
0
 62
     7
 10
37.640135000000001
 20
202.56084799999999
 30
0.0
 40
0.622931
 50
92.075012000000015
 51
177.924958
  0
LINE
  5
7F
  8
0
 62
     7
 10
154.16300000000001
 20
168.26499999999999
 30
0.0
 11
156.02099999999999
 21
166.929
 31
0.0
  0
LINE
  5
80
  8
0
 62
     7
 10
156.02099999999999
 20
166.929
 30
0.0
 11
155.07900000000001
 21
169.01499999999999
 31
0.0
  0
LINE
  5
81
  8
0
 62
     7
 10
155.07900000000001
 20
169.01499999999999
 30
0.0
 11
154.16300000000001
 21
168.26499999999999
 31
0.0
  0
LINE
  5
82
  8
0
 62
     7
 10
156.01499999999999
 20
166.92400000000001
 30
0.0
 11
152.05500000000001
 21
171.76599999999999
 31
0.0
  0
LINE
  5
83
  8
0
 62
     7
 10
134.97499999999999
 20
188.28299999999999
 30
0.0
 11
133.21000000000001
 21
189.74000000000001
 31
0.0
  0
LINE
  5
84
  8
0
 62
     7
 10
133.21000000000001
 20
189.74000000000001
 30
0.0
 11
134.00999999999999
 21
187.596
 31
0.0
  0
LINE
  5
85
  8
0
 62
     7
 10
134.00999999999999
 20
187.596
 30
0.0
 11
134.97499999999999
 21
188.28299999999999
 31
0.0
  0
LINE
  5
86
  8
0
 62
     7
 10
133.21600000000001
 20
189.745
 30
0.0
 11
137.08600000000001
 21
184.31100000000001
 31
0.0
  0
LINE
  5
87
  8
0
 62
     7
 10
134.67500000000001
 20
158.92099999999999
 30
0.0
 11
132.464
 21
158.328
 31
0.0
  0
LINE
  5
88
  8
0
 62
     7
 10
132.464
 20
158.328
 30
0.0
 11
134.67500000000001
 21
157.73599999999999
 31
0.0
  0
LINE
  5
89
  8
0
 62
     7
 10
134.67500000000001
 20
157.73599999999999
 30
0.0
 11
134.67500000000001
 21
158.92099999999999
 31
0.0
  0
LINE
  5
8A
  8
0
 62
     7
 10
154.25299999999999
 20
157.751
 30
0.0
 11
156.464
 21
158.34299999999999
 31
0.0
  0
LINE
  5
8B
  8
0
 62
     7
 10
156.464
 20
158.34299999999999
 30
0.0
 11
154.25299999999999
 21
158.935
 31
0.0
  0
LINE
  5
8C
  8
0
 62
     7
 10
154.25299999999999
 20
158.935
 30
0.0
 11
154.25299999999999
 21
157.751
 31
0.0
  0
LINE
  5
8D
  8
0
 62
     7
 10
132.464
 20
158.33600000000001
 30
0.0
 11
156.464
 21
158.33600000000001
 31
0.0
  0
LINE
  5
8E
  8
0
 62
     7
 10
156.464
 20
165.50599999999989
 30
0.0
 11
156.464
 21
157.626
 31
0.0
  0
LINE
  5
8F
  8
0
 62
     7
 10
132.464
 20
165.50599999999989
 30
0.0
 11
132.464
 21
157.626
 31
0.0
  0
LINE
  5
90
  8
0
 62
     7
 10
164.34
 20
168.39400000000001
 30
0.0
 11
164.93199999999999
 21
166.18299999999999
 31
0.0
  0
LINE
  5
91
  8
0
 62
     7
 10
164.93199999999999
 20
166.18299999999999
 30
0.0
 11
165.524
 21
168.39400000000001
 31
0.0
  0
LINE
  5
92
  8
0
 62
     7
 10
165.524
 20
168.39400000000001
 30
0.0
 11
164.34
 21
168.39400000000001
 31
0.0
  0
LINE
  5
93
  8
0
 62
     7
 10
165.50999999999999
 20
187.97300000000001
 30
0.0
 11
164.917
 21
190.18299999999999
 31
0.0
  0
LINE
  5
94
  8
0
 62
     7
 10
164.917
 20
190.18299999999999
 30
0.0
 11
164.32499999999999
 21
187.97300000000001
 31
0.0
  0
LINE
  5
95
  8
0
 62
     7
 10
164.32499999999999
 20
187.97300000000001
 30
0.0
 11
165.50999999999999
 21
187.97300000000001
 31
0.0
  0
LINE
  5
96
  8
0
 62
     7
 10
164.92500000000001
 20
166.18299999999999
 30
0.0
 11
164.92500000000001
 21
190.18299999999999
 31
0.0
  0
LINE
  5
97
  8
0
 62
     7
 10
157.75399999999999
 20
190.18299999999999
 30
0.0
 11
165.63499999999999
 21
190.18299999999999
 31
0.0
  0
LINE
  5
98
  8
0
 62
     7
 10
157.75399999999999
 20
166.18299999999999
 30
0.0
 11
165.63499999999999
 21
166.18299999999999
 31
0.0
  0
LINE
  5
99
  8
0
 62
     7
 10
97.330399999999997
 20
155.39400000000001
 30
0.0
 11
97.922600000000003
 21
153.18299999999999
 31
0.0
  0
LINE
  5
9A
  8
0
 62
     7
 10
97.922600000000003
 20
153.18299999999999
 30
0.0
 11
98.515199999999993
 21
155.39400000000001
 31
0.0
  0
LINE
  5
9B
  8
0
 62
     7
 10
98.515199999999993
 20
155.39400000000001
 30
0.0
 11
97.330399999999997
 21
155.39400000000001
 31
0.0
  0
LINE
  5
9C
  8
0
 62
     7
 10
98.500699999999995
 20
200.97300000000001
 30
0.0
 11
97.908199999999994
 21
203.18299999999999
 31
0.0
  0
LINE
  5
9D
  8
0
 62
     7
 10
97.908199999999994
 20
203.18299999999999
 30
0.0
 11
97.315600000000003
 21
200.97300000000001
 31
0.0
  0
LINE
  5
9E
  8
0
 62
     7
 10
97.315600000000003
 20
200.97300000000001
 30
0.0
 11
98.500699999999995
 21
200.97300000000001
 31
0.0
  0
LINE
  5
9F
  8
0
 62
     7
 10
97.915400000000005
 20
153.18299999999999
 30
0.0
 11
97.915400000000005
 21
203.18299999999999
 31
0.0
  0
LINE
  5
A0
  8
0
 62
     7
 10
88.591200000000001
 20
203.18299999999999
 30
0.0
 11
98.625399999999999
 21
203.18299999999999
 31
0.0
  0
LINE
  5
A1
  8
0
 62
     7
 10
88.591200000000001
 20
153.18299999999999
 30
0.0
 11
98.625399999999999
 21
153.18299999999999
 31
0.0
  0
LINE
  5
A2
  8
0
 62
     7
 10
81.110600000000005
 20
172.39400000000001
 30
0.0
 11
81.703199999999995
 21
170.18299999999999
 31
0.0
  0
LINE
  5
A3
  8
0
 62
     7
 10
81.703199999999995
 20
170.18299999999999
 30
0.0
 11
82.295400000000001
 21
172.39400000000001
 31
0.0
  0
LINE
  5
A4
  8
0
 62
     7
 10
82.295400000000001
 20
172.39400000000001
 30
0.0
 11
81.110600000000005
 21
172.39400000000001
 31
0.0
  0
LINE
  5
A5
  8
0
 62
     7
 10
82.280600000000007
 20
183.97300000000001
 30
0.0
 11
81.688699999999997
 21
186.18299999999999
 31
0.0
  0
LINE
  5
A6
  8
0
 62
     7
 10
81.688699999999997
 20
186.18299999999999
 30
0.0
 11
81.096199999999996
 21
183.97300000000001
 31
0.0
  0
LINE
  5
A7
  8
0
 62
     7
 10
81.096199999999996
 20
183.97300000000001
 30
0.0
 11
82.280600000000007
 21
183.97300000000001
 31
0.0
  0
LINE
  5
A8
  8
0
 62
     7
 10
81.695599999999999
 20
170.18299999999999
 30
0.0
 11
81.695599999999999
 21
186.18299999999999
 31
0.0
  0
LINE
  5
A9
  8
0
 62
     7
 10
71.139399999999995
 20
186.18299999999999
 30
0.0
 11
82.406000000000006
 21
186.18299999999999
 31
0.0
  0
LINE
  5
AA
  8
0
 62
     7
 10
71.139399999999995
 20
170.18299999999999
 30
0.0
 11
82.406000000000006
 21
170.18299999999999
 31
0.0
  0
LINE
  5
AB
  8
0
 62
     7
 10
75.818200000000004
 20
182.494
 30
0.0
 11
76.4101
 21
180.28299999999999
 31
0.0
  0
LINE
  5
AC
  8
0
 62
     7
 10
76.4101
 20
180.28299999999999
 30
0.0
 11
77.002700000000004
 21
182.494
 31
0.0
  0
LINE
  5
AD
  8
0
 62
     7
 10
77.002700000000004
 20
182.494
 30
0.0
 11
75.818200000000004
 21
182.494
 31
0.0
  0
LINE
  5
AE
  8
0
 62
     7
 10
76.988200000000006
 20
173.87299999999999
 30
0.0
 11
76.395600000000002
 21
176.084
 31
0.0
  0
LINE
  5
AF
  8
0
 62
     7
 10
76.395600000000002
 20
176.084
 30
0.0
 11
75.803399999999996
 21
173.87299999999999
 31
0.0
  0
LINE
  5
B0
  8
0
 62
     7
 10
75.803399999999996
 20
173.87299999999999
 30
0.0
 11
76.988200000000006
 21
173.87299999999999
 31
0.0
  0
LINE
  5
B1
  8
0
 62
     7
 10
76.403199999999998
 20
172.78700000000001
 30
0.0
 11
76.403199999999998
 21
184.78099999999989
 31
0.0
  0
LINE
  5
B2
  8
0
 62
     7
 10
65.239500000000007
 20
180.28299999999999
 30
0.0
 11
77.112899999999996
 21
180.28299999999999
 31
0.0
  0
LINE
  5
B3
  8
0
 62
     7
 10
65.239500000000007
 20
176.083
 30
0.0
 11
77.112899999999996
 21
176.083
 31
0.0
  0
LINE
  5
B4
  8
0
 62
     7
 10
39.228200000000001
 20
143.26599999999999
 30
0.0
 11
37.017800000000001
 21
142.67400000000001
 31
0.0
  0
LINE
  5
B5
  8
0
 62
     7
 10
37.017800000000001
 20
142.67400000000001
 30
0.0
 11
39.228200000000001
 21
142.08199999999999
 31
0.0
  0
LINE
  5
B6
  8
0
 62
     7
 10
39.228200000000001
 20
142.08199999999999
 30
0.0
 11
39.228200000000001
 21
143.26599999999999
 31
0.0
  0
LINE
  5
B7
  8
0
 62
     7
 10
84.807100000000005
 20
142.096
 30
0.0
 11
87.017600000000002
 21
142.68899999999999
 31
0.0
  0
LINE
  5
B8
  8
0
 62
     7
 10
87.017600000000002
 20
142.68899999999999
 30
0.0
 11
84.807100000000005
 21
143.28100000000001
 31
0.0
  0
LINE
  5
B9
  8
0
 62
     7
 10
84.807100000000005
 20
143.28100000000001
 30
0.0
 11
84.807100000000005
 21
142.096
 31
0.0
  0
LINE
  5
BA
  8
0
 62
     7
 10
37.017600000000002
 20
142.68100000000001
 30
0.0
 11
87.017799999999994
 21
142.68100000000001
 31
0.0
  0
LINE
  5
BB
  8
0
 62
     7
 10
87.017799999999994
 20
151.65299999999999
 30
0.0
 11
87.017799999999994
 21
141.971
 31
0.0
  0
LINE
  5
BC
  8
0
 62
     7
 10
37.017600000000002
 20
151.65299999999999
 30
0.0
 11
37.017600000000002
 21
141.971
 31
0.0
  0
LINE
  5
BD
  8
0
 62
     7
 10
56.228299999999997
 20
159.721
 30
0.0
 11
54.017899999999997
 21
159.12899999999999
 31
0.0
  0
LINE
  5
BE
  8
0
 62
     7
 10
54.017899999999997
 20
159.12899999999999
 30
0.0
 11
56.228299999999997
 21
158.53700000000001
 31
0.0
  0
LINE
  5
BF
  8
0
 62
     7
 10
56.228299999999997
 20
158.53700000000001
 30
0.0
 11
56.228299999999997
 21
159.721
 31
0.0
  0
LINE
  5
C0
  8
0
 62
     7
 10
67.807100000000005
 20
158.55199999999999
 30
0.0
 11
70.017700000000005
 21
159.14400000000001
 31
0.0
  0
LINE
  5
C1
  8
0
 62
     7
 10
70.017700000000005
 20
159.14400000000001
 30
0.0
 11
67.807100000000005
 21
159.73599999999999
 31
0.0
  0
LINE
  5
C2
  8
0
 62
     7
 10
67.807100000000005
 20
159.73599999999999
 30
0.0
 11
67.807100000000005
 21
158.55199999999999
 31
0.0
  0
LINE
  5
C3
  8
0
 62
     7
 10
54.017699999999991
 20
159.137
 30
0.0
 11
70.017899999999983
 21
159.137
 31
0.0
  0
LINE
  5
C4
  8
0
 62
     7
 10
70.017899999999983
 20
169.10400000000001
 30
0.0
 11
70.017899999999983
 21
158.42599999999999
 31
0.0
  0
LINE
  5
C5
  8
0
 62
     7
 10
54.017699999999991
 20
169.10400000000001
 30
0.0
 11
54.017699999999991
 21
158.42599999999999
 31
0.0
  0
LINE
  5
C6
  8
0
 62
     7
 10
66.328199999999995
 20
165.01400000000001
 30
0.0
 11
64.117800000000003
 21
164.422
 31
0.0
  0
LINE
  5
C7
  8
0
 62
     7
 10
64.117800000000003
 20
164.422
 30
0.0
 11
66.328199999999995
 21
163.83000000000001
 31
0.0
  0
LINE
  5
C8
  8
0
 62
     7
 10
66.328199999999995
 20
163.83000000000001
 30
0.0
 11
66.328199999999995
 21
165.01400000000001
 31
0.0
  0
LINE
  5
C9
  8
0
 62
     7
 10
57.707399999999993
 20
163.84399999999999
 30
0.0
 11
59.917999999999999
 21
164.43599999999989
 31
0.0
  0
LINE
  5
CA
  8
0
 62
     7
 10
59.917999999999999
 20
164.43599999999989
 30
0.0
 11
57.707399999999993
 21
165.029
 31
0.0
  0
LINE
  5
CB
  8
0
 62
     7
 10
57.707399999999993
 20
165.029
 30
0.0
 11
57.707399999999993
 21
163.84399999999999
 31
0.0
  0
LINE
  5
CC
  8
0
 62
     7
 10
56.621200000000002
 20
164.429
 30
0.0
 11
68.615700000000004
 21
164.429
 31
0.0
  0
LINE
  5
CD
  8
0
 62
     7
 10
64.117800000000003
 20
175.00399999999999
 30
0.0
 11
64.117800000000003
 21
163.71899999999999
 31
0.0
  0
LINE
  5
CE
  8
0
 62
     7
 10
59.9178
 20
175.00399999999999
 30
0.0
 11
59.9178
 21
163.71899999999999
 31
0.0
  0
ARC
  5
CF
  8
0
 62
     7
 10
69.602598
 20
185.76799
 30
0.0
 40
0.415558
 50
2.109726999999999
 51
87.890263000000004
  0
LINE
  5
D0
  8
0
 62
     7
 10
54.559100000000001
 20
185.642
 30
0.0
 11
60.024299999999997
 21
180.17699999999999
 31
0.0
  0
LINE
  5
D1
  8
0
 62
     7
 10
69.617900000000006
 20
185.78299999999999
 30
0.0
 11
64.152699999999996
 21
180.31800000000001
 31
0.0
  0
ARC
  5
D2
  8
0
 62
     7
 10
54.433777999999997
 20
185.76720399999999
 30
0.0
 40
0.416373
 50
92.213826999999995
 51
177.7861429999999
  0
LINE
  5
D3
  8
0
 62
     7
 10
69.617900000000006
 20
186.18299999999999
 30
0.0
 11
54.417700000000004
 21
186.18299999999999
 31
0.0
  0
LINE
  5
D4
  8
0
 62
     7
 10
70.017899999999983
 20
186.18299999999999
 30
0.0
 11
85.991799999999998
 21
202.15700000000001
 31
0.0
  0
LINE
  5
D5
  8
0
 62
     7
 10
87.024699999999996
 20
105.858
 30
0.0
 11
87.217999999999989
 21
94.250799999999984
 31
0.0
  0
ARC
  5
D6
  8
0
 62
     7
 10
86.610352000000006
 20
105.836174
 30
0.0
 40
0.414924
 50
3.031585999999999
 51
88.063511000000005
  0
ARC
  5
D7
  8
0
 62
     7
 10
69.602598
 20
170.598557
 30
0.0
 40
0.415558
 50
272.109737
 51
357.89027299999998
  0
ARC
  5
D8
  8
0
 62
     7
 10
54.432992000000013
 20
170.598557
 30
0.0
 40
0.415558
 50
182.10972899999999
 51
267.89030000000002
  0
LINE
  5
D9
  8
0
 62
     7
 10
54.417700000000004
 20
170.18299999999999
 30
0.0
 11
69.617900000000006
 21
170.18299999999999
 31
0.0
  0
LINE
  5
DA
  8
0
 62
     7
 10
70.017899999999983
 20
170.18299999999999
 30
0.0
 11
85.991799999999998
 21
154.209
 31
0.0
  0
LINE
  5
DB
  8
0
  6
AIGENLINE001
 62
     7
 10
144.464
 20
163.53800000000001
 30
0.0
 11
144.464
 21
192.37299999999999
 31
0.0
  0
LINE
  5
DC
  8
0
  6
AIGENLINE001
 62
     7
 10
62.017800000000001
 20
168.923
 30
0.0
 11
62.017800000000001
 21
206.124
 31
0.0
  0
LINE
  5
DD
  8
0
 62
     7
 10
87.017799999999994
 20
153.78299999999999
 30
0.0
 11
87.017799999999994
 21
202.583
 31
0.0
  0
LINE
  5
DE
  8
0
 62
     7
 10
70.017899999999983
 20
170.583
 30
0.0
 11
70.017899999999983
 21
185.78299999999999
 31
0.0
  0
LINE
  5
DF
  8
0
 62
     7
 10
54.017699999999991
 20
185.78299999999999
 30
0.0
 11
54.017699999999991
 21
170.583
 31
0.0
  0
LINE
  5
E0
  8
0
 62
     7
 10
54.417700000000004
 20
170.583
 30
0.0
 11
59.882899999999999
 21
176.048
 31
0.0
  0
LINE
  5
E1
  8
0
 62
     7
 10
69.617900000000006
 20
170.583
 30
0.0
 11
64.152699999999996
 21
176.048
 31
0.0
  0
LINE
  5
E2
  8
0
 62
     7
 10
36.817599999999999
 20
94.250799999999984
 30
0.0
 11
37.011099999999999
 21
105.858
 31
0.0
  0
ARC
  5
E3
  8
0
 62
     7
 10
37.425891
 20
105.83569799999999
 30
0.0
 40
0.415429
 50
92.047916999999984
 51
176.90626700000001
  0
LINE
  5
E4
  8
0
 62
     7
 10
37.017600000000002
 20
153.78299999999999
 30
0.0
 11
37.017600000000002
 21
202.583
 31
0.0
  0
LINE
  5
E5
  8
0
 62
     7
 10
37.411000000000001
 20
106.251
 30
0.0
 11
86.624399999999994
 21
106.251
 31
0.0
  0
LINE
  5
E6
  8
0
 62
     7
 10
36.817599999999999
 20
94.250799999999984
 30
0.0
 11
87.217999999999989
 21
94.250799999999984
 31
0.0
  0
LINE
  5
E7
  8
0
  6
AIGENLINE001
 62
     7
 10
129.864
 20
178.18299999999999
 30
0.0
 11
158.69900000000001
 21
178.18299999999999
 31
0.0
  0
LINE
  5
E8
  8
0
  6
AIGENLINE001
 62
     7
 10
34.378500000000003
 20
178.18299999999999
 30
0.0
 11
71.790700000000001
 21
178.18299999999999
 31
0.0
  0
LINE
  5
E9
  8
0
 62
     7
 10
37.61760000000001
 20
203.18299999999999
 30
0.0
 11
86.417999999999992
 21
203.18299999999999
 31
0.0
  0
LINE
  5
EA
  8
0
 62
     7
 10
37.61760000000001
 20
153.18299999999999
 30
0.0
 11
86.417999999999992
 21
153.18299999999999
 31
0.0
  0
LINE
  5
EB
  8
0
 62
     7
 10
54.017699999999991
 20
170.18299999999999
 30
0.0
 11
38.043900000000001
 21
154.209
 31
0.0
  0
LINE
  5
EC
  8
0
 62
     7
 10
55.017699999999998
 20
82.250799999999998
 30
0.0
 11
69.017899999999997
 21
82.250799999999998
 31
0.0
  0
LINE
  5
ED
  8
0
  6
AIGENLINE001
 62
     7
 10
62.017800000000001
 20
79.158500000000004
 30
0.0
 11
62.017800000000001
 21
108.574
 31
0.0
  0
LINE
  5
EE
  8
_________2
 62
     7
 10
205.30099999999999
 20
127.411
 30
0.0
 11
183.55000000000001
 21
127.411
 31
0.0
  0
LINE
  5
EF
  8
_________2
 62
     7
 10
100.3
 20
-4.0910799999999998
 30
0.0
 11
100.3
 21
-21.071400000000001
 31
0.0
  0
LINE
  5
F0
  8
_________2
 62
     7
 10
100.3
 20
275.93099999999998
 30
0.0
 11
100.3
 21
258.911
 31
0.0
  0
LINE
  5
F1
  8
_________2
 62
     7
 10
17.049499999999998
 20
127.411
 30
0.0
 11
-4.70052
 21
127.411
 31
0.0
  0
LINE
  5
F2
  8
_________2
 62
     7
 10
76.741
 20
29.8047
 30
0.0
 11
74.554699999999997
 21
29.8047
 31
0.0
  0
LINE
  5
F3
  8
_________2
 62
     7
 10
77.233699999999999
 20
29.8047
 30
0.0
 11
76.981499999999997
 21
29.8047
 31
0.0
  0
LINE
  5
F4
  8
_________2
 62
     7
 10
77.726299999999995
 20
29.8047
 30
0.0
 11
80.651200000000003
 21
29.8047
 31
0.0
  0
LINE
  5
F5
  8
_________2
 62
     7
 10
77.233699999999999
 20
29.8047
 30
0.0
 11
77.485500000000002
 21
29.8047
 31
0.0
  0
LINE
  5
F6
  8
_________2
 62
     7
 10
70.837100000000007
 20
29.8047
 30
0.0
 11
68.650499999999994
 21
29.8047
 31
0.0
  0
LINE
  5
F7
  8
_________2
 62
     7
 10
71.329400000000007
 20
29.8047
 30
0.0
 11
71.077600000000004
 21
29.8047
 31
0.0
  0
LINE
  5
F8
  8
_________2
 62
     7
 10
71.329400000000007
 20
30.2974
 30
0.0
 11
71.329400000000007
 21
32.484400000000001
 31
0.0
  0
LINE
  5
F9
  8
_________2
 62
     7
 10
71.329400000000007
 20
29.8047
 30
0.0
 11
71.329400000000007
 21
30.056899999999999
 31
0.0
  0
LINE
  5
FA
  8
_________2
 62
     7
 10
71.822100000000006
 20
29.8047
 30
0.0
 11
74.009
 21
29.8047
 31
0.0
  0
LINE
  5
FB
  8
_________2
 62
     7
 10
71.329400000000007
 20
29.8047
 30
0.0
 11
71.581599999999995
 21
29.8047
 31
0.0
  0
LINE
  5
FC
  8
_________2
 62
     7
 10
71.329400000000007
 20
29.312799999999999
 30
0.0
 11
71.329400000000007
 21
27.125800000000002
 31
0.0
  0
LINE
  5
FD
  8
_________2
 62
     7
 10
71.329400000000007
 20
29.8047
 30
0.0
 11
71.329400000000007
 21
29.5532
 31
0.0
  0
LINE
  5
FE
  8
_________2
 62
     7
 10
75.040499999999994
 20
28.5852
 30
0.0
 11
80.218500000000006
 21
27.720400000000001
 31
0.0
  0
LINE
  5
FF
  8
_________2
 62
     7
 10
75.040499999999994
 20
31.0243
 30
0.0
 11
80.218500000000006
 21
31.889700000000001
 31
0.0
  0
LINE
  5
100
  8
_________2
 62
     7
 10
80.218500000000006
 20
27.720400000000001
 30
0.0
 11
80.218500000000006
 21
31.889700000000001
 31
0.0
  0
LINE
  5
101
  8
_________2
 62
     7
 10
75.040499999999994
 20
28.5852
 30
0.0
 11
75.040499999999994
 21
31.0243
 31
0.0
  0
ARC
  5
102
  8
_________2
 62
     7
 10
71.28285600000001
 20
29.757811
 30
0.0
 40
1.2673589999999999
 50
2.122214
 51
87.893958999999995
  0
ARC
  5
103
  8
_________2
 62
     7
 10
71.375959999999992
 20
29.758213000000001
 30
0.0
 40
1.2669559999999991
 50
92.104701000000006
 51
177.89526900000001
  0
ARC
  5
104
  8
_________2
 62
     7
 10
71.376357999999996
 20
29.851671
 30
0.0
 40
1.2673680000000001
 50
182.12203600000001
 51
267.877993
  0
ARC
  5
105
  8
_________2
 62
     7
 10
71.282531999999989
 20
29.851998999999999
 30
0.0
 40
1.267695999999999
 50
272.12015300000002
 51
357.863674
  0
ARC
  5
106
  8
_________2
 62
     7
 10
71.329430000000002
 20
29.804742999999998
 30
0.0
 40
2.0849849999999992
 50
0.00001
 51
89.999980000000008
  0
ARC
  5
107
  8
_________2
 62
     7
 10
71.329603000000006
 20
29.804915000000001
 30
0.0
 40
2.084813
 50
90.004733999999999
 51
180.00474399999999
  0
ARC
  5
108
  8
_________2
 62
     7
 10
71.409106000000008
 20
29.884775999999999
 30
0.0
 40
2.1657950000000001
 50
182.11776599999999
 51
267.89173399999999
  0
ARC
  5
109
  8
_________2
 62
     7
 10
71.249459000000002
 20
29.885429999999999
 30
0.0
 40
2.1664590000000001
 50
272.11546800000002
 51
357.86560400000002
  0
TEXT
  5
10A
  8
_________2
 62
     7
 10
104.605
 20
1.6794899999999999
 30
0.0
 40
3.0923400000000001
  1
図番
 41
0.5
  0
LINE
  5
10B
  8
_________2
 62
     7
 10
103.55
 20
5.9087199999999989
 30
0.0
 11
183.55099999999999
 21
5.9087199999999989
 31
0.0
  0
TEXT
  5
10C
  8
_________2
 62
     7
 10
104.605
 20
11.6793
 30
0.0
 40
3.0923400000000001
  1
品番
 41
0.5
  0
TEXT
  5
10D
  8
_________2
 62
     7
 10
104.605
 20
31.818100000000001
 30
0.0
 40
3.0923400000000001
  1
名称
 41
0.5
  0
TEXT
  5
10E
  8
_________2
 62
     7
 10
91.845058333333341
 20
26.821999999999999
 30
0.0
 40
3.6545800000000002
  1
mm
 41
0.5
 72
     1
 11
93.367800000000003
 21
26.821999999999999
 31
0.0
  0
TEXT
  5
10F
  8
_________2
 62
     7
 10
85.643199999999993
 20
31.818100000000001
 30
0.0
 40
3.0923400000000001
  1
単位
 41
0.5
  0
TEXT
  5
110
  8
_________2
 62
     7
 10
85.643199999999993
 20
19.410799999999998
 30
0.0
 40
3.0923400000000001
  1
尺度
 41
0.5
  0
TEXT
  5
111
  8
_________2
 62
     7
 10
90.548758666666686
 20
13.2179
 30
0.0
 40
3.6545800000000002
  1
1 ： 5
 41
0.5
 72
     1
 11
93.959699999999998
 21
13.2179
 31
0.0
  0
TEXT
  5
112
  8
_________2
 62
     7
 10
137.4824625
 20
9.1078600000000005
 30
0.0
 40
3.9357000000000002
  1
CEL410R
 41
0.5
 72
     1
 11
143.55000000000001
 21
9.1078600000000005
 31
0.0
  0
TEXT
  5
113
  8
_________2
 62
     7
 10
137.4824625
 20
-0.8926299999999999
 30
0.0
 40
3.9357000000000002
  1
CEL410R
 41
0.5
 72
     1
 11
143.55000000000001
 21
-0.8926299999999999
 31
0.0
  0
TEXT
  5
114
  8
_________2
 62
     7
 10
24.5868
 20
0.707283
 30
0.0
 40
3.9357000000000002
  1
重量：2.1kg、オーバーフローなし
 41
0.5
  0
TEXT
  5
115
  8
_________2
 62
     7
 10
109.179
 20
24.2257
 30
0.0
 40
3.9357000000000002
  1
手洗器（角型）
 41
0.5
  0
TEXT
  5
116
  8
_________2
 62
     7
 10
39.425300333333333
 20
13.603
 30
0.0
 40
3.6545800000000002
  1
井田
 41
0.5
 72
     1
 11
41.313499999999998
 21
13.603
 31
0.0
  0
TEXT
  5
117
  8
_________2
 62
     7
 10
20.851000333333339
 20
13.603
 30
0.0
 40
3.6545800000000002
  1
福田
 41
0.5
 72
     1
 11
22.7392
 21
13.603
 31
0.0
  0
TEXT
  5
118
  8
_________2
 62
     7
 10
67.785399999999996
 20
13.2179
 30
0.0
 40
3.6545800000000002
  1
18.04.03
 41
0.5
  0
TEXT
  5
119
  8
_________2
 62
     7
 10
66.593100000000007
 20
19.410799999999998
 30
0.0
 40
3.0923400000000001
  1
日付
 41
0.5
  0
TEXT
  5
11A
  8
_________2
 62
     7
 10
29.639399999999998
 20
19.410799999999998
 30
0.0
 40
3.0923400000000001
  1
検図
 41
0.5
  0
TEXT
  5
11B
  8
_________2
 62
     7
 10
18.021100000000001
 20
5.21143
 30
0.0
 40
3.0923400000000001
  1
備考
 41
0.5
  0
TEXT
  5
11C
  8
_________2
 62
     7
 10
18.021100000000001
 20
19.410799999999998
 30
0.0
 40
3.0923400000000001
  1
製図
 41
0.5
  0
TEXT
  5
11D
  8
_________2
 62
     7
 10
23.788465333333338
 20
27.936800000000002
 30
0.0
 40
4.4979399999999989
  1
セラトレーディング株式会社
 41
0.5
 72
     1
 11
41.180500000000002
 21
27.936800000000002
 31
0.0
  0
LINE
  5
11E
  8
_________2
 62
     7
 10
183.55099999999999
 20
-4.0910799999999998
 30
0.0
 11
17.049499999999998
 21
-4.0910799999999998
 31
0.0
  0
LINE
  5
11F
  8
_________2
 62
     7
 10
17.049499999999998
 20
-4.0910799999999998
 30
0.0
 11
17.049499999999998
 21
258.911
 31
0.0
  0
LINE
  5
120
  8
_________2
 62
     7
 10
17.049499999999998
 20
258.911
 30
0.0
 11
183.55099999999999
 21
258.911
 31
0.0
  0
LINE
  5
121
  8
_________2
 62
     7
 10
183.55099999999999
 20
258.911
 30
0.0
 11
183.55099999999999
 21
-4.0910799999999998
 31
0.0
  0
LINE
  5
122
  8
_________2
 62
     7
 10
65.549599999999998
 20
9.4089600000000004
 30
0.0
 11
65.549599999999998
 21
35.908799999999999
 31
0.0
  0
LINE
  5
123
  8
_________2
 62
     7
 10
84.549700000000016
 20
9.4089600000000004
 30
0.0
 11
84.549700000000016
 21
35.908799999999999
 31
0.0
  0
LINE
  5
124
  8
_________2
 62
     7
 10
103.55
 20
-4.0910799999999998
 30
0.0
 11
103.55
 21
35.908799999999999
 31
0.0
  0
LINE
  5
125
  8
_________2
 62
     7
 10
28.549299999999999
 20
9.4089600000000004
 30
0.0
 11
28.549299999999999
 21
23.409199999999998
 31
0.0
  0
LINE
  5
126
  8
_________2
 62
     7
 10
17.049499999999998
 20
9.4089600000000004
 30
0.0
 11
103.55
 21
9.4089600000000004
 31
0.0
  0
LINE
  5
127
  8
_________2
 62
     7
 10
17.049499999999998
 20
23.409199999999998
 30
0.0
 11
103.55
 21
23.409199999999998
 31
0.0
  0
LINE
  5
128
  8
_________2
 62
     7
 10
103.55
 20
15.9085
 30
0.0
 11
183.55099999999999
 21
15.9085
 31
0.0
  0
LINE
  5
129
  8
_________2
 62
     7
 10
17.049499999999998
 20
35.908799999999999
 30
0.0
 11
183.55099999999999
 21
35.908799999999999
 31
0.0
  0
ENDSEC
  0
EOF
