  0
SECTION
  2
HEADER
  9
$ACADVER
  1
AC1009
  9
$INSBASE
 10
0.0
 20
0.0
 30
0.0
  9
$EXTMIN
 10
0.238058
 20
0.4482100000000001
 30
0.0
  9
$EXTMAX
 10
210.24000000000001
 20
297.44999999999987
 30
0.0
  9
$LIMMIN
 10
0.0
 20
0.0
  9
$LIMMAX
 10
12.0
 20
9.0
  9
$ORTHOMODE
 70
     0
  9
$REGENMODE
 70
     1
  9
$FILLMODE
 70
     1
  9
$QTEXTMODE
 70
     0
  9
$MIRRTEXT
 70
     1
  9
$DRAGMODE
 70
     2
  9
$LTSCALE
 40
1.0
  9
$OSMODE
 70
    37
  9
$ATTMODE
 70
     1
  9
$TEXTSIZE
 40
0.0
  9
$TRACEWID
 40
0.05
  9
$TEXTSTYLE
  7
STANDARD
  9
$CLAYER
  8
0
  9
$CELTYPE
  6
CONTINUOUS
  9
$CECOLOR
 62
   256
  9
$DIMSCALE
 40
1.0
  9
$DIMASZ
 40
0.18
  9
$DIMEXO
 40
0.0625
  9
$DIMDLI
 40
0.38
  9
$DIMRND
 40
0.0
  9
$DIMDLE
 40
0.0
  9
$DIMEXE
 40
0.18
  9
$DIMTP
 40
0.0
  9
$DIMTM
 40
0.0
  9
$DIMTXT
 40
0.18
  9
$DIMCEN
 40
0.09
  9
$DIMTSZ
 40
0.0
  9
$DIMTOL
 70
     0
  9
$DIMLIM
 70
     0
  9
$DIMTIH
 70
     1
  9
$DIMTOH
 70
     1
  9
$DIMSE1
 70
     0
  9
$DIMSE2
 70
     0
  9
$DIMTAD
 70
     0
  9
$DIMZIN
 70
     0
  9
$DIMBLK
  1

  9
$DIMASO
 70
     1
  9
$DIMSHO
 70
     1
  9
$DIMPOST
  1

  9
$DIMAPOST
  1

  9
$DIMALT
 70
     0
  9
$DIMALTD
 70
     2
  9
$DIMALTF
 40
25.399999999999999
  9
$DIMLFAC
 40
1.0
  9
$DIMTOFL
 70
     0
  9
$DIMTVP
 40
0.0
  9
$DIMTIX
 70
     0
  9
$DIMSOXD
 70
     0
  9
$DIMSAH
 70
     0
  9
$DIMBLK1
  1

  9
$DIMBLK2
  1

  9
$DIMSTYLE
  2
STANDARD
  9
$DIMCLRD
 70
     0
  9
$DIMCLRE
 70
     0
  9
$DIMCLRT
 70
     0
  9
$DIMTFAC
 40
1.0
  9
$DIMGAP
 40
0.09
  9
$LUNITS
 70
     2
  9
$LUPREC
 70
     4
  9
$SKETCHINC
 40
0.1
  9
$FILLETRAD
 40
0.0
  9
$AUNITS
 70
     0
  9
$AUPREC
 70
     0
  9
$MENU
  1
.
  9
$ELEVATION
 40
0.0
  9
$PELEVATION
 40
0.0
  9
$THICKNESS
 40
0.0
  9
$LIMCHECK
 70
     0
  9
$BLIPMODE
 70
     0
  9
$CHAMFERA
 40
0.0
  9
$CHAMFERB
 40
0.0
  9
$SKPOLY
 70
     0
  9
$TDCREATE
 40
2444972.375
  9
$TDUPDATE
 40
2456323.2513701729
  9
$TDINDWG
 40
0.0000078704
  9
$TDUSRTIMER
 40
0.0000078704
  9
$USRTIMER
 70
     1
  9
$ANGBASE
 50
0.0
  9
$ANGDIR
 70
     0
  9
$PDMODE
 70
     0
  9
$PDSIZE
 40
0.0
  9
$PLINEWID
 40
0.0
  9
$COORDS
 70
     1
  9
$SPLFRAME
 70
     0
  9
$SPLINETYPE
 70
     6
  9
$SPLINESEGS
 70
     8
  9
$ATTDIA
 70
     0
  9
$ATTREQ
 70
     1
  9
$HANDLING
 70
     1
  9
$HANDSEED
  5
282
  9
$SURFTAB1
 70
     6
  9
$SURFTAB2
 70
     6
  9
$SURFTYPE
 70
     6
  9
$SURFU
 70
     6
  9
$SURFV
 70
     6
  9
$UCSNAME
  2

  9
$UCSORG
 10
0.0
 20
0.0
 30
0.0
  9
$UCSXDIR
 10
1.0
 20
0.0
 30
0.0
  9
$UCSYDIR
 10
0.0
 20
1.0
 30
0.0
  9
$PUCSNAME
  2

  9
$PUCSORG
 10
0.0
 20
0.0
 30
0.0
  9
$PUCSXDIR
 10
1.0
 20
0.0
 30
0.0
  9
$PUCSYDIR
 10
0.0
 20
1.0
 30
0.0
  9
$USERI1
 70
     0
  9
$USERI2
 70
     0
  9
$USERI3
 70
     0
  9
$USERI4
 70
     0
  9
$USERI5
 70
     0
  9
$USERR1
 40
0.0
  9
$USERR2
 40
0.0
  9
$USERR3
 40
0.0
  9
$USERR4
 40
0.0
  9
$USERR5
 40
0.0
  9
$WORLDVIEW
 70
     1
  9
$SHADEDGE
 70
     3
  9
$SHADEDIF
 70
    70
  9
$TILEMODE
 70
     1
  9
$MAXACTVP
 70
    48
  9
$PLIMCHECK
 70
     0
  9
$PEXTMIN
 10
1.0000000000000000E+020
 20
1.0000000000000000E+020
 30
1.0000000000000000E+020
  9
$PEXTMAX
 10
-1.0000000000000000E+020
 20
-1.0000000000000000E+020
 30
-1.0000000000000000E+020
  9
$PLIMMIN
 10
0.0
 20
0.0
  9
$PLIMMAX
 10
12.0
 20
9.0
  9
$UNITMODE
 70
     0
  9
$VISRETAIN
 70
     1
  9
$PLINEGEN
 70
     0
  9
$PSLTSCALE
 70
     1
  0
ENDSEC
  0
SECTION
  2
TABLES
  0
TABLE
  2
VPORT
 70
     2
  0
VPORT
  2
*ACTIVE
 70
     0
 10
0.0
 20
0.0
 11
1.0
 21
1.0
 12
210.2887023820887
 22
148.72499999999991
 13
0.0
 23
0.0
 14
1.0
 24
1.0
 15
0.0
 25
0.0
 16
0.0
 26
0.0
 36
1.0
 17
0.0
 27
0.0
 37
0.0
 40
299.69773299748101
 41
2.2894736842105261
 42
50.0
 43
0.0
 44
0.0
 50
0.0
 51
0.0
 71
     0
 72
   100
 73
     1
 74
     1
 75
     0
 76
     0
 77
     0
 78
     0
  0
ENDTAB
  0
TABLE
  2
LTYPE
 70
     3
  0
LTYPE
  2
CONTINUOUS
 70
     0
  3
Solid line
 72
    65
 73
     0
 40
0.0
  0
LTYPE
  2
AIGENLINE001
 70
     0
  3
generate AI->DXF Converter
 72
    65
 73
     2
 40
1.5522299999999991
 49
0.776115
 49
-0.776115
  0
LTYPE
  2
AIGENLINE002
 70
     0
  3
generate AI->DXF Converter
 72
    65
 73
     4
 40
5.8561449999999988
 49
3.5278
 49
-0.776115
 49
0.776115
 49
-0.776115
  0
ENDTAB
  0
TABLE
  2
LAYER
 70
     2
  0
LAYER
  2
0
 70
     0
 62
     7
  6
CONTINUOUS
  0
LAYER
  2
_________2
 70
     0
 62
     7
  6
CONTINUOUS
  0
ENDTAB
  0
TABLE
  2
STYLE
 70
     1
  0
STYLE
  2
STANDARD
 70
     0
 40
0.0
 41
0.0
 50
0.0
 71
     0
 42
0.0
  3
TXT
  4
EXTFONT.SHX
  0
ENDTAB
  0
TABLE
  2
VIEW
 70
     0
  0
ENDTAB
  0
TABLE
  2
UCS
 70
     0
  0
ENDTAB
  0
TABLE
  2
APPID
 70
     1
  0
APPID
  2
ACAD
 70
     0
  0
ENDTAB
  0
TABLE
  2
DIMSTYLE
 70
     1
  0
DIMSTYLE
  2
STANDARD
 70
     0
  3

  4

  5

  6

  7

 40
1.0
 41
0.18
 42
0.0625
 43
0.38
 44
0.18
 45
0.0
 46
0.0
 47
0.0
 48
0.0
140
0.18
141
0.09
142
0.0
143
25.399999999999999
144
1.0
145
0.0
146
1.0
147
0.09
 71
     0
 72
     0
 73
     1
 74
     1
 75
     0
 76
     0
 77
     0
 78
     0
170
     0
171
     2
172
     0
173
     0
174
     0
175
     0
176
     0
177
     0
178
     0
  0
ENDTAB
  0
ENDSEC
  0
SECTION
  2
BLOCKS
  0
BLOCK
  8
0
  2
$MODEL_SPACE
 70
     0
 10
0.0
 20
0.0
 30
0.0
  3
$MODEL_SPACE
  1

  0
ENDBLK
  5
1A
  8
0
  0
BLOCK
 67
     1
  8
0
  2
$PAPER_SPACE
 70
     0
 10
0.0
 20
0.0
 30
0.0
  3
$PAPER_SPACE
  1

  0
ENDBLK
  5
17
 67
     1
  8
0
  0
ENDSEC
  0
SECTION
  2
ENTITIES
  0
TEXT
  5
23
  8
0
 62
     7
 10
101.1179999999999
 20
213.81475999999989
 30
0.0
 40
3.0923400000000001
  1
カウンター切込寸法
 50
90.0
 41
0.5
 72
     1
 11
101.1179999999999
 21
222.06099999999989
 31
0.0
  0
ARC
  5
24
  8
0
  6
AIGENLINE001
 62
     7
 10
144.256832
 20
109.940349
 30
0.0
 40
0.770517
 50
130.69712999999999
 51
144.16197199999999
  0
ARC
  5
25
  8
0
  6
AIGENLINE001
 62
     7
 10
144.71694600000001
 20
109.57995099999989
 30
0.0
 40
1.354722999999999
 50
143.1988399999999
 51
166.02372800000001
  0
ARC
  5
26
  8
0
  6
AIGENLINE001
 62
     7
 10
144.1732639999999
 20
109.72274399999991
 30
0.0
 40
0.7926820000000001
 50
166.54820799999999
 51
175.830003
  0
ARC
  5
27
  8
0
  6
AIGENLINE001
 62
     7
 10
125.08331099999999
 20
105.232384
 30
0.0
 40
16.431318999999998
 50
328.01492699999989
 51
332.657308
  0
ARC
  5
28
  8
0
  6
AIGENLINE001
 62
     7
 10
116.3735269999999
 20
109.87058399999999
 30
0.0
 40
26.298656000000001
 50
332.39697100000001
 51
336.59419800000001
  0
ARC
  5
29
  8
0
  6
AIGENLINE001
 62
     7
 10
104.73874499999989
 20
115.04289899999991
 30
0.0
 40
39.030916999999988
 50
336.41085499999991
 51
342.64549799999992
  0
ARC
  5
2A
  8
0
  6
AIGENLINE001
 62
     7
 10
103.1433499999999
 20
115.7278679999999
 30
0.0
 40
40.758388999999987
 50
342.39540399999993
 51
347.32678299999998
  0
ARC
  5
2B
  8
0
  6
AIGENLINE001
 62
     7
 10
115.971317
 20
112.74065400000001
 30
0.0
 40
27.587762999999999
 50
347.53469200000001
 51
351.48712599999999
  0
ARC
  5
2C
  8
0
  6
AIGENLINE001
 62
     7
 10
125.5917129999999
 20
111.230892
 30
0.0
 40
17.849999
 50
351.70862299999987
 51
355.338953
  0
LINE
  5
2D
  8
0
  6
AIGENLINE001
 62
     7
 10
146.19799999999989
 20
112.884
 30
0.0
 11
143.75399999999999
 21
110.52500000000001
 31
0.0
  0
ARC
  5
2E
  8
0
  6
AIGENLINE001
 62
     7
 10
144.1507729999999
 20
128.2405959999999
 30
0.0
 40
0.7697540000000001
 50
183.7644929999999
 51
197.23989
  0
ARC
  5
2F
  8
0
  6
AIGENLINE001
 62
     7
 10
144.71466699999991
 20
128.39189899999991
 30
0.0
 40
1.353345
 50
196.28229899999999
 51
219.13150200000001
  0
ARC
  5
30
  8
0
  6
AIGENLINE001
 62
     7
 10
144.2792969999999
 20
128.0468929999999
 30
0.0
 40
0.7979270000000001
 50
219.64437599999991
 51
228.86647599999989
  0
ARC
  5
31
  8
0
  6
AIGENLINE001
 62
     7
 10
126.99905699999999
 20
126.911078
 30
0.0
 40
16.433467999999991
 50
4.4637139999999986
 51
9.1054670000000009
  0
ARC
  5
32
  8
0
  6
AIGENLINE001
 62
     7
 10
117.212317
 20
125.46412599999999
 30
0.0
 40
26.326139999999999
 50
8.8441799999999997
 51
13.037065
  0
ARC
  5
33
  8
0
  6
AIGENLINE001
 62
     7
 10
104.81108500000001
 20
122.721734
 30
0.0
 40
39.026558000000001
 50
12.852402
 51
19.087766999999999
  0
ARC
  5
34
  8
0
  6
AIGENLINE001
 62
     7
 10
103.1709729999999
 20
122.3449479999999
 30
0.0
 40
40.700108
 50
18.833984999999998
 51
23.772413
  0
ARC
  5
35
  8
0
  6
AIGENLINE001
 62
     7
 10
115.22238
 20
127.544669
 30
0.0
 40
27.575364
 50
23.979018
 51
27.933175999999989
  0
ARC
  5
36
  8
0
  6
AIGENLINE001
 62
     7
 10
123.865999
 20
132.04951299999991
 30
0.0
 40
17.828651000000001
 50
28.155000999999999
 51
31.789698999999999
  0
ARC
  5
37
  8
0
  6
AIGENLINE001
 62
     7
 10
125.643872
 20
134.93070900000001
 30
0.0
 40
14.876735
 50
25.954844000000001
 51
34.013165999999991
  0
ARC
  5
38
  8
0
  6
AIGENLINE001
 62
     7
 10
121.33142700000001
 20
132.15883400000001
 30
0.0
 40
20.002229
 50
33.684671999999992
 51
40.521520999999993
  0
ARC
  5
39
  8
0
  6
AIGENLINE001
 62
     7
 10
117.19296799999989
 20
128.74033899999989
 30
0.0
 40
25.369399999999992
 50
40.317610999999992
 51
48.857033000000001
  0
ARC
  5
3A
  8
0
  6
AIGENLINE001
 62
     7
 10
115.2486699999999
 20
126.691686
 30
0.0
 40
28.191651
 50
48.620665000000002
 51
60.30241800000001
  0
ARC
  5
3B
  8
0
  6
AIGENLINE001
 62
     7
 10
118.054852
 20
131.43021200000001
 30
0.0
 40
22.685452999999988
 50
60.529797000000002
 51
68.167005000000003
  0
ARC
  5
3C
  8
0
  6
AIGENLINE001
 62
     7
 10
120.400606
 20
137.05592699999991
 30
0.0
 40
16.591089
 50
68.461515000000006
 51
76.688593000000012
  0
ARC
  5
3D
  8
0
  6
AIGENLINE001
 62
     7
 10
147.0197489999999
 20
112.444586
 30
0.0
 40
0.7919450000000001
 50
86.612461999999994
 51
99.927919000000003
  0
ARC
  5
3E
  8
0
  6
AIGENLINE001
 62
     7
 10
147.096025
 20
111.918254
 30
0.0
 40
1.323637999999999
 50
99.252176000000034
 51
128.11128299999999
  0
ARC
  5
3F
  8
0
  6
AIGENLINE001
 62
     7
 10
146.77268000000001
 20
112.35199399999991
 30
0.0
 40
0.782914
 50
129.08384099999989
 51
137.184799
  0
ARC
  5
40
  8
0
  6
AIGENLINE001
 62
     7
 10
146.7811759999999
 20
125.6222989999999
 30
0.0
 40
0.791769
 50
222.60184000000001
 51
235.922381
  0
ARC
  5
41
  8
0
  6
AIGENLINE001
 62
     7
 10
147.09307799999991
 20
126.05497099999999
 30
0.0
 40
1.3250010000000001
 50
235.23442199999991
 51
264.06132200000002
  0
ARC
  5
42
  8
0
  6
AIGENLINE001
 62
     7
 10
147.02390199999991
 20
125.517849
 30
0.0
 40
0.7837170000000001
 50
265.02875799999998
 51
273.11903299999989
  0
LINE
  5
43
  8
0
  6
AIGENLINE001
 62
     7
 10
146.19799999999989
 20
125.086
 30
0.0
 11
143.75399999999999
 21
127.4459999999999
 31
0.0
  0
LINE
  5
44
  8
0
  6
AIGENLINE001
 62
     7
 10
155.31200000000001
 20
124.7349999999999
 30
0.0
 11
147.06700000000001
 21
124.7349999999999
 31
0.0
  0
LINE
  5
45
  8
0
  6
AIGENLINE001
 62
     7
 10
155.31200000000001
 20
113.2349999999999
 30
0.0
 11
147.06700000000001
 21
113.2349999999999
 31
0.0
  0
LINE
  5
46
  8
0
  6
AIGENLINE001
 62
     7
 10
143.43600000000001
 20
127.7349999999999
 30
0.0
 11
143.43600000000001
 21
110.2349999999999
 31
0.0
  0
LINE
  5
47
  8
0
  6
AIGENLINE001
 62
     7
 10
146.56100000000001
 20
124.7349999999999
 30
0.0
 11
146.56100000000001
 21
113.2349999999999
 31
0.0
  0
ARC
  5
48
  8
0
  6
AIGENLINE001
 62
     7
 10
123.889076
 20
158.90474399999991
 30
0.0
 40
4.6657669999999989
 50
202.87843699999999
 51
211.77031400000001
  0
ARC
  5
49
  8
0
  6
AIGENLINE001
 62
     7
 10
125.40811099999991
 20
159.804179
 30
0.0
 40
6.4308610000000002
 50
211.45735400000001
 51
221.86692799999989
  0
ARC
  5
4A
  8
0
  6
AIGENLINE001
 62
     7
 10
126.7824279999999
 20
160.962795
 30
0.0
 40
8.2277539999999991
 50
221.4880629999999
 51
242.68685699999989
  0
ARC
  5
4B
  8
0
  6
AIGENLINE001
 62
     7
 10
125.60527500000001
 20
158.784245
 30
0.0
 40
5.7521319999999987
 50
243.14783799999989
 51
256.07067899999998
  0
ARC
  5
4C
  8
0
  6
AIGENLINE001
 62
     7
 10
125.2646139999999
 20
80.224738000000002
 30
0.0
 40
4.6628220000000002
 50
102.93837600000001
 51
111.83547900000001
  0
ARC
  5
4D
  8
0
  6
AIGENLINE001
 62
     7
 10
125.889056
 20
78.570765000000009
 30
0.0
 40
6.4304870000000003
 50
111.51880199999999
 51
121.92858200000001
  0
ARC
  5
4E
  8
0
  6
AIGENLINE001
 62
     7
 10
126.7944219999999
 20
77.015640000000005
 30
0.0
 40
8.2293240000000001
 50
121.552227
 51
142.74702599999989
  0
ARC
  5
4F
  8
0
  6
AIGENLINE001
 62
     7
 10
124.8487389999999
 20
78.553337999999997
 30
0.0
 40
5.749981
 50
143.20712
 51
156.13545199999999
  0
ARC
  5
50
  8
0
  6
AIGENLINE001
 62
     7
 10
120.898678
 20
99.275696999999994
 30
0.0
 40
14.882009999999999
 50
282.89805199999989
 51
290.95358999999991
  0
ARC
  5
51
  8
0
  6
AIGENLINE001
 62
     7
 10
119.1750139999999
 20
104.096885
 30
0.0
 40
20.001104999999988
 50
290.62577900000002
 51
297.46300200000002
  0
ARC
  5
52
  8
0
  6
AIGENLINE001
 62
     7
 10
116.78040900000001
 20
108.90059599999989
 30
0.0
 40
25.367975000000001
 50
297.25837200000001
 51
305.798224
  0
ARC
  5
53
  8
0
  6
AIGENLINE001
 62
     7
 10
115.219979
 20
111.262598
 30
0.0
 40
28.196736999999999
 50
305.56256200000001
 51
317.24210399999993
  0
ARC
  5
54
  8
0
  6
AIGENLINE001
 62
     7
 10
119.207154
 20
107.453399
 30
0.0
 40
22.683344000000002
 50
317.46923900000002
 51
325.10715399999992
  0
ARC
  5
55
  8
0
  6
AIGENLINE001
 62
     7
 10
124.16033299999999
 20
103.89582900000001
 30
0.0
 40
16.585761999999988
 50
325.39929599999999
 51
333.62902000000003
  0
ARC
  5
56
  8
0
 62
     7
 10
49.551338000000001
 20
216.90138399999989
 30
0.0
 40
32.645890999999999
 50
327.2406299999999
 51
336.03022299999992
  0
ARC
  5
57
  8
0
 62
     7
 10
44.006760999999997
 20
219.51977199999999
 30
0.0
 40
38.776288000000001
 50
335.82326
 51
344.55923799999988
  0
ARC
  5
58
  8
0
 62
     7
 10
37.322887999999999
 20
221.5314819999999
 30
0.0
 40
45.754795000000001
 50
344.3594159999999
 51
355.82333099999988
  0
ARC
  5
59
  8
0
 62
     7
 10
33.361964999999998
 20
222.02565999999999
 30
0.0
 40
49.741610999999992
 50
355.58790699999992
 51
12.430711000000001
  0
ARC
  5
5A
  8
0
 62
     7
 10
40.199848999999993
 20
223.32121599999999
 30
0.0
 40
42.78564699999999
 50
12.707551999999991
 51
21.698726000000001
  0
ARC
  5
5B
  8
0
 62
     7
 10
46.589213000000001
 20
225.702968
 30
0.0
 40
35.968741999999999
 50
21.936602000000001
 51
29.98549199999999
  0
ARC
  5
5C
  8
0
 62
     7
 10
50.42116
 20
227.77857299999999
 30
0.0
 40
31.612563999999999
 50
30.198173000000001
 51
32.76220099999999
  0
ARC
  5
5D
  8
0
 62
     7
 10
63.354363999999997
 20
237.027523
 30
0.0
 40
15.750889000000001
 50
29.928021000000001
 51
119.9253099999999
  0
ARC
  5
5E
  8
0
 62
     7
 10
59.104027999999992
 20
243.53956700000001
 30
0.0
 40
7.9985229999999987
 50
116.80776
 51
123.420073
  0
ARC
  5
5F
  8
0
 62
     7
 10
61.411465999999997
 20
239.89500799999999
 30
0.0
 40
12.311616000000001
 50
123.0412
 51
128.4037229999999
  0
ARC
  5
60
  8
0
 62
     7
 10
64.54996899999999
 20
235.84540699999999
 30
0.0
 40
17.434823000000002
 50
128.21932499999991
 51
143.77443799999989
  0
ARC
  5
61
  8
0
 62
     7
 10
59.460042000000001
 20
239.67609300000001
 30
0.0
 40
11.065296999999999
 50
144.20023699999999
 51
149.8769659999999
  0
ARC
  5
62
  8
0
 62
     7
 10
56.429809999999989
 20
241.48429300000001
 30
0.0
 40
7.5369630000000001
 50
150.205792
 51
153.17199600000001
  0
ARC
  5
63
  8
0
 62
     7
 10
63.354579999999999
 20
207.09438899999989
 30
0.0
 40
15.75073299999999
 50
209.9274749999999
 51
299.92589600000002
  0
ARC
  5
64
  8
0
 62
     7
 10
67.601197999999997
 20
200.590766
 30
0.0
 40
8.0075520000000004
 50
296.80540400000001
 51
303.41079899999988
  0
ARC
  5
65
  8
0
 62
     7
 10
65.295511000000005
 20
204.23139399999999
 30
0.0
 40
12.316402999999999
 50
303.03859199999999
 51
308.39931599999989
  0
ARC
  5
66
  8
0
 62
     7
 10
62.171709999999997
 20
208.26425499999999
 30
0.0
 40
17.417366000000001
 50
308.21234099999998
 51
323.78320899999989
  0
ARC
  5
67
  8
0
 62
     7
 10
67.262394
 20
204.43625299999991
 30
0.0
 40
11.048816999999991
 50
324.20113800000001
 51
329.88602300000002
  0
ARC
  5
68
  8
0
 62
     7
 10
70.284152000000006
 20
202.6341359999999
 30
0.0
 40
7.530867999999999
 50
330.21166899999992
 51
333.18007899999992
  0
ARC
  5
69
  8
0
 62
     7
 10
77.160864000000004
 20
227.21970499999989
 30
0.0
 40
32.649141999999991
 50
147.24212199999999
 51
156.03075200000001
  0
ARC
  5
6A
  8
0
 62
     7
 10
82.702290000000005
 20
224.60295099999999
 30
0.0
 40
38.775995999999992
 50
155.824015
 51
164.56001499999991
  0
ARC
  5
6B
  8
0
 62
     7
 10
89.389557999999994
 20
222.59040200000001
 30
0.0
 40
45.757995999999991
 50
164.36020400000001
 51
175.82330099999999
  0
ARC
  5
6C
  8
0
 62
     7
 10
93.348170999999994
 20
222.09638199999989
 30
0.0
 40
49.742496000000003
 50
175.58787100000001
 51
192.43040899999991
  0
ARC
  5
6D
  8
0
 62
     7
 10
86.508020999999985
 20
220.799992
 30
0.0
 40
42.78413599999999
 50
192.70677000000001
 51
201.69823
  0
ARC
  5
6E
  8
0
 62
     7
 10
79.849648000000002
 20
218.30821099999989
 30
0.0
 40
35.676594000000001
 50
201.93349799999999
 51
211.18647699999991
  0
ARC
  5
6F
  8
0
 62
     7
 10
75.816734999999994
 20
216.04909699999999
 30
0.0
 40
31.057054999999998
 50
211.473724
 51
212.77573699999999
  0
ARC
  5
70
  8
0
 62
     7
 10
60.738556000000003
 20
108.24274799999991
 30
0.0
 40
17.707484000000001
 50
189.46331099999989
 51
197.28151699999989
  0
ARC
  5
71
  8
0
 62
     7
 10
66.850619999999992
 20
109.987703
 30
0.0
 40
24.062462
 50
196.9255179999999
 51
203.520263
  0
ARC
  5
72
  8
0
 62
     7
 10
73.279178999999999
 20
112.652931
 30
0.0
 40
31.020789000000001
 50
203.2955429999999
 51
211.42536499999991
  0
ARC
  5
73
  8
0
 62
     7
 10
76.426092000000011
 20
114.40916299999989
 30
0.0
 40
34.622083000000003
 50
211.19015099999999
 51
222.2712919999999
  0
ARC
  5
74
  8
0
 62
     7
 10
71.064346999999998
 20
109.6786449999999
 30
0.0
 40
27.47282199999999
 50
222.49256799999989
 51
230.16809599999999
  0
ARC
  5
75
  8
0
 62
     7
 10
65.935785999999993
 20
103.711673
 30
0.0
 40
19.605934000000001
 50
230.50793999999999
 51
238.05848
  0
ARC
  5
76
  8
0
 62
     7
 10
61.874366000000002
 20
102.1654319999999
 30
0.0
 40
17.711625999999999
 50
301.56506000000002
 51
309.38155999999998
  0
ARC
  5
77
  8
0
 62
     7
 10
57.969756999999987
 20
107.15833000000001
 30
0.0
 40
24.048696
 50
309.02446400000002
 51
315.62305800000001
  0
ARC
  5
78
  8
0
 62
     7
 10
53.074776
 20
112.119947
 30
0.0
 40
31.017682000000001
 50
315.396028
 51
323.52673199999992
  0
ARC
  5
79
  8
0
 62
     7
 10
50.255240999999998
 20
114.380831
 30
0.0
 40
34.629234999999987
 50
323.2918049999999
 51
334.37070699999992
  0
ARC
  5
7A
  8
0
 62
     7
 10
56.653172999999988
 20
111.192959
 30
0.0
 40
27.482089999999999
 50
334.59340300000002
 51
342.26637399999998
  0
ARC
  5
7B
  8
0
 62
     7
 10
63.991025
 20
108.71428299999999
 30
0.0
 40
19.738327999999999
 50
342.63167199999998
 51
350.131439
  0
ARC
  5
7C
  8
0
 62
     7
 10
62.126950000000001
 20
96.319363999999993
 30
0.0
 40
11.338165
 50
234.626239
 51
249.93071800000001
  0
ARC
  5
7D
  8
0
 62
     7
 10
63.097673999999998
 20
98.644048999999995
 30
0.0
 40
13.855271
 50
249.45908600000001
 51
263.43752299999989
  0
ARC
  5
7E
  8
0
 62
     7
 10
63.333424000000001
 20
100.049442
 30
0.0
 40
15.278575999999999
 50
263.161562
 51
287.256823
  0
ARC
  5
7F
  8
0
 62
     7
 10
64.009189000000006
 20
97.486473000000004
 30
0.0
 40
12.631033
 50
287.77835899999991
 51
301.59939500000002
  0
ARC
  5
80
  8
0
 62
     7
 10
64.893996000000001
 20
95.874813999999986
 30
0.0
 40
10.795095
 50
302.08161000000001
 51
305.38968099999988
  0
ARC
  5
81
  8
0
 62
     7
 10
64.834634999999992
 20
135.80501000000001
 30
0.0
 40
17.711625999999999
 50
121.56504099999999
 51
129.38153999999989
  0
ARC
  5
82
  8
0
 62
     7
 10
68.731830000000002
 20
130.82025200000001
 30
0.0
 40
24.037704000000002
 50
129.02293299999999
 51
135.624548
  0
ARC
  5
83
  8
0
 62
     7
 10
73.636131999999989
 20
125.84910499999999
 30
0.0
 40
31.020015999999991
 50
135.39665400000001
 51
143.52670599999999
  0
ARC
  5
84
  8
0
 62
     7
 10
76.446259999999995
 20
123.5946669999999
 30
0.0
 40
34.620173999999999
 50
143.29104099999989
 51
154.372773
  0
ARC
  5
85
  8
0
 62
     7
 10
70.05590500000001
 20
126.77832600000001
 30
0.0
 40
27.481686
 50
154.59492800000001
 51
162.26792900000001
  0
ARC
  5
86
  8
0
 62
     7
 10
62.589585
 20
129.2881889999999
 30
0.0
 40
19.606009
 50
162.60878600000001
 51
170.15916200000001
  0
ARC
  5
87
  8
0
 62
     7
 10
65.963957999999991
 20
129.72529399999991
 30
0.0
 40
17.714617999999991
 50
9.4673130000000008
 51
17.282446
  0
ARC
  5
88
  8
0
 62
     7
 10
59.857959999999999
 20
127.9817639999999
 30
0.0
 40
24.063375000000001
 50
16.927260999999991
 51
23.521826000000001
  0
ARC
  5
89
  8
0
 62
     7
 10
53.431443999999992
 20
125.3176879999999
 30
0.0
 40
31.019369000000001
 50
23.296296999999988
 51
31.426565
  0
ARC
  5
8A
  8
0
 62
     7
 10
50.281377999999997
 20
123.559805
 30
0.0
 40
34.624210999999988
 50
31.190850000000001
 51
42.271366999999991
  0
ARC
  5
8B
  8
0
 62
     7
 10
55.644597999999988
 20
128.29173899999989
 30
0.0
 40
27.472906999999999
 50
42.492550000000001
 51
50.168068999999988
  0
ARC
  5
8C
  8
0
 62
     7
 10
60.77108599999999
 20
134.25575199999989
 30
0.0
 40
19.60962
 50
50.508732000000009
 51
58.057842000000008
  0
ARC
  5
8D
  8
0
 62
     7
 10
64.581632999999997
 20
141.650755
 30
0.0
 40
11.338671
 50
54.625440000000012
 51
69.92854100000001
  0
ARC
  5
8E
  8
0
 62
     7
 10
63.611125999999999
 20
139.325005
 30
0.0
 40
13.8567
 50
69.459703000000005
 51
83.436314999999993
  0
ARC
  5
8F
  8
0
 62
     7
 10
63.373927999999992
 20
137.91062899999989
 30
0.0
 40
15.289097999999999
 50
83.159113000000005
 51
106.75517600000001
  0
ARC
  5
90
  8
0
 62
     7
 10
62.725083999999988
 20
140.41786200000001
 30
0.0
 40
12.701663
 50
107.213014
 51
120.97578300000001
  0
ARC
  5
91
  8
0
 62
     7
 10
61.830835999999991
 20
142.0717009999999
 30
0.0
 40
10.823769
 50
121.42295900000001
 51
125.384624
  0
ARC
  5
92
  8
0
 62
     7
 10
63.354843999999993
 20
118.98522
 30
0.0
 40
5.7500739999999988
 50
0.001726
 51
90.001696999999979
  0
ARC
  5
93
  8
0
 62
     7
 10
63.354501999999997
 20
118.98522
 30
0.0
 40
5.7500739999999988
 50
89.998283999999998
 51
179.998254
  0
ARC
  5
94
  8
0
 62
     7
 10
63.354672000000001
 20
118.985392
 30
0.0
 40
5.7502440000000004
 50
179.99996999999991
 51
270.00002000000001
  0
ARC
  5
95
  8
0
 62
     7
 10
63.354672000000001
 20
118.985394
 30
0.0
 40
5.7502459999999989
 50
270.00002000000001
 51
359.99998999999991
  0
ARC
  5
96
  8
0
 62
     7
 10
63.354843999999993
 20
118.985219
 30
0.0
 40
8.7500830000000001
 50
0.001138
 51
90.001107999999988
  0
ARC
  5
97
  8
0
 62
     7
 10
63.354501999999997
 20
118.985219
 30
0.0
 40
8.7500830000000001
 50
89.998871999999992
 51
179.998842
  0
ARC
  5
98
  8
0
 62
     7
 10
63.354670999999989
 20
118.98539099999989
 30
0.0
 40
8.7502519999999997
 50
179.99996999999991
 51
270.00002000000001
  0
ARC
  5
99
  8
0
 62
     7
 10
63.354670999999989
 20
118.985395
 30
0.0
 40
8.750255000000001
 50
270.00002000000001
 51
359.99998999999991
  0
ARC
  5
9A
  8
0
 62
     7
 10
65.490383999999992
 20
126.46713200000001
 30
0.0
 40
22.277265
 50
3.6690939999999999
 51
8.8921340000000004
  0
ARC
  5
9B
  8
0
 62
     7
 10
56.947163000000003
 20
125.25577
 30
0.0
 40
30.9053
 50
8.6626849999999997
 51
12.740489
  0
ARC
  5
9C
  8
0
 62
     7
 10
47.091778999999988
 20
123.1120149999999
 30
0.0
 40
40.990890999999991
 50
12.625189000000001
 51
18.138058999999998
  0
ARC
  5
9D
  8
0
 62
     7
 10
36.968456000000003
 20
119.992812
 30
0.0
 40
51.582549999999998
 50
17.930054999999999
 51
28.902159999999999
  0
ARC
  5
9E
  8
0
 62
     7
 10
47.002957000000002
 20
125.397659
 30
0.0
 40
40.185811000000001
 50
29.070651999999988
 51
33.466127999999998
  0
ARC
  5
9F
  8
0
 62
     7
 10
56.207177000000001
 20
131.39077399999991
 30
0.0
 40
29.202771999999989
 50
33.615403999999991
 51
38.827730999999993
  0
ARC
  5
A0
  8
0
 62
     7
 10
62.321856000000011
 20
136.16837399999989
 30
0.0
 40
21.444054000000001
 50
39.126640999999999
 51
41.326976000000002
  0
ARC
  5
A1
  8
0
 62
     7
 10
61.698416999999999
 20
102.3592119999999
 30
0.0
 40
22.280142000000001
 50
318.6558
 51
323.87810000000002
  0
ARC
  5
A2
  8
0
 62
     7
 10
54.796329999999998
 20
107.5489799999999
 30
0.0
 40
30.915044999999999
 50
323.64959299999998
 51
327.72603099999992
  0
ARC
  5
A3
  8
0
 62
     7
 10
46.322140999999988
 20
112.997862
 30
0.0
 40
40.989621
 50
327.61126300000001
 51
333.12421599999999
  0
ARC
  5
A4
  8
0
 62
     7
 10
36.961759999999991
 20
117.9522879999999
 30
0.0
 40
51.579003999999991
 50
332.91553599999992
 51
343.88833099999999
  0
ARC
  5
A5
  8
0
 62
     7
 10
47.856274999999989
 20
114.68188499999999
 30
0.0
 40
40.205001000000003
 50
344.05736000000002
 51
348.45079099999998
  0
ARC
  5
A6
  8
0
 62
     7
 10
58.626615999999999
 20
112.40339899999999
 30
0.0
 40
29.196650999999989
 50
348.59999199999987
 51
353.81358299999988
  0
ARC
  5
A7
  8
0
 62
     7
 10
66.337742000000006
 20
111.4558949999999
 30
0.0
 40
21.428611
 50
354.11039499999998
 51
356.31243499999988
  0
ARC
  5
A8
  8
0
 62
     7
 10
58.800131000000007
 20
114.52484199999989
 30
0.0
 40
29.261763999999999
 50
351.25842999999992
 51
353.53167400000001
  0
ARC
  5
A9
  8
0
 62
     7
 10
41.389906999999987
 20
116.566261
 30
0.0
 40
46.791181999999999
 50
353.44951800000001
 51
356.35722399999997
  0
ARC
  5
AA
  8
0
 62
     7
 10
13.79645599999999
 20
118.53395500000001
 30
0.0
 40
74.454199000000003
 50
356.19519500000001
 51
359.27816599999989
  0
ARC
  5
AB
  8
0
 62
     7
 10
-0.284057
 20
118.948759
 30
0.0
 40
88.539137999999994
 50
359.12454799999989
 51
3.2406019999999991
  0
ARC
  5
AC
  8
0
 62
     7
 10
31.560079000000002
 20
120.566868
 30
0.0
 40
56.654752999999999
 50
3.4272870000000002
 51
5.8811299999999997
  0
ARC
  5
AD
  8
0
 62
     7
 10
53.854430000000008
 20
122.78501799999989
 30
0.0
 40
34.250551999999999
 50
6.011467999999998
 51
8.5764119999999995
  0
ARC
  5
AE
  8
0
 62
     7
 10
65.004823999999999
 20
135.61443399999999
 30
0.0
 40
22.273441999999999
 50
138.6515939999999
 51
143.87543099999999
  0
ARC
  5
AF
  8
0
 62
     7
 10
72.650516999999994
 20
129.88445200000001
 30
0.0
 40
31.827450999999989
 50
143.65786099999991
 51
148.99418799999989
  0
ARC
  5
B0
  8
0
 62
     7
 10
82.569706999999994
 20
123.724932
 30
0.0
 40
43.502591999999993
 50
148.77055300000001
 51
154.03463999999991
  0
ARC
  5
B1
  8
0
 62
     7
 10
90.100095999999994
 20
119.88099099999999
 30
0.0
 40
51.956082000000002
 50
153.859388
 51
163.85090500000001
  0
ARC
  5
B2
  8
0
 62
     7
 10
78.846579000000006
 20
123.29010100000001
 30
0.0
 40
40.198672999999999
 50
164.05695800000001
 51
168.451145
  0
ARC
  5
B3
  8
0
 62
     7
 10
68.092306999999991
 20
125.5655549999999
 30
0.0
 40
29.206675000000001
 50
168.60091800000001
 51
173.81275899999989
  0
ARC
  5
B4
  8
0
 62
     7
 10
60.407462000000002
 20
126.51151400000001
 30
0.0
 40
21.464934
 50
174.11223799999999
 51
176.310552
  0
ARC
  5
B5
  8
0
 62
     7
 10
63.354667999999997
 20
138.48574899999991
 30
0.0
 40
19.167404000000001
 50
38.162112000000008
 51
128.161925
  0
ARC
  5
B6
  8
0
 62
     7
 10
56.493751000000003
 20
146.772097
 30
0.0
 40
8.4173279999999995
 50
126.29313500000001
 51
130.3178969999999
  0
ARC
  5
B7
  8
0
 62
     7
 10
61.629016
 20
140.58189899999999
 30
0.0
 40
16.460049999999988
 50
130.005425
 51
133.3136979999999
  0
ARC
  5
B8
  8
0
 62
     7
 10
65.736544999999992
 20
136.1226659999999
 30
0.0
 40
22.522469999999998
 50
133.1347889999999
 51
138.64139099999991
  0
ARC
  5
B9
  8
0
 62
     7
 10
57.536039000000002
 20
143.39373599999999
 30
0.0
 40
11.562825999999991
 50
138.834338
 51
143.144712
  0
ARC
  5
BA
  8
0
 62
     7
 10
61.218617000000002
 20
111.50331
 30
0.0
 40
22.277265
 50
183.66911399999989
 51
188.892154
  0
ARC
  5
BB
  8
0
 62
     7
 10
69.77872099999999
 20
112.71796399999999
 30
0.0
 40
30.922485999999999
 50
188.66402400000001
 51
192.73950199999999
  0
ARC
  5
BC
  8
0
 62
     7
 10
79.628895999999997
 20
114.861981
 30
0.0
 40
41.003053000000001
 50
192.6264459999999
 51
198.13762700000001
  0
ARC
  5
BD
  8
0
 62
     7
 10
89.737525000000005
 20
117.977161
 30
0.0
 40
51.57949399999999
 50
197.93053900000001
 51
208.90326899999991
  0
ARC
  5
BE
  8
0
 62
     7
 10
79.713578999999996
 20
112.578186
 30
0.0
 40
40.194836000000002
 50
209.07208799999989
 51
213.46667500000001
  0
ARC
  5
BF
  8
0
 62
     7
 10
70.495108000000002
 20
106.575097
 30
0.0
 40
29.194409
 50
213.615287
 51
218.82934
  0
ARC
  5
C0
  8
0
 62
     7
 10
64.370334999999997
 20
101.7876269999999
 30
0.0
 40
21.421635999999989
 50
219.12549899999999
 51
221.32829100000001
  0
ARC
  5
C1
  8
0
 62
     7
 10
66.766151000000008
 20
128.4493249999999
 30
0.0
 40
21.043772000000001
 50
5.9061949999999994
 51
10.296267
  0
ARC
  5
C2
  8
0
 62
     7
 10
57.52167
 20
126.864981
 30
0.0
 40
30.422713000000002
 50
10.120156
 51
14.98422999999999
  0
ARC
  5
C3
  8
0
 62
     7
 10
44.816752000000001
 20
123.636562
 30
0.0
 40
43.530661000000002
 50
14.765402999999999
 51
20.341066999999999
  0
ARC
  5
C4
  8
0
 62
     7
 10
36.536059000000002
 20
120.797912
 30
0.0
 40
52.282156000000001
 50
20.103473999999999
 51
28.845167
  0
ARC
  5
C5
  8
0
 62
     7
 10
49.271425000000001
 20
127.59698999999991
 30
0.0
 40
37.847203999999991
 50
29.130703000000011
 51
33.173707
  0
ARC
  5
C6
  8
0
 62
     7
 10
58.381827000000001
 20
133.45731499999991
 30
0.0
 40
27.015125999999999
 50
33.343038999999997
 51
37.238861
  0
ARC
  5
C7
  8
0
 62
     7
 10
63.843839000000003
 20
137.531927
 30
0.0
 40
20.201097000000001
 50
37.413007999999998
 51
39.439353999999987
  0
ARC
  5
C8
  8
0
 62
     7
 10
63.525129999999997
 20
136.98553499999991
 30
0.0
 40
21.057888999999999
 50
140.553213
 51
144.94061600000001
  0
ARC
  5
C9
  8
0
 62
     7
 10
71.139583999999999
 20
131.52816799999999
 30
0.0
 40
30.425746999999991
 50
144.76504
 51
149.62885899999989
  0
ARC
  5
CA
  8
0
 62
     7
 10
82.363223000000005
 20
124.7573269999999
 30
0.0
 40
43.532800999999999
 50
149.40905100000001
 51
154.984577
  0
ARC
  5
CB
  8
0
 62
     7
 10
90.196500999999984
 20
120.861831
 30
0.0
 40
52.278981999999999
 50
154.74600699999999
 51
163.48809299999999
  0
ARC
  5
CC
  8
0
 62
     7
 10
76.402488000000005
 20
125.147262
 30
0.0
 40
37.83630999999999
 50
163.773158
 51
167.81710599999991
  0
ARC
  5
CD
  8
0
 62
     7
 10
65.821510000000004
 20
127.5124629999999
 30
0.0
 40
26.994606999999998
 50
167.9847879999999
 51
171.88324399999991
  0
ARC
  5
CE
  8
0
 62
     7
 10
59.114165
 20
128.53100499999991
 30
0.0
 40
20.210737999999989
 50
172.057098
 51
174.08227500000001
  0
ARC
  5
CF
  8
0
 62
     7
 10
63.354706
 20
138.486007
 30
0.0
 40
20.000216000000002
 50
36.436971
 51
126.437848
  0
ARC
  5
D0
  8
0
 62
     7
 10
56.409802999999997
 20
147.31596399999989
 30
0.0
 40
8.7782630000000008
 50
124.20096100000001
 51
128.418339
  0
ARC
  5
D1
  8
0
 62
     7
 10
61.142156000000007
 20
141.2370479999999
 30
0.0
 40
16.481884000000001
 50
128.17618400000001
 51
133.12215
  0
ARC
  5
D2
  8
0
 62
     7
 10
65.780212000000006
 20
136.08065999999999
 30
0.0
 40
23.416308999999991
 50
132.78112400000001
 51
139.44243499999999
  0
ARC
  5
D3
  8
0
 62
     7
 10
58.450763000000002
 20
142.43885
 30
0.0
 40
13.713722000000001
 50
139.713853
 51
143.38455200000001
  0
ARC
  5
D4
  8
0
 62
     7
 10
54.094292000000003
 20
145.71784700000001
 30
0.0
 40
8.2613089999999971
 50
143.61710600000001
 51
145.77056799999991
  0
ARC
  5
D5
  8
0
 62
     7
 10
63.188797999999998
 20
100.98335
 30
0.0
 40
21.052878
 50
320.54871000000003
 51
324.93711599999989
  0
ARC
  5
D6
  8
0
 62
     7
 10
55.569145999999989
 20
106.444585
 30
0.0
 40
30.427216000000001
 50
324.76229299999989
 51
329.62583100000001
  0
ARC
  5
D7
  8
0
 62
     7
 10
44.359558999999997
 20
113.2075039999999
 30
0.0
 40
43.518148999999987
 50
329.40651099999991
 51
334.98388699999998
  0
ARC
  5
D8
  8
0
 62
     7
 10
36.508969
 20
117.11048599999999
 30
0.0
 40
52.283181999999996
 50
334.74604299999999
 51
343.487505
  0
ARC
  5
D9
  8
0
 62
     7
 10
50.310561999999997
 20
112.82226799999989
 30
0.0
 40
37.832452000000004
 50
343.77315199999993
 51
347.817609
  0
ARC
  5
DA
  8
0
 62
     7
 10
60.881448999999989
 20
110.4591459999999
 30
0.0
 40
27.001052999999999
 50
347.9856529999999
 51
351.88335799999987
  0
ARC
  5
DB
  8
0
 62
     7
 10
67.624597999999992
 20
109.436036
 30
0.0
 40
20.181090999999999
 50
352.0559859999999
 51
354.08425999999997
  0
ARC
  5
DC
  8
0
 62
     7
 10
59.943902000000001
 20
109.5213589999999
 30
0.0
 40
21.044464000000001
 50
185.9057389999999
 51
190.29589899999991
  0
ARC
  5
DD
  8
0
 62
     7
 10
69.189433999999991
 20
111.1058419999999
 30
0.0
 40
30.424465000000001
 50
190.119821
 51
194.9837739999999
  0
ARC
  5
DE
  8
0
 62
     7
 10
81.879851000000002
 20
114.3295759999999
 30
0.0
 40
43.517198
 50
194.7639999999999
 51
200.34147799999991
  0
ARC
  5
DF
  8
0
 62
     7
 10
90.171645999999996
 20
117.171255
 30
0.0
 40
52.280158999999998
 50
200.10269400000001
 51
208.8446219999999
  0
ARC
  5
E0
  8
0
 62
     7
 10
77.448785000000001
 20
110.379952
 30
0.0
 40
37.859912000000001
 50
209.13102499999991
 51
213.17249000000001
  0
ARC
  5
E1
  8
0
 62
     7
 10
68.317235999999994
 20
104.505899
 30
0.0
 40
27.00262
 50
213.34157400000001
 51
217.23897099999999
  0
ARC
  5
E2
  8
0
 62
     7
 10
62.849063999999998
 20
100.42568
 30
0.0
 40
20.180292000000001
 50
217.411236
 51
219.4395109999999
  0
ARC
  5
E3
  8
0
 62
     7
 10
56.687280999999999
 20
113.5097639999999
 30
0.0
 40
31.615601000000002
 50
348.77621799999997
 51
352.14757500000002
  0
ARC
  5
E4
  8
0
 62
     7
 10
40.286513999999997
 20
115.929827
 30
0.0
 40
48.193471000000002
 50
351.961321
 51
354.6287089999999
  0
ARC
  5
E5
  8
0
 62
     7
 10
19.683685000000001
 20
117.981072
 30
0.0
 40
68.897942
 50
354.53422399999999
 51
357.68118799999991
  0
ARC
  5
E6
  8
0
 62
     7
 10
0.665672
 20
118.9461059999999
 30
0.0
 40
87.939644000000001
 50
357.55428299999988
 51
4.2454289999999988
  0
ARC
  5
E7
  8
0
 62
     7
 10
30.484663000000001
 20
120.9241699999999
 30
0.0
 40
58.056514
 50
4.4771849999999986
 51
7.6144899999999982
  0
ARC
  5
E8
  8
0
 62
     7
 10
52.162018000000003
 20
123.69996
 30
0.0
 40
36.202698999999988
 50
7.8061319999999998
 51
11.011236999999999
  0
ARC
  5
E9
  8
0
 62
     7
 10
67.89725
 20
123.446935
 30
0.0
 40
29.250076
 50
171.25753700000001
 51
173.531543
  0
ARC
  5
EA
  8
0
 62
     7
 10
85.311359999999993
 20
121.404824
 30
0.0
 40
46.783433000000002
 50
173.44910899999999
 51
176.357178
  0
ARC
  5
EB
  8
0
 62
     7
 10
112.903862
 20
119.4369809999999
 30
0.0
 40
74.445513000000005
 50
176.19497899999999
 51
179.278244
  0
ARC
  5
EC
  8
0
 62
     7
 10
126.994354
 20
119.02191599999991
 30
0.0
 40
88.540434000000005
 50
179.124526
 51
183.24059999999989
  0
ARC
  5
ED
  8
0
 62
     7
 10
95.151110000000003
 20
117.4037129999999
 30
0.0
 40
56.656934
 50
183.42712
 51
185.88096499999989
  0
ARC
  5
EE
  8
0
 62
     7
 10
72.860112000000001
 20
115.18590399999999
 30
0.0
 40
34.256101999999991
 50
186.01115599999989
 51
188.5758449999999
  0
ARC
  5
EF
  8
0
 62
     7
 10
70.041853000000003
 20
124.456428
 30
0.0
 40
31.63590499999999
 50
168.775014
 51
172.14438599999991
  0
ARC
  5
F0
  8
0
 62
     7
 10
86.428337999999997
 20
122.03874500000001
 30
0.0
 40
48.199306
 50
171.95972599999999
 51
174.62689099999989
  0
ARC
  5
F1
  8
0
 62
     7
 10
107.0287949999999
 20
119.98800900000001
 30
0.0
 40
68.901368999999988
 50
174.53318799999991
 51
177.68006199999999
  0
ARC
  5
F2
  8
0
 62
     7
 10
126.0214219999999
 20
119.02453799999989
 30
0.0
 40
87.917644999999993
 50
177.55371299999999
 51
184.24654699999999
  0
ARC
  5
F3
  8
0
 62
     7
 10
95.689638999999985
 20
117.00381899999989
 30
0.0
 40
57.519964999999999
 50
184.47648599999999
 51
187.8071459999999
  0
ARC
  5
F4
  8
0
 62
     7
 10
73.719875000000002
 20
114.1327379999999
 30
0.0
 40
35.364111999999992
 50
188.03377199999991
 51
191.04770799999989
  0
ARC
  5
F5
  8
0
 62
     7
 10
63.354533999999987
 20
99.485099000000005
 30
0.0
 40
19.167541
 50
218.163352
 51
308.16216999999989
  0
ARC
  5
F6
  8
0
 62
     7
 10
70.215594999999993
 20
91.198689000000002
 30
0.0
 40
8.4173279999999995
 50
306.2931549999999
 51
310.31791699999991
  0
ARC
  5
F7
  8
0
 62
     7
 10
65.076433999999992
 20
97.393469999999994
 30
0.0
 40
16.466065
 50
310.00557700000002
 51
313.31261599999988
  0
ARC
  5
F8
  8
0
 62
     7
 10
60.966181999999989
 20
101.85602299999989
 30
0.0
 40
22.532769999999999
 50
313.13333399999988
 51
318.63713100000001
  0
ARC
  5
F9
  8
0
 62
     7
 10
69.171975000000003
 20
94.579786999999996
 30
0.0
 40
11.565739999999989
 50
318.82787500000001
 51
323.1364779999999
  0
ARC
  5
FA
  8
0
 62
     7
 10
63.354712999999997
 20
99.485260000000011
 30
0.0
 40
20.000837000000001
 50
216.437389
 51
306.43629800000002
  0
ARC
  5
FB
  8
0
 62
     7
 10
70.292462999999998
 20
90.662304000000006
 30
0.0
 40
8.7887160000000009
 50
304.21047399999998
 51
308.42228
  0
ARC
  5
FC
  8
0
 62
     7
 10
65.565559999999991
 20
96.732280000000003
 30
0.0
 40
16.481939000000001
 50
308.18276299999991
 51
313.12855000000002
  0
ARC
  5
FD
  8
0
 62
     7
 10
60.923487000000002
 20
101.8926529999999
 30
0.0
 40
23.422004999999999
 50
312.786226
 51
319.44612100000001
  0
ARC
  5
FE
  8
0
 62
     7
 10
68.262799999999999
 20
95.527893000000006
 30
0.0
 40
13.707651
 50
319.71431699999988
 51
323.38674800000001
  0
ARC
  5
FF
  8
0
 62
     7
 10
72.607431000000005
 20
92.257990000000007
 30
0.0
 40
8.2701689999999992
 50
323.61883799999993
 51
325.77002299999992
  0
ARC
  5
100
  8
0
 62
     7
 10
145.87997799999991
 20
239.980075
 30
0.0
 40
1.341242
 50
194.462152
 51
222.83338900000001
  0
ARC
  5
101
  8
0
 62
     7
 10
146.048722
 20
240.11150799999999
 30
0.0
 40
1.5544530000000001
 50
222.15741299999999
 51
265.143595
  0
ARC
  5
102
  8
0
 62
     7
 10
145.98373100000001
 20
239.80620200000001
 30
0.0
 40
1.245347999999999
 50
266.93407200000001
 51
271.77608500000002
  0
ARC
  5
103
  8
0
 62
     7
 10
145.9838189999999
 20
217.21932299999989
 30
0.0
 40
1.342225
 50
88.355874999999997
 51
116.70985899999999
  0
ARC
  5
104
  8
0
 62
     7
 10
146.06268700000001
 20
217.0222149999999
 30
0.0
 40
1.553855999999999
 50
116.040862
 51
159.04652400000001
  0
ARC
  5
105
  8
0
 62
     7
 10
145.80338199999991
 20
217.16386
 30
0.0
 40
1.261665
 50
160.84282400000001
 51
165.62161399999991
  0
LINE
  5
106
  8
0
 62
     7
 10
155.31200000000001
 20
219.81099999999989
 30
0.0
 11
155.31200000000001
 21
237.31100000000001
 31
0.0
  0
ARC
  5
107
  8
0
 62
     7
 10
161.8597969999999
 20
237.847024
 30
0.0
 40
41.240025999999993
 50
158.11212199999991
 51
163.96500199999991
  0
ARC
  5
108
  8
0
 62
     7
 10
175.46595199999999
 20
233.696091
 30
0.0
 40
55.463878000000001
 50
163.72628499999999
 51
169.1928879999999
  0
ARC
  5
109
  8
0
 62
     7
 10
192.5033719999999
 20
230.17639999999989
 30
0.0
 40
72.859549000000001
 50
168.98630299999991
 51
175.337951
  0
ARC
  5
10A
  8
0
 62
     7
 10
207.70586599999999
 20
228.59319999999991
 30
0.0
 40
88.141088999999994
 50
175.11541800000001
 51
187.590149
  0
ARC
  5
10B
  8
0
 62
     7
 10
189.93380199999999
 20
226.49572900000001
 30
0.0
 40
70.248204999999999
 50
187.80901399999991
 51
192.93945199999999
  0
ARC
  5
10C
  8
0
 62
     7
 10
173.2438939999999
 20
222.84720899999991
 30
0.0
 40
53.165427999999999
 50
193.13488599999999
 51
198.65957800000001
  0
ARC
  5
10D
  8
0
 62
     7
 10
161.22880599999999
 20
218.992558
 30
0.0
 40
40.549078999999992
 50
198.931048
 51
201.849378
  0
ARC
  5
10E
  8
0
 62
     7
 10
136.57776299999989
 20
237.8342759999999
 30
0.0
 40
8.2057729999999989
 50
12.74887899999999
 51
21.466609999999989
  0
ARC
  5
10F
  8
0
 62
     7
 10
133.30635299999989
 20
236.64036200000001
 30
0.0
 40
11.68748999999999
 50
21.044475999999989
 51
28.861322000000001
  0
ARC
  5
110
  8
0
 62
     7
 10
130.05812399999991
 20
234.93291300000001
 30
0.0
 40
15.35659899999999
 50
28.590730999999991
 51
49.190285999999993
  0
ARC
  5
111
  8
0
 62
     7
 10
133.63130699999991
 20
238.92300099999991
 30
0.0
 40
10.001784000000001
 50
49.74464099999998
 51
60.468280999999998
  0
LINE
  5
112
  8
0
 62
     7
 10
126.56100000000001
 20
253.81200000000001
 30
0.0
 11
126.5029999999999
 21
253.81200000000001
 31
0.0
  0
ARC
  5
113
  8
0
 62
     7
 10
124.02198899999991
 20
253.1804569999999
 30
0.0
 40
0.37523
 50
98.741062999999997
 51
117.55962599999989
  0
ARC
  5
114
  8
0
 62
     7
 10
124.0829879999999
 20
253.049587
 30
0.0
 40
0.519513
 50
116.84581
 51
160.7410689999999
  0
ARC
  5
115
  8
0
 62
     7
 10
131.33390399999999
 20
240.556273
 30
0.0
 40
11.742932
 50
52.014457
 51
59.025649000000001
  0
ARC
  5
116
  8
0
 62
     7
 10
128.03230600000001
 20
235.28682599999999
 30
0.0
 40
17.960518
 50
58.646535999999998
 51
64.996172000000001
  0
ARC
  5
117
  8
0
 62
     7
 10
124.93488000000001
 20
228.907612
 30
0.0
 40
25.051331000000001
 50
64.742811000000003
 51
80.061933999999994
  0
ARC
  5
118
  8
0
 62
     7
 10
126.34003
 20
236.39753799999991
 30
0.0
 40
17.431526000000002
 50
80.362454
 51
86.381731000000016
  0
ARC
  5
119
  8
0
 62
     7
 10
126.76482
 20
241.93311099999991
 30
0.0
 40
11.880414
 50
86.741512999999998
 51
90.982011000000014
  0
ARC
  5
11A
  8
0
 62
     7
 10
126.36029599999991
 20
248.89715200000001
 30
0.0
 40
4.9167089999999991
 50
88.332965999999999
 51
90.670644999999979
  0
ARC
  5
11B
  8
0
 62
     7
 10
126.41414499999991
 20
244.01401699999991
 30
0.0
 40
9.8001399999999972
 50
90.651283999999976
 51
94.889647999999994
  0
ARC
  5
11C
  8
0
 62
     7
 10
126.71399099999999
 20
239.384839
 30
0.0
 40
14.438347
 50
94.509392000000005
 51
99.60066999999998
  0
ARC
  5
11D
  8
0
 62
     7
 10
125.37369099999989
 20
247.52268499999991
 30
0.0
 40
6.1910470000000002
 50
99.931119999999993
 51
103.1524169999999
  0
LINE
  5
11E
  8
0
 62
     7
 10
126.56100000000001
 20
203.31
 30
0.0
 11
126.5029999999999
 21
203.31
 31
0.0
  0
ARC
  5
11F
  8
0
 62
     7
 10
134.631147
 20
216.68159900000001
 30
0.0
 40
8.1892099999999992
 50
298.67959000000002
 51
307.4150939999999
  0
ARC
  5
120
  8
0
 62
     7
 10
132.58150599999999
 20
219.50618600000001
 30
0.0
 40
11.678316000000001
 50
306.98217099999988
 51
314.805296
  0
ARC
  5
121
  8
0
 62
     7
 10
130.0460159999999
 20
222.16411400000001
 30
0.0
 40
15.351069000000001
 50
314.52873999999991
 51
335.13547399999999
  0
ARC
  5
122
  8
0
 62
     7
 10
134.86210700000001
 20
219.82696399999989
 30
0.0
 40
9.9991520000000005
 50
335.68249900000001
 51
346.40836699999988
  0
LINE
  5
123
  8
0
 62
     7
 10
147.06
 20
238.56099999999989
 30
0.0
 11
146.02199999999999
 21
238.56099999999989
 31
0.0
  0
LINE
  5
124
  8
0
 62
     7
 10
147.06
 20
218.56100000000001
 30
0.0
 11
146.02199999999999
 21
218.56100000000001
 31
0.0
  0
LINE
  5
125
  8
0
 62
     7
 10
147.06
 20
218.56100000000001
 30
0.0
 11
155.31200000000001
 21
219.81099999999989
 31
0.0
  0
LINE
  5
126
  8
0
 62
     7
 10
147.06
 20
238.56099999999989
 30
0.0
 11
155.31200000000001
 21
237.31100000000001
 31
0.0
  0
ARC
  5
127
  8
0
 62
     7
 10
123.98989899999989
 20
204.01508499999991
 30
0.0
 40
0.4132649999999999
 50
195.95234199999999
 51
224.597916
  0
ARC
  5
128
  8
0
 62
     7
 10
124.07285
 20
204.07220299999989
 30
0.0
 40
0.512736
 50
222.63395800000001
 51
257.85361699999999
  0
ARC
  5
129
  8
0
 62
     7
 10
126.78841199999999
 20
215.074352
 30
0.0
 40
11.76605099999999
 50
268.89354100000003
 51
275.891098
  0
ARC
  5
12A
  8
0
 62
     7
 10
126.267346
 20
221.25775699999991
 30
0.0
 40
17.970658
 50
275.52017799999987
 51
281.86636699999991
  0
ARC
  5
12B
  8
0
 62
     7
 10
124.917198
 20
228.21617599999999
 30
0.0
 40
25.058244999999999
 50
281.61585200000002
 51
296.930656
  0
ARC
  5
12C
  8
0
 62
     7
 10
128.30469799999989
 20
221.34883599999989
 30
0.0
 40
17.401626
 50
297.22749800000003
 51
303.25695899999999
  0
ARC
  5
12D
  8
0
 62
     7
 10
131.26741799999991
 20
216.69644400000001
 30
0.0
 40
11.88669399999999
 50
303.61298999999991
 51
307.8511529999999
  0
LINE
  5
12E
  8
0
 62
     7
 10
138.56099999999989
 20
207.31099999999989
 30
0.0
 11
138.56099999999989
 21
249.81200000000001
 31
0.0
  0
ARC
  5
12F
  8
0
 62
     7
 10
125.1029769999999
 20
208.35811200000001
 30
0.0
 40
4.9205730000000001
 50
256.62779
 51
258.96316999999988
  0
ARC
  5
130
  8
0
 62
     7
 10
126.045461
 20
213.1767759999999
 30
0.0
 40
9.8305419999999994
 50
258.94821100000001
 51
263.17302100000001
  0
ARC
  5
131
  8
0
 62
     7
 10
126.688582
 20
217.73766199999989
 30
0.0
 40
14.43585899999999
 50
262.79040400000002
 51
267.88274799999988
  0
ARC
  5
132
  8
0
 62
     7
 10
126.349959
 20
209.49842899999999
 30
0.0
 40
6.1898339999999994
 50
268.19742799999989
 51
271.41980599999999
  0
ARC
  5
133
  8
0
 62
     7
 10
120.0880639999999
 20
80.727932999999979
 30
0.0
 40
0.5186150000000001
 50
170.04055299999999
 51
255.233923
  0
ARC
  5
134
  8
0
 62
     7
 10
120.08801200000001
 20
157.24256800000001
 30
0.0
 40
0.518544
 50
104.762226
 51
189.94813099999999
  0
ARC
  5
135
  8
0
 62
     7
 10
40.634562000000003
 20
101.56910000000001
 30
0.0
 40
81.624591000000009
 50
345.27199999999988
 51
348.879572
  0
ARC
  5
136
  8
0
 62
     7
 10
8.8930229999999995
 20
108.130662
 30
0.0
 40
114.03612800000001
 50
348.72064599999987
 51
352.10625499999998
  0
ARC
  5
137
  8
0
 62
     7
 10
-32.535254999999999
 20
114.27169600000001
 30
0.0
 40
155.91573500000001
 50
351.96174999999988
 51
355.53975600000001
  0
ARC
  5
138
  8
0
 62
     7
 10
-82.035223999999999
 20
118.65844899999991
 30
0.0
 40
205.60760799999991
 50
355.39373899999998
 51
0.8240280000000002
  0
ARC
  5
139
  8
0
 62
     7
 10
-88.153812000000002
 20
119.118582
 30
0.0
 40
211.71965599999999
 50
0.675706
 51
4.8649329999999997
  0
ARC
  5
13A
  8
0
 62
     7
 10
-40.475042999999992
 20
122.7973439999999
 30
0.0
 40
163.901105
 50
4.9970689999999998
 51
8.3681549999999998
  0
ARC
  5
13B
  8
0
 62
     7
 10
4.7813419999999986
 20
129.12457800000001
 30
0.0
 40
118.206177
 50
8.5263829999999992
 51
11.745889
  0
ARC
  5
13C
  8
0
 62
     7
 10
36.749071999999991
 20
135.5276749999999
 30
0.0
 40
85.604693000000012
 50
11.905654999999991
 51
14.63250199999999
  0
ARC
  5
13D
  8
0
 62
     7
 10
131.46972500000001
 20
146.09488899999999
 30
0.0
 40
10.986592999999999
 50
49.799087999999998
 51
57.434554999999989
  0
ARC
  5
13E
  8
0
 62
     7
 10
128.75411
 20
142.04883699999999
 30
0.0
 40
15.858613999999999
 50
57.034169999999989
 51
63.162888000000009
  0
ARC
  5
13F
  8
0
 62
     7
 10
125.992054
 20
136.734737
 30
0.0
 40
21.847394999999999
 50
62.991149
 51
82.48563
  0
ARC
  5
140
  8
0
 62
     7
 10
127.07335500000001
 20
144.03871699999991
 30
0.0
 40
14.465206
 50
82.948425999999998
 51
90.493848999999983
  0
ARC
  5
141
  8
0
 62
     7
 10
127.127476
 20
148.315291
 30
0.0
 40
10.189664
 50
91.005433000000011
 51
93.488439999999997
  0
ARC
  5
142
  8
0
 62
     7
 10
127.175386
 20
90.449585999999996
 30
0.0
 40
10.985542000000001
 50
266.51426299999991
 51
274.15064099999989
  0
ARC
  5
143
  8
0
 62
     7
 10
126.932986
 20
95.320118999999977
 30
0.0
 40
15.86123299999999
 50
273.75053899999989
 51
279.878331
  0
ARC
  5
144
  8
0
 62
     7
 10
125.97093099999999
 20
101.227186
 30
0.0
 40
21.845867999999989
 50
279.70627200000001
 51
299.20223099999993
  0
ARC
  5
145
  8
0
 62
     7
 10
129.46860100000001
 20
94.729258999999985
 30
0.0
 40
14.467791
 50
299.66625199999999
 51
307.21042699999998
  0
ARC
  5
146
  8
0
 62
     7
 10
131.98249699999991
 20
91.267712999999986
 30
0.0
 40
10.19109199999999
 50
307.72335499999991
 51
310.20606099999992
  0
ARC
  5
147
  8
0
 62
     7
 10
146.0793899999999
 20
130.4493239999999
 30
0.0
 40
1.4336450000000001
 50
189.5566199999999
 51
231.86278599999989
  0
ARC
  5
148
  8
0
 62
     7
 10
146.14327
 20
130.49370799999991
 30
0.0
 40
1.5081759999999991
 50
230.9952879999999
 51
269.89464500000003
  0
LINE
  5
149
  8
0
 62
     7
 10
147.06
 20
128.98599999999999
 30
0.0
 11
146.1399999999999
 21
128.98599999999999
 31
0.0
  0
ARC
  5
14A
  8
0
 62
     7
 10
131.5027639999999
 20
137.43452500000001
 30
0.0
 40
10.018302999999991
 50
28.248795999999999
 51
29.825635999999999
  0
ARC
  5
14B
  8
0
 62
     7
 10
123.702495
 20
132.98482999999999
 30
0.0
 40
18.998491999999999
 50
29.767557
 51
31.257712000000001
  0
ARC
  5
14C
  8
0
 62
     7
 10
113.806006
 20
126.9898199999999
 30
0.0
 40
30.56917
 50
31.238244999999999
 51
34.848954999999989
  0
ARC
  5
14D
  8
0
 62
     7
 10
127.464968
 20
136.49038999999991
 30
0.0
 40
13.931023
 50
34.882623999999993
 51
37.201397
  0
ARC
  5
14E
  8
0
 62
     7
 10
128.56795399999999
 20
127.90732300000001
 30
0.0
 40
16.261731000000001
 50
8.1451520000000013
 51
11.11343999999999
  0
ARC
  5
14F
  8
0
 62
     7
 10
119.8924529999999
 20
126.2452939999999
 30
0.0
 40
25.094937999999988
 50
11.019007999999991
 51
14.914827000000001
  0
ARC
  5
150
  8
0
 62
     7
 10
106.5393429999999
 20
122.8320999999999
 30
0.0
 40
38.876919999999991
 50
14.710473
 51
18.921594999999989
  0
ARC
  5
151
  8
0
 62
     7
 10
99.950948999999994
 20
120.74408
 30
0.0
 40
45.786673
 50
18.719805999999991
 51
24.390069
  0
ARC
  5
152
  8
0
 62
     7
 10
114.32271299999989
 20
127.120226
 30
0.0
 40
30.064776999999999
 50
24.633364
 51
27.951269
  0
ARC
  5
153
  8
0
 62
     7
 10
124.3237289999999
 20
132.36444900000001
 30
0.0
 40
18.77242
 50
28.119789000000001
 51
31.511409
  0
ARC
  5
154
  8
0
 62
     7
 10
146.11669199999989
 20
107.5489289999999
 30
0.0
 40
1.4361749999999991
 50
89.050294999999991
 51
131.28641999999991
  0
ARC
  5
155
  8
0
 62
     7
 10
146.14700999999999
 20
107.481227
 30
0.0
 40
1.5072110000000001
 50
130.454241
 51
169.374708
  0
LINE
  5
156
  8
0
 62
     7
 10
147.06
 20
108.9849999999999
 30
0.0
 11
146.1399999999999
 21
108.9849999999999
 31
0.0
  0
LINE
  5
157
  8
0
 62
     7
 10
147.06
 20
108.9849999999999
 30
0.0
 11
155.31200000000001
 21
110.2349999999999
 31
0.0
  0
ARC
  5
158
  8
0
 62
     7
 10
130.58023700000001
 20
99.165149000000014
 30
0.0
 40
10.050109000000001
 50
322.57230099999992
 51
324.14428900000001
  0
ARC
  5
159
  8
0
 62
     7
 10
123.38596200000001
 20
104.3880769999999
 30
0.0
 40
18.940348999999991
 50
324.08640200000002
 51
325.58124399999991
  0
ARC
  5
15A
  8
0
 62
     7
 10
113.79880900000001
 20
110.9716249999999
 30
0.0
 40
30.570333000000002
 50
325.55886299999992
 51
329.16942599999987
  0
ARC
  5
15B
  8
0
 62
     7
 10
128.10869099999991
 20
102.421993
 30
0.0
 40
13.900935999999991
 50
329.20083999999991
 51
331.52439900000002
  0
ARC
  5
15C
  8
0
 62
     7
 10
126.50589599999989
 20
104.334637
 30
0.0
 40
16.247645999999989
 50
328.28873900000002
 51
331.25964199999999
  0
ARC
  5
15D
  8
0
 62
     7
 10
118.7645689999999
 20
108.62746199999999
 30
0.0
 40
25.099502999999991
 50
331.16460599999999
 51
335.05979599999989
  0
ARC
  5
15E
  8
0
 62
     7
 10
106.347084
 20
114.55536600000001
 30
0.0
 40
38.858916999999998
 50
334.85483199999987
 51
339.06802699999997
  0
ARC
  5
15F
  8
0
 62
     7
 10
99.917129000000017
 20
117.18763
 30
0.0
 40
45.805213999999999
 50
338.86615599999999
 51
344.53414600000002
  0
ARC
  5
160
  8
0
 62
     7
 10
115.064455
 20
112.86451
 30
0.0
 40
30.05382899999999
 50
344.77689199999998
 51
348.09587900000002
  0
ARC
  5
161
  8
0
 62
     7
 10
126.100132
 20
110.4821049999999
 30
0.0
 40
18.76413299999999
 50
348.26317999999998
 51
351.65602100000001
  0
LINE
  5
162
  8
0
 62
     7
 10
147.06
 20
128.98599999999999
 30
0.0
 11
155.31200000000001
 21
127.7349999999999
 31
0.0
  0
LINE
  5
163
  8
0
 62
     7
 10
155.31200000000001
 20
110.2349999999999
 30
0.0
 11
155.31200000000001
 21
127.7349999999999
 31
0.0
  0
ARC
  5
164
  8
0
 62
     7
 10
126.1555929999999
 20
145.98530600000001
 30
0.0
 40
12.505718999999999
 50
88.387664999999998
 51
91.628015999999988
  0
ARC
  5
165
  8
0
 62
     7
 10
126.3690939999999
 20
135.29713699999999
 30
0.0
 40
23.195814999999989
 50
91.405110000000008
 51
94.200275000000005
  0
ARC
  5
166
  8
0
 62
     7
 10
127.144533
 20
123.631266
 30
0.0
 40
34.887242999999991
 50
94.067101000000008
 51
99.583519000000024
  0
ARC
  5
167
  8
0
 62
     7
 10
124.85826399999991
 20
137.398762
 30
0.0
 40
20.931291000000002
 50
99.686781000000011
 51
102.4984239999999
  0
ARC
  5
168
  8
0
 62
     7
 10
122.95984199999999
 20
146.1277879999999
 30
0.0
 40
11.998336
 50
102.6686259999999
 51
104.499084
  0
ARC
  5
169
  8
0
 62
     7
 10
123.107949
 20
92.391218000000009
 30
0.0
 40
12.566511
 50
255.473341
 51
258.69758599999989
  0
ARC
  5
16A
  8
0
 62
     7
 10
125.2790449999999
 20
102.80982400000001
 30
0.0
 40
23.208733999999989
 50
258.48262699999992
 51
261.27606400000002
  0
ARC
  5
16B
  8
0
 62
     7
 10
127.132937
 20
114.360669
 30
0.0
 40
34.907222999999988
 50
261.14396499999992
 51
266.657264
  0
ARC
  5
16C
  8
0
 62
     7
 10
126.2802699999999
 20
100.40857800000001
 30
0.0
 40
20.929185
 50
266.76043099999993
 51
269.5725799999999
  0
ARC
  5
16D
  8
0
 62
     7
 10
126.1786679999999
 20
91.449329000000006
 30
0.0
 40
11.969479
 50
269.73898800000001
 51
271.57408700000002
  0
LINE
  5
16E
  8
0
 62
     7
 10
138.56099999999989
 20
83.484499999999997
 30
0.0
 11
138.56099999999989
 21
154.4859999999999
 31
0.0
  0
TEXT
  5
16F
  8
0
 62
     7
 10
54.55210000000001
 20
211.38637249999991
 30
0.0
 40
3.0923400000000001
  1
60
 50
90.0
 41
0.5
 72
     1
 11
54.55210000000001
 21
212.54599999999991
 31
0.0
  0
LINE
  5
170
  8
0
 62
     7
 10
55.762700000000002
 20
219.84999999999999
 30
0.0
 11
55.170099999999991
 21
222.06200000000001
 31
0.0
  0
LINE
  5
171
  8
0
 62
     7
 10
55.170099999999991
 20
222.06200000000001
 30
0.0
 11
54.577399999999997
 21
219.84999999999999
 31
0.0
  0
LINE
  5
172
  8
0
 62
     7
 10
54.577399999999997
 20
219.84999999999999
 30
0.0
 11
55.762700000000002
 21
219.84999999999999
 31
0.0
  0
LINE
  5
173
  8
0
 62
     7
 10
54.591999999999999
 20
209.30500000000001
 30
0.0
 11
55.18460000000001
 21
207.0929999999999
 31
0.0
  0
LINE
  5
174
  8
0
 62
     7
 10
55.18460000000001
 20
207.0929999999999
 30
0.0
 11
55.77729999999999
 21
209.30500000000001
 31
0.0
  0
LINE
  5
175
  8
0
 62
     7
 10
55.77729999999999
 20
209.30500000000001
 30
0.0
 11
54.591999999999999
 21
209.30500000000001
 31
0.0
  0
LINE
  5
176
  8
0
 62
     7
 10
55.177300000000002
 20
222.06099999999989
 30
0.0
 11
55.177300000000002
 21
207.09399999999999
 31
0.0
  0
LINE
  5
177
  8
0
 62
     7
 10
64.054699999999997
 20
207.09399999999999
 30
0.0
 11
54.427300000000002
 21
207.09399999999999
 31
0.0
  0
TEXT
  5
178
  8
0
 62
     7
 10
48.731882499999998
 20
232.41099999999989
 30
0.0
 40
3.0923400000000001
  1
104
 41
0.5
 72
     1
 11
50.4069
 21
232.41099999999989
 31
0.0
  0
LINE
  5
179
  8
0
 62
     7
 10
61.143900000000002
 20
231.12599999999989
 30
0.0
 11
63.355699999999999
 21
231.71899999999999
 31
0.0
  0
LINE
  5
17A
  8
0
 62
     7
 10
63.355699999999999
 20
231.71899999999999
 30
0.0
 11
61.143900000000002
 21
232.31099999999989
 31
0.0
  0
LINE
  5
17B
  8
0
 62
     7
 10
61.143900000000002
 20
232.31099999999989
 30
0.0
 11
61.143900000000002
 21
231.12599999999989
 31
0.0
  0
LINE
  5
17C
  8
0
 62
     7
 10
39.564799999999991
 20
232.297
 30
0.0
 11
37.353000000000002
 21
231.70399999999989
 31
0.0
  0
LINE
  5
17D
  8
0
 62
     7
 10
37.353000000000002
 20
231.70399999999989
 30
0.0
 11
39.564799999999991
 21
231.1109999999999
 31
0.0
  0
LINE
  5
17E
  8
0
 62
     7
 10
39.564799999999991
 20
231.1109999999999
 30
0.0
 11
39.564799999999991
 21
232.297
 31
0.0
  0
LINE
  5
17F
  8
0
 62
     7
 10
63.354700000000001
 20
231.71100000000001
 30
0.0
 11
37.353999999999999
 21
231.71100000000001
 31
0.0
  0
LINE
  5
180
  8
0
 62
     7
 10
37.353999999999999
 20
220.84
 30
0.0
 11
37.353999999999999
 21
232.4609999999999
 31
0.0
  0
LINE
  5
181
  8
0
 62
     7
 10
65.171499999999995
 20
205.6999999999999
 30
0.0
 11
63.354700000000001
 21
207.09399999999999
 31
0.0
  0
LINE
  5
182
  8
0
 62
     7
 10
63.354700000000001
 20
207.09399999999999
 30
0.0
 11
64.231099999999998
 21
204.97799999999989
 31
0.0
  0
LINE
  5
183
  8
0
 62
     7
 10
64.231099999999998
 20
204.97799999999989
 30
0.0
 11
65.171499999999995
 21
205.6999999999999
 31
0.0
  0
LINE
  5
184
  8
0
 62
     7
 10
71.126999999999995
 20
195.99299999999991
 30
0.0
 11
72.943799999999996
 21
194.59899999999999
 31
0.0
  0
LINE
  5
185
  8
0
 62
     7
 10
72.943799999999996
 20
194.59899999999999
 30
0.0
 11
72.067400000000006
 21
196.715
 31
0.0
  0
LINE
  5
186
  8
0
 62
     7
 10
72.067400000000006
 20
196.715
 30
0.0
 11
71.126999999999995
 21
195.99299999999991
 31
0.0
  0
LINE
  5
187
  8
0
 62
     7
 10
63.354700000000001
 20
207.09399999999999
 30
0.0
 11
72.943799999999996
 21
194.59899999999999
 31
0.0
  0
TEXT
  5
188
  8
0
 62
     7
 10
67.497387608854211
 20
202.89145789282151
 30
0.0
 40
3.0923400000000001
  1
R63
 50
307.50400000000002
 41
0.5
 72
     1
 11
68.752499999999998
 21
201.25599999999989
 31
0.0
  0
LINE
  5
189
  8
0
 62
     7
 10
39.62939999999999
 20
221.803
 30
0.0
 11
37.353999999999999
 21
222.06099999999989
 31
0.0
  0
LINE
  5
18A
  8
0
 62
     7
 10
37.353999999999999
 20
222.06099999999989
 30
0.0
 11
39.195399999999992
 21
220.6999999999999
 31
0.0
  0
LINE
  5
18B
  8
0
 62
     7
 10
39.195399999999992
 20
220.6999999999999
 30
0.0
 11
39.62939999999999
 21
221.803
 31
0.0
  0
LINE
  5
18C
  8
0
 62
     7
 10
77.655500000000004
 20
205.5749999999999
 30
0.0
 11
79.930899999999994
 21
205.31700000000001
 31
0.0
  0
LINE
  5
18D
  8
0
 62
     7
 10
79.930899999999994
 20
205.31700000000001
 30
0.0
 11
78.089399999999983
 21
206.678
 31
0.0
  0
LINE
  5
18E
  8
0
 62
     7
 10
78.089399999999983
 20
206.678
 30
0.0
 11
77.655500000000004
 21
205.5749999999999
 31
0.0
  0
LINE
  5
18F
  8
0
 62
     7
 10
37.353999999999999
 20
222.06099999999989
 30
0.0
 11
79.930899999999994
 21
205.31700000000001
 31
0.0
  0
TEXT
  5
190
  8
0
 62
     7
 10
66.977266261216911
 20
211.252199805667
 30
0.0
 40
3.0923400000000001
  1
R183
 50
338.52999999999992
 41
0.5
 72
     1
 11
69.375399999999999
 21
210.309
 31
0.0
  0
TEXT
  5
191
  8
0
 62
     7
 10
166.25
 20
116.92344
 30
0.0
 40
3.0923400000000001
  1
284
 50
90.0
 41
0.5
 72
     1
 11
166.25
 21
118.985
 31
0.0
  0
LINE
  5
192
  8
0
 62
     7
 10
167.53499999999991
 20
152.27600000000001
 30
0.0
 11
166.94200000000001
 21
154.48699999999991
 31
0.0
  0
LINE
  5
193
  8
0
 62
     7
 10
166.94200000000001
 20
154.48699999999991
 30
0.0
 11
166.34999999999991
 21
152.27600000000001
 31
0.0
  0
LINE
  5
194
  8
0
 62
     7
 10
166.34999999999991
 20
152.27600000000001
 30
0.0
 11
167.53499999999991
 21
152.27600000000001
 31
0.0
  0
LINE
  5
195
  8
0
 62
     7
 10
166.364
 20
85.6952
 30
0.0
 11
166.95699999999999
 21
83.483500000000006
 31
0.0
  0
LINE
  5
196
  8
0
 62
     7
 10
166.95699999999999
 20
83.483500000000006
 30
0.0
 11
167.54900000000001
 21
85.6952
 31
0.0
  0
LINE
  5
197
  8
0
 62
     7
 10
167.54900000000001
 20
85.6952
 30
0.0
 11
166.364
 21
85.6952
 31
0.0
  0
LINE
  5
198
  8
0
 62
     7
 10
166.94999999999999
 20
154.4859999999999
 30
0.0
 11
166.94999999999999
 21
83.484499999999997
 31
0.0
  0
LINE
  5
199
  8
0
 62
     7
 10
139.93700000000001
 20
83.484499999999997
 30
0.0
 11
167.65000000000001
 21
83.484499999999997
 31
0.0
  0
LINE
  5
19A
  8
0
 62
     7
 10
139.93700000000001
 20
154.4859999999999
 30
0.0
 11
167.65000000000001
 21
154.4859999999999
 31
0.0
  0
LINE
  5
19B
  8
0
 62
     7
 10
68.555199999999999
 20
228.12
 30
0.0
 11
67.410600000000002
 21
226.13699999999989
 31
0.0
  0
LINE
  5
19C
  8
0
 62
     7
 10
67.410600000000002
 20
226.13699999999989
 30
0.0
 11
69.3934
 21
227.28200000000001
 31
0.0
  0
LINE
  5
19D
  8
0
 62
     7
 10
69.3934
 20
227.28200000000001
 30
0.0
 11
68.555199999999999
 21
228.12
 31
0.0
  0
LINE
  5
19E
  8
0
 62
     7
 10
67.410600000000002
 20
226.13699999999989
 30
0.0
 11
70.619399999999985
 21
229.34700000000001
 31
0.0
  0
TEXT
  5
19F
  8
0
 62
     7
 10
73.843177999999995
 20
230.047
 30
0.0
 40
3.0923400000000001
  1
排水口
 41
0.5
 72
     2
 11
78.893999999999991
 21
230.047
 31
0.0
  0
LINE
  5
1A0
  8
0
 62
     7
 10
47.5259
 20
126.70699999999999
 30
0.0
 11
56.002600000000001
 21
126.70699999999999
 31
0.0
  0
LINE
  5
1A1
  8
0
 62
     7
 10
69.273899999999983
 20
113.6279999999999
 30
0.0
 11
67.319699999999997
 21
114.8209999999999
 31
0.0
  0
LINE
  5
1A2
  8
0
 62
     7
 10
67.319699999999997
 20
114.8209999999999
 30
0.0
 11
68.415599999999998
 21
112.81
 31
0.0
  0
LINE
  5
1A3
  8
0
 62
     7
 10
68.415599999999998
 20
112.81
 30
0.0
 11
69.273899999999983
 21
113.6279999999999
 31
0.0
  0
LINE
  5
1A4
  8
0
 62
     7
 10
57.435099999999998
 20
124.3429999999999
 30
0.0
 11
59.389299999999999
 21
123.15000000000001
 31
0.0
  0
LINE
  5
1A5
  8
0
 62
     7
 10
59.389299999999999
 20
123.15000000000001
 30
0.0
 11
58.293500000000002
 21
125.16
 31
0.0
  0
LINE
  5
1A6
  8
0
 62
     7
 10
58.293500000000002
 20
125.16
 30
0.0
 11
57.435099999999998
 21
124.3429999999999
 31
0.0
  0
LINE
  5
1A7
  8
0
 62
     7
 10
56.002600000000001
 20
126.70699999999999
 30
0.0
 11
70.496200000000002
 21
111.4829999999999
 31
0.0
  0
ARC
  5
1A8
  8
0
  6
AIGENLINE001
 62
     7
 10
63.354757999999997
 20
222.06097500000001
 30
0.0
 40
5.7501600000000002
 50
0.000868
 51
90.000838000000002
  0
ARC
  5
1A9
  8
0
  6
AIGENLINE001
 62
     7
 10
63.354588
 20
222.06097500000001
 30
0.0
 40
5.7501600000000002
 50
89.999142000000006
 51
179.999112
  0
ARC
  5
1AA
  8
0
  6
AIGENLINE001
 62
     7
 10
63.354585999999991
 20
222.06114700000001
 30
0.0
 40
5.750157999999999
 50
180.00086799999991
 51
270.000878
  0
ARC
  5
1AB
  8
0
  6
AIGENLINE001
 62
     7
 10
63.354757999999997
 20
222.061149
 30
0.0
 40
5.7501600000000002
 50
269.99916200000001
 51
359.99913199999992
  0
ARC
  5
1AC
  8
0
  6
AIGENLINE001
 62
     7
 10
144.25224899999989
 20
219.506471
 30
0.0
 40
0.7740930000000001
 50
130.694751
 51
144.068243
  0
ARC
  5
1AD
  8
0
  6
AIGENLINE001
 62
     7
 10
144.70810900000001
 20
219.148608
 30
0.0
 40
1.3533949999999999
 50
143.1258709999999
 51
165.43020300000001
  0
ARC
  5
1AE
  8
0
  6
AIGENLINE001
 62
     7
 10
144.13657499999991
 20
219.306817
 30
0.0
 40
0.7604989999999999
 50
166.13436299999989
 51
174.49845599999989
  0
ARC
  5
1AF
  8
0
  6
AIGENLINE001
 62
     7
 10
132.30102500000001
 20
218.70433700000001
 30
0.0
 40
9.6333359999999981
 50
283.21274399999987
 51
296.09165499999989
  0
ARC
  5
1B0
  8
0
  6
AIGENLINE001
 62
     7
 10
131.4522199999999
 20
220.58105299999991
 30
0.0
 40
11.69228
 50
295.78249199999988
 51
311.08600499999989
  0
ARC
  5
1B1
  8
0
  6
AIGENLINE001
 62
     7
 10
130.52880400000001
 20
221.763318
 30
0.0
 40
13.190490999999991
 50
310.7342799999999
 51
334.29050899999987
  0
ARC
  5
1B2
  8
0
  6
AIGENLINE001
 62
     7
 10
132.4147419999999
 20
220.7747279999999
 30
0.0
 40
11.062631
 50
334.66646500000002
 51
349.41435899999999
  0
ARC
  5
1B3
  8
0
  6
AIGENLINE001
 62
     7
 10
134.12268599999999
 20
220.36895499999989
 30
0.0
 40
9.3095999999999997
 50
349.93816600000002
 51
353.90029800000002
  0
ARC
  5
1B4
  8
0
  6
AIGENLINE001
 62
     7
 10
147.01986099999999
 20
222.02253300000001
 30
0.0
 40
0.789912
 50
86.611898999999994
 51
99.962017000000003
  0
ARC
  5
1B5
  8
0
  6
AIGENLINE001
 62
     7
 10
147.095473
 20
221.49457200000001
 30
0.0
 40
1.3231010000000001
 50
99.231748999999994
 51
128.099165
  0
ARC
  5
1B6
  8
0
  6
AIGENLINE001
 62
     7
 10
146.77036299999989
 20
221.93038399999989
 30
0.0
 40
0.77965
 50
129.05925899999991
 51
137.1930989999999
  0
LINE
  5
1B7
  8
0
  6
AIGENLINE001
 62
     7
 10
146.19799999999989
 20
222.46000000000001
 30
0.0
 11
143.74799999999991
 21
220.09299999999999
 31
0.0
  0
LINE
  5
1B8
  8
0
  6
AIGENLINE001
 62
     7
 10
155.31200000000001
 20
222.81100000000001
 30
0.0
 11
147.06700000000001
 21
222.81100000000001
 31
0.0
  0
ARC
  5
1B9
  8
0
  6
AIGENLINE001
 62
     7
 10
144.1401129999999
 20
237.81163199999989
 30
0.0
 40
0.7636490000000001
 50
185.177505
 51
198.72505899999999
  0
ARC
  5
1BA
  8
0
  6
AIGENLINE001
 62
     7
 10
144.70768799999999
 20
237.97732199999999
 30
0.0
 40
1.3546089999999991
 50
197.65544299999999
 51
219.945122
  0
ARC
  5
1BB
  8
0
  6
AIGENLINE001
 62
     7
 10
144.2462449999999
 20
237.60379099999989
 30
0.0
 40
0.7610770000000001
 50
220.6903889999999
 51
229.05827500000001
  0
ARC
  5
1BC
  8
0
  6
AIGENLINE001
 62
     7
 10
133.79722499999991
 20
236.71846500000001
 30
0.0
 40
9.6369399999999992
 50
6.1011600000000001
 51
18.975277999999989
  0
ARC
  5
1BD
  8
0
  6
AIGENLINE001
 62
     7
 10
131.83175499999999
 20
236.108881
 30
0.0
 40
11.693984
 50
18.668392000000001
 51
33.969822000000001
  0
ARC
  5
1BE
  8
0
  6
AIGENLINE001
 62
     7
 10
130.544714
 20
235.33897200000001
 30
0.0
 40
13.191807000000001
 50
33.619611999999989
 51
57.173368999999987
  0
ARC
  5
1BF
  8
0
  6
AIGENLINE001
 62
     7
 10
131.76327000000001
 20
237.095349
 30
0.0
 40
11.055553
 50
57.54569
 51
72.302712999999997
  0
ARC
  5
1C0
  8
0
  6
AIGENLINE001
 62
     7
 10
132.376328
 20
238.74016599999999
 30
0.0
 40
9.3025929999999981
 50
72.820343000000008
 51
76.785398000000001
  0
ARC
  5
1C1
  8
0
  6
AIGENLINE001
 62
     7
 10
146.78453799999991
 20
235.20236099999991
 30
0.0
 40
0.797167
 50
222.6667359999999
 51
235.89312200000001
  0
ARC
  5
1C2
  8
0
  6
AIGENLINE001
 62
     7
 10
147.0923019999999
 20
235.62962400000001
 30
0.0
 40
1.3236000000000001
 50
235.23324500000001
 51
264.08880399999993
  0
ARC
  5
1C3
  8
0
  6
AIGENLINE001
 62
     7
 10
147.02306799999999
 20
235.0891509999999
 30
0.0
 40
0.778982
 50
265.05997599999989
 51
273.19937700000003
  0
LINE
  5
1C4
  8
0
  6
AIGENLINE001
 62
     7
 10
146.19799999999989
 20
234.66200000000001
 30
0.0
 11
143.74799999999991
 21
237.029
 31
0.0
  0
LINE
  5
1C5
  8
0
  6
AIGENLINE001
 62
     7
 10
155.31200000000001
 20
234.31099999999989
 30
0.0
 11
147.06700000000001
 21
234.31099999999989
 31
0.0
  0
LINE
  5
1C6
  8
0
  6
AIGENLINE001
 62
     7
 10
143.43600000000001
 20
237.31100000000001
 30
0.0
 11
143.43600000000001
 21
219.81099999999989
 31
0.0
  0
LINE
  5
1C7
  8
0
  6
AIGENLINE001
 62
     7
 10
146.56100000000001
 20
234.31099999999989
 30
0.0
 11
146.56100000000001
 21
222.81100000000001
 31
0.0
  0
ARC
  5
1C8
  8
0
  6
AIGENLINE001
 62
     7
 10
123.94041899999991
 20
253.084247
 30
0.0
 40
0.373764
 50
158.5478249999999
 51
177.57505499999991
  0
ARC
  5
1C9
  8
0
  6
AIGENLINE001
 62
     7
 10
124.08868099999999
 20
253.06987599999991
 30
0.0
 40
0.5225640000000001
 50
176.68849900000001
 51
217.26818499999999
  0
ARC
  5
1CA
  8
0
  6
AIGENLINE001
 62
     7
 10
123.9573199999999
 20
204.122635
 30
0.0
 40
0.3763510000000001
 50
139.1080629999999
 51
157.9910919999999
  0
ARC
  5
1CB
  8
0
  6
AIGENLINE001
 62
     7
 10
124.09029
 20
204.06115500000001
 30
0.0
 40
0.522719
 50
157.20530299999999
 51
197.783661
  0
ARC
  5
1CC
  8
0
  6
AIGENLINE001
 62
     7
 10
137.07675299999991
 20
274.86478
 30
0.0
 40
26.524637999999999
 50
247.16088999999999
 51
248.16703399999989
  0
ARC
  5
1CD
  8
0
  6
AIGENLINE001
 62
     7
 10
145.21002899999991
 20
295.15894600000001
 30
0.0
 40
48.387926
 50
248.16413700000001
 51
250.04953
  0
ARC
  5
1CE
  8
0
  6
AIGENLINE001
 62
     7
 10
158.038802
 20
329.882475
 30
0.0
 40
85.405160999999993
 50
249.9080109999999
 51
253.38330400000001
  0
ARC
  5
1CF
  8
0
  6
AIGENLINE001
 62
     7
 10
143.15358800000001
 20
280.52490999999998
 30
0.0
 40
33.852440999999992
 50
253.635356
 51
255.19434699999999
  0
ARC
  5
1D0
  8
0
  6
AIGENLINE001
 62
     7
 10
126.727265
 20
254.888935
 30
0.0
 40
3.7269260000000002
 50
214.95908499999999
 51
220.80685
  0
ARC
  5
1D1
  8
0
  6
AIGENLINE001
 62
     7
 10
128.54120700000001
 20
256.42810200000002
 30
0.0
 40
6.1058269999999988
 50
220.615332
 51
228.995577
  0
ARC
  5
1D2
  8
0
  6
AIGENLINE001
 62
     7
 10
130.17462399999991
 20
258.19406400000003
 30
0.0
 40
8.5105599999999981
 50
228.49742299999991
 51
241.67218799999989
  0
ARC
  5
1D3
  8
0
  6
AIGENLINE001
 62
     7
 10
128.41141099999999
 20
255.01309999999989
 30
0.0
 40
4.874039999999999
 50
242.17350200000001
 51
250.46167199999999
  0
ARC
  5
1D4
  8
0
  6
AIGENLINE001
 62
     7
 10
141.14718599999989
 20
183.97553300000001
 30
0.0
 40
26.206745999999999
 50
104.68670999999991
 51
105.705026
  0
ARC
  5
1D5
  8
0
  6
AIGENLINE001
 62
     7
 10
147.15461499999989
 20
162.5753719999999
 30
0.0
 40
48.434117999999998
 50
105.6937349999999
 51
107.577299
  0
ARC
  5
1D6
  8
0
  6
AIGENLINE001
 62
     7
 10
158.099885
 20
127.340132
 30
0.0
 40
85.329874000000004
 50
107.43861699999989
 51
110.9564929999999
  0
ARC
  5
1D7
  8
0
  6
AIGENLINE001
 62
     7
 10
139.530891
 20
176.28455500000001
 30
0.0
 40
32.982058000000002
 50
111.2426509999999
 51
112.740604
  0
ARC
  5
1D8
  8
0
  6
AIGENLINE001
 62
     7
 10
127.9874779999999
 20
203.1533299999999
 30
0.0
 40
3.7487309999999989
 50
108.768368
 51
114.58133100000001
  0
ARC
  5
1D9
  8
0
  6
AIGENLINE001
 62
     7
 10
128.95079799999991
 20
201.00363799999991
 30
0.0
 40
6.1043529999999988
 50
114.4102909999999
 51
122.792062
  0
ARC
  5
1DA
  8
0
  6
AIGENLINE001
 62
     7
 10
130.1928409999999
 20
198.93930800000001
 30
0.0
 40
8.5127170000000003
 50
122.294586
 51
135.46644599999991
  0
ARC
  5
1DB
  8
0
  6
AIGENLINE001
 62
     7
 10
127.6300439999999
 20
201.520138
 30
0.0
 40
4.8760309999999993
 50
135.96421599999991
 51
144.249268
  0
TEXT
  5
1DC
  8
0
 62
     7
 10
94.006900000000002
 20
219.99943999999999
 30
0.0
 40
3.0923400000000001
  1
246
 50
90.0
 41
0.5
 72
     1
 11
94.006900000000002
 21
222.06099999999989
 31
0.0
  0
LINE
  5
1DD
  8
0
 62
     7
 10
94.121600000000001
 20
193.55399999999989
 30
0.0
 11
94.714200000000005
 21
191.3429999999999
 31
0.0
  0
LINE
  5
1DE
  8
0
 62
     7
 10
94.714200000000005
 20
191.3429999999999
 30
0.0
 11
95.306899999999985
 21
193.55399999999989
 31
0.0
  0
LINE
  5
1DF
  8
0
 62
     7
 10
95.306899999999985
 20
193.55399999999989
 30
0.0
 11
94.121600000000001
 21
193.55399999999989
 31
0.0
  0
LINE
  5
1E0
  8
0
 62
     7
 10
95.292299999999997
 20
250.5679999999999
 30
0.0
 11
94.699700000000007
 21
252.779
 31
0.0
  0
LINE
  5
1E1
  8
0
 62
     7
 10
94.699700000000007
 20
252.779
 30
0.0
 11
94.107000000000014
 21
250.5679999999999
 31
0.0
  0
LINE
  5
1E2
  8
0
 62
     7
 10
94.107000000000014
 20
250.5679999999999
 30
0.0
 11
95.292299999999997
 21
250.5679999999999
 31
0.0
  0
LINE
  5
1E3
  8
0
 62
     7
 10
94.706999999999994
 20
191.34399999999999
 30
0.0
 11
94.706999999999994
 21
252.77799999999991
 31
0.0
  0
LINE
  5
1E4
  8
0
 62
     7
 10
70.619399999999985
 20
229.34700000000001
 30
0.0
 11
78.893999999999991
 21
229.34700000000001
 31
0.0
  0
LINE
  5
1E5
  8
0
 62
     7
 10
68.262900000000002
 20
252.77799999999991
 30
0.0
 11
95.457000000000008
 21
252.77799999999991
 31
0.0
  0
LINE
  5
1E6
  8
0
 62
     7
 10
68.262900000000002
 20
191.34399999999999
 30
0.0
 11
95.457000000000008
 21
191.34399999999999
 31
0.0
  0
TEXT
  5
1E7
  8
0
 62
     7
 10
61.550834999999992
 20
261.11399999999998
 30
0.0
 40
3.0923400000000001
  1
158
 41
0.5
 72
     1
 11
63.354700000000001
 21
261.11399999999998
 31
0.0
  0
LINE
  5
1E8
  8
0
 62
     7
 10
45.814900000000002
 20
261.0
 30
0.0
 11
43.603099999999998
 21
260.40699999999993
 31
0.0
  0
LINE
  5
1E9
  8
0
 62
     7
 10
43.603099999999998
 20
260.40699999999993
 30
0.0
 11
45.814900000000002
 21
259.81400000000002
 31
0.0
  0
LINE
  5
1EA
  8
0
 62
     7
 10
45.814900000000002
 20
259.81400000000002
 30
0.0
 11
45.814900000000002
 21
261.0
 31
0.0
  0
LINE
  5
1EB
  8
0
 62
     7
 10
80.894499999999994
 20
259.82899999999989
 30
0.0
 11
83.106200000000001
 21
260.42099999999999
 31
0.0
  0
LINE
  5
1EC
  8
0
 62
     7
 10
83.106200000000001
 20
260.42099999999999
 30
0.0
 11
80.894499999999994
 21
261.01400000000001
 31
0.0
  0
LINE
  5
1ED
  8
0
 62
     7
 10
80.894499999999994
 20
261.01400000000001
 30
0.0
 11
80.894499999999994
 21
259.82899999999989
 31
0.0
  0
LINE
  5
1EE
  8
0
 62
     7
 10
43.604199999999999
 20
260.41399999999999
 30
0.0
 11
83.105199999999996
 21
260.41399999999999
 31
0.0
  0
LINE
  5
1EF
  8
0
 62
     7
 10
83.105199999999996
 20
223.43599999999989
 30
0.0
 11
83.105199999999996
 21
261.16399999999987
 31
0.0
  0
LINE
  5
1F0
  8
0
 62
     7
 10
43.604199999999999
 20
223.43599999999989
 30
0.0
 11
43.604199999999999
 21
261.16399999999987
 31
0.0
  0
TEXT
  5
1F1
  8
0
 62
     7
 10
166.25
 20
226.8859824999999
 30
0.0
 40
3.0923400000000001
  1
170
 50
90.0
 41
0.5
 72
     1
 11
166.25
 21
228.56099999999989
 31
0.0
  0
LINE
  5
1F2
  8
0
 62
     7
 10
166.364
 20
209.5209999999999
 30
0.0
 11
166.95699999999999
 21
207.31
 31
0.0
  0
LINE
  5
1F3
  8
0
 62
     7
 10
166.95699999999999
 20
207.31
 30
0.0
 11
167.54900000000001
 21
209.5209999999999
 31
0.0
  0
LINE
  5
1F4
  8
0
 62
     7
 10
167.54900000000001
 20
209.5209999999999
 30
0.0
 11
166.364
 21
209.5209999999999
 31
0.0
  0
LINE
  5
1F5
  8
0
 62
     7
 10
167.53499999999991
 20
247.601
 30
0.0
 11
166.94200000000001
 21
249.8129999999999
 31
0.0
  0
LINE
  5
1F6
  8
0
 62
     7
 10
166.94200000000001
 20
249.8129999999999
 30
0.0
 11
166.34999999999991
 21
247.601
 31
0.0
  0
LINE
  5
1F7
  8
0
 62
     7
 10
166.34999999999991
 20
247.601
 30
0.0
 11
167.53499999999991
 21
247.601
 31
0.0
  0
LINE
  5
1F8
  8
0
 62
     7
 10
166.94999999999999
 20
207.31099999999989
 30
0.0
 11
166.94999999999999
 21
249.81200000000001
 31
0.0
  0
LINE
  5
1F9
  8
0
 62
     7
 10
139.93700000000001
 20
249.81200000000001
 30
0.0
 11
167.65000000000001
 21
249.81200000000001
 31
0.0
  0
LINE
  5
1FA
  8
0
 62
     7
 10
139.93700000000001
 20
207.31099999999989
 30
0.0
 11
167.65000000000001
 21
207.31099999999989
 31
0.0
  0
TEXT
  5
1FB
  8
0
 62
     7
 10
135.63513499999991
 20
180.44900000000001
 30
0.0
 40
3.0923400000000001
  1
143
 41
0.5
 72
     1
 11
137.43899999999999
 21
180.44900000000001
 31
0.0
  0
LINE
  5
1FC
  8
0
 62
     7
 10
121.777
 20
180.33500000000001
 30
0.0
 11
119.5659999999999
 21
179.74199999999999
 31
0.0
  0
LINE
  5
1FD
  8
0
 62
     7
 10
119.5659999999999
 20
179.74199999999999
 30
0.0
 11
121.777
 21
179.15000000000001
 31
0.0
  0
LINE
  5
1FE
  8
0
 62
     7
 10
121.777
 20
179.15000000000001
 30
0.0
 11
121.777
 21
180.33500000000001
 31
0.0
  0
LINE
  5
1FF
  8
0
 62
     7
 10
153.101
 20
179.16399999999999
 30
0.0
 11
155.31200000000001
 21
179.75700000000001
 31
0.0
  0
LINE
  5
200
  8
0
 62
     7
 10
155.31200000000001
 20
179.75700000000001
 30
0.0
 11
153.101
 21
180.34899999999999
 31
0.0
  0
LINE
  5
201
  8
0
 62
     7
 10
153.101
 20
180.34899999999999
 30
0.0
 11
153.101
 21
179.16399999999999
 31
0.0
  0
LINE
  5
202
  8
0
 62
     7
 10
119.5659999999999
 20
179.749
 30
0.0
 11
155.31100000000001
 21
179.749
 31
0.0
  0
LINE
  5
203
  8
0
 62
     7
 10
155.31200000000001
 20
129.1109999999999
 30
0.0
 11
155.31200000000001
 21
180.44900000000001
 31
0.0
  0
LINE
  5
204
  8
0
 62
     7
 10
119.5659999999999
 20
158.631
 30
0.0
 11
119.5659999999999
 21
180.44900000000001
 31
0.0
  0
TEXT
  5
205
  8
0
 62
     7
 10
129.90437249999991
 20
166.148
 30
0.0
 40
3.0923400000000001
  1
60
 41
0.5
 72
     1
 11
131.06399999999999
 21
166.148
 31
0.0
  0
LINE
  5
206
  8
0
 62
     7
 10
125.776
 20
166.0329999999999
 30
0.0
 11
123.5649999999999
 21
165.44099999999989
 31
0.0
  0
LINE
  5
207
  8
0
 62
     7
 10
123.5649999999999
 20
165.44099999999989
 30
0.0
 11
125.776
 21
164.8479999999999
 31
0.0
  0
LINE
  5
208
  8
0
 62
     7
 10
125.776
 20
164.8479999999999
 30
0.0
 11
125.776
 21
166.0329999999999
 31
0.0
  0
LINE
  5
209
  8
0
 62
     7
 10
136.35099999999991
 20
164.86299999999989
 30
0.0
 11
138.56200000000001
 21
165.45500000000001
 31
0.0
  0
LINE
  5
20A
  8
0
 62
     7
 10
138.56200000000001
 20
165.45500000000001
 30
0.0
 11
136.35099999999991
 21
166.04799999999989
 31
0.0
  0
LINE
  5
20B
  8
0
 62
     7
 10
136.35099999999991
 20
166.04799999999989
 30
0.0
 11
136.35099999999991
 21
164.86299999999989
 31
0.0
  0
LINE
  5
20C
  8
0
 62
     7
 10
123.5659999999999
 20
165.44799999999989
 30
0.0
 11
138.56099999999989
 21
165.44799999999989
 31
0.0
  0
LINE
  5
20D
  8
0
 62
     7
 10
123.56699999999999
 20
134.876
 30
0.0
 11
123.56699999999999
 21
166.148
 31
0.0
  0
TEXT
  5
20E
  8
0
 62
     7
 10
127.775525
 20
172.6279999999999
 30
0.0
 40
3.0923400000000001
  1
76
 41
0.5
 72
     1
 11
129.06399999999999
 21
172.6279999999999
 31
0.0
  0
LINE
  5
20F
  8
0
 62
     7
 10
136.35099999999991
 20
171.34200000000001
 30
0.0
 11
138.56200000000001
 21
171.935
 31
0.0
  0
LINE
  5
210
  8
0
 62
     7
 10
138.56200000000001
 20
171.935
 30
0.0
 11
136.35099999999991
 21
172.52699999999999
 31
0.0
  0
LINE
  5
211
  8
0
 62
     7
 10
136.35099999999991
 20
172.52699999999999
 30
0.0
 11
136.35099999999991
 21
171.34200000000001
 31
0.0
  0
LINE
  5
212
  8
0
 62
     7
 10
121.777
 20
172.51300000000001
 30
0.0
 11
119.5659999999999
 21
171.9199999999999
 31
0.0
  0
LINE
  5
213
  8
0
 62
     7
 10
119.5659999999999
 20
171.9199999999999
 30
0.0
 11
121.777
 21
171.328
 31
0.0
  0
LINE
  5
214
  8
0
 62
     7
 10
121.777
 20
171.328
 30
0.0
 11
121.777
 21
172.51300000000001
 31
0.0
  0
LINE
  5
215
  8
0
 62
     7
 10
138.56099999999989
 20
171.92799999999991
 30
0.0
 11
119.5659999999999
 21
171.92799999999991
 31
0.0
  0
LINE
  5
216
  8
0
 62
     7
 10
138.56099999999989
 20
155.8609999999999
 30
0.0
 11
138.56099999999989
 21
172.6279999999999
 31
0.0
  0
TEXT
  5
217
  8
0
 62
     7
 10
47.5259
 20
128.01299999999989
 30
0.0
 40
3.0923400000000001
  1
%%c46
 41
0.5
  0
TEXT
  5
218
  8
0
 62
     7
 10
100.3649999999999
 20
117.181135
 30
0.0
 40
3.0923400000000001
  1
316
 50
90.0
 41
0.5
 72
     1
 11
100.3649999999999
 21
118.985
 31
0.0
  0
LINE
  5
219
  8
0
 62
     7
 10
101.65000000000001
 20
156.27600000000001
 30
0.0
 11
101.05800000000001
 21
158.48699999999999
 31
0.0
  0
LINE
  5
21A
  8
0
 62
     7
 10
101.05800000000001
 20
158.48699999999999
 30
0.0
 11
100.465
 21
156.27600000000001
 31
0.0
  0
LINE
  5
21B
  8
0
 62
     7
 10
100.465
 20
156.27600000000001
 30
0.0
 11
101.65000000000001
 21
156.27600000000001
 31
0.0
  0
LINE
  5
21C
  8
0
 62
     7
 10
100.48
 20
81.694800000000001
 30
0.0
 11
101.072
 21
79.483699999999999
 31
0.0
  0
LINE
  5
21D
  8
0
 62
     7
 10
101.072
 20
79.483699999999999
 30
0.0
 11
101.66500000000001
 21
81.694800000000001
 31
0.0
  0
LINE
  5
21E
  8
0
 62
     7
 10
101.66500000000001
 20
81.694800000000001
 30
0.0
 11
100.48
 21
81.694800000000001
 31
0.0
  0
LINE
  5
21F
  8
0
 62
     7
 10
101.065
 20
158.4859999999999
 30
0.0
 11
101.065
 21
79.484399999999994
 31
0.0
  0
LINE
  5
220
  8
0
 62
     7
 10
69.392899999999983
 20
79.484399999999994
 30
0.0
 11
101.7649999999999
 21
79.484399999999994
 31
0.0
  0
LINE
  5
221
  8
0
 62
     7
 10
69.392899999999983
 20
158.4859999999999
 30
0.0
 11
101.7649999999999
 21
158.4859999999999
 31
0.0
  0
TEXT
  5
222
  8
0
 62
     7
 10
61.4219875
 20
169.85799999999989
 30
0.0
 40
3.0923400000000001
  1
202
 41
0.5
 72
     1
 11
63.354700000000001
 21
169.85799999999989
 31
0.0
  0
LINE
  5
223
  8
0
 62
     7
 10
40.314799999999998
 20
169.74299999999991
 30
0.0
 11
38.103200000000001
 21
169.1509999999999
 31
0.0
  0
LINE
  5
224
  8
0
 62
     7
 10
38.103200000000001
 20
169.1509999999999
 30
0.0
 11
40.314799999999998
 21
168.55799999999991
 31
0.0
  0
LINE
  5
225
  8
0
 62
     7
 10
40.314799999999998
 20
168.55799999999991
 30
0.0
 11
40.314799999999998
 21
169.74299999999991
 31
0.0
  0
LINE
  5
226
  8
0
 62
     7
 10
86.394599999999997
 20
168.57299999999989
 30
0.0
 11
88.606200000000001
 21
169.16499999999991
 31
0.0
  0
LINE
  5
227
  8
0
 62
     7
 10
88.606200000000001
 20
169.16499999999991
 30
0.0
 11
86.394599999999997
 21
169.7579999999999
 31
0.0
  0
LINE
  5
228
  8
0
 62
     7
 10
86.394599999999997
 20
169.7579999999999
 30
0.0
 11
86.394599999999997
 21
168.57299999999989
 31
0.0
  0
LINE
  5
229
  8
0
 62
     7
 10
38.103999999999992
 20
169.1579999999999
 30
0.0
 11
88.6053
 21
169.1579999999999
 31
0.0
  0
LINE
  5
22A
  8
0
 62
     7
 10
88.6053
 20
131.93999999999991
 30
0.0
 11
88.6053
 21
169.85799999999989
 31
0.0
  0
LINE
  5
22B
  8
0
 62
     7
 10
38.103999999999992
 20
131.93999999999991
 30
0.0
 11
38.103999999999992
 21
169.85799999999989
 31
0.0
  0
LINE
  5
22C
  8
0
  6
AIGENLINE002
 62
     7
 10
63.354700000000001
 20
187.81
 30
0.0
 11
63.354700000000001
 21
256.31200000000001
 31
0.0
  0
LINE
  5
22D
  8
0
  6
AIGENLINE002
 62
     7
 10
35.277999999999999
 20
222.06099999999989
 30
0.0
 11
85.605000000000004
 21
222.06099999999989
 31
0.0
  0
LINE
  5
22E
  8
0
  6
AIGENLINE002
 62
     7
 10
158.38200000000001
 20
118.985
 30
0.0
 11
117.0949999999999
 21
118.985
 31
0.0
  0
LINE
  5
22F
  8
0
  6
AIGENLINE002
 62
     7
 10
159.1999999999999
 20
228.56099999999989
 30
0.0
 11
115.22
 21
228.56099999999989
 31
0.0
  0
LINE
  5
230
  8
0
  6
AIGENLINE002
 62
     7
 10
63.354700000000001
 20
73.263199999999983
 30
0.0
 11
63.354700000000001
 21
164.70699999999999
 31
0.0
  0
LINE
  5
231
  8
0
  6
AIGENLINE002
 62
     7
 10
34.533900000000003
 20
118.985
 30
0.0
 11
92.175500000000014
 21
118.985
 31
0.0
  0
TEXT
  5
232
  8
_________2
 62
     7
 10
29.3491
 20
22.050799999999999
 30
0.0
 40
3.9357000000000002
  1
重量：2.4kg、オーバーフローなし
 41
0.5
  0
TEXT
  5
233
  8
_________2
 62
     7
 10
139.63367500000001
 20
30.627400000000002
 30
0.0
 40
3.9357000000000002
  1
CEL537-MW
 41
0.5
 72
     1
 11
148.489
 21
30.627400000000002
 31
0.0
  0
TEXT
  5
234
  8
_________2
 62
     7
 10
142.91342499999999
 20
20.626999999999988
 30
0.0
 40
3.9357000000000002
  1
CEL537
 41
0.5
 72
     1
 11
148.489
 21
20.626999999999988
 31
0.0
  0
LINE
  5
235
  8
_________2
 62
     7
 10
210.24000000000001
 20
148.93100000000001
 30
0.0
 11
188.49000000000001
 21
148.93100000000001
 31
0.0
  0
LINE
  5
236
  8
_________2
 62
     7
 10
105.2389999999999
 20
17.428499999999989
 30
0.0
 11
105.2389999999999
 21
0.4482100000000001
 31
0.0
  0
LINE
  5
237
  8
_________2
 62
     7
 10
105.2389999999999
 20
297.44999999999987
 30
0.0
 11
105.2389999999999
 21
280.42999999999989
 31
0.0
  0
LINE
  5
238
  8
_________2
 62
     7
 10
21.988499999999991
 20
148.93100000000001
 30
0.0
 11
0.238058
 21
148.93100000000001
 31
0.0
  0
LINE
  5
239
  8
_________2
 62
     7
 10
81.679900000000004
 20
51.324300000000001
 30
0.0
 11
79.493700000000004
 21
51.324300000000001
 31
0.0
  0
LINE
  5
23A
  8
_________2
 62
     7
 10
82.172600000000017
 20
51.324300000000001
 30
0.0
 11
81.920400000000001
 21
51.324300000000001
 31
0.0
  0
LINE
  5
23B
  8
_________2
 62
     7
 10
82.665199999999984
 20
51.324300000000001
 30
0.0
 11
85.590100000000007
 21
51.324300000000001
 31
0.0
  0
LINE
  5
23C
  8
_________2
 62
     7
 10
82.172600000000017
 20
51.324300000000001
 30
0.0
 11
82.424800000000005
 21
51.324300000000001
 31
0.0
  0
LINE
  5
23D
  8
_________2
 62
     7
 10
75.776399999999995
 20
51.324300000000001
 30
0.0
 11
73.589399999999998
 21
51.324300000000001
 31
0.0
  0
LINE
  5
23E
  8
_________2
 62
     7
 10
76.2684
 20
51.324300000000001
 30
0.0
 11
76.016900000000007
 21
51.324300000000001
 31
0.0
  0
LINE
  5
23F
  8
_________2
 62
     7
 10
76.2684
 20
51.817
 30
0.0
 11
76.2684
 21
54.003900000000002
 31
0.0
  0
LINE
  5
240
  8
_________2
 62
     7
 10
76.2684
 20
51.324300000000001
 30
0.0
 11
76.2684
 21
51.576500000000003
 31
0.0
  0
LINE
  5
241
  8
_________2
 62
     7
 10
76.76100000000001
 20
51.324300000000001
 30
0.0
 11
78.947999999999993
 21
51.324300000000001
 31
0.0
  0
LINE
  5
242
  8
_________2
 62
     7
 10
76.2684
 20
51.324300000000001
 30
0.0
 11
76.520499999999998
 21
51.324300000000001
 31
0.0
  0
LINE
  5
243
  8
_________2
 62
     7
 10
76.2684
 20
50.832399999999993
 30
0.0
 11
76.2684
 21
48.645400000000002
 31
0.0
  0
LINE
  5
244
  8
_________2
 62
     7
 10
76.2684
 20
51.324300000000001
 30
0.0
 11
76.2684
 21
51.072800000000001
 31
0.0
  0
LINE
  5
245
  8
_________2
 62
     7
 10
79.979399999999984
 20
50.104799999999997
 30
0.0
 11
85.157399999999996
 21
49.240000000000002
 31
0.0
  0
LINE
  5
246
  8
_________2
 62
     7
 10
79.979399999999984
 20
52.543900000000001
 30
0.0
 11
85.157399999999996
 21
53.409300000000002
 31
0.0
  0
LINE
  5
247
  8
_________2
 62
     7
 10
85.157399999999996
 20
49.240000000000002
 30
0.0
 11
85.157399999999996
 21
53.409300000000002
 31
0.0
  0
LINE
  5
248
  8
_________2
 62
     7
 10
79.979399999999984
 20
50.104799999999997
 30
0.0
 11
79.979399999999984
 21
52.543900000000001
 31
0.0
  0
ARC
  5
249
  8
_________2
 62
     7
 10
76.222110000000001
 20
51.277366999999991
 30
0.0
 40
1.2673709999999989
 50
2.1232950000000002
 51
87.909056000000007
  0
ARC
  5
24A
  8
_________2
 62
     7
 10
76.315273000000005
 20
51.277400999999998
 30
0.0
 40
1.267363
 50
92.121785999999986
 51
177.878185
  0
ARC
  5
24B
  8
_________2
 62
     7
 10
76.315273000000005
 20
51.371245999999992
 30
0.0
 40
1.267363
 50
182.12181499999991
 51
267.87821400000001
  0
ARC
  5
24C
  8
_________2
 62
     7
 10
76.221461000000005
 20
51.371928999999987
 30
0.0
 40
1.2680439999999991
 50
272.11916400000001
 51
357.84848499999993
  0
ARC
  5
24D
  8
_________2
 62
     7
 10
76.268349999999984
 20
51.324323
 30
0.0
 40
2.0849849999999992
 50
0.00001
 51
89.999980000000008
  0
ARC
  5
24E
  8
_________2
 62
     7
 10
76.348388
 20
51.245001999999992
 30
0.0
 40
2.1657860000000002
 50
92.117855000000034
 51
177.90105299999991
  0
ARC
  5
24F
  8
_________2
 62
     7
 10
76.348354
 20
51.404327000000002
 30
0.0
 40
2.1657779999999991
 50
182.11700400000001
 51
267.88302499999992
  0
ARC
  5
250
  8
_________2
 62
     7
 10
76.188378999999983
 20
51.405009999999997
 30
0.0
 40
2.1664590000000001
 50
272.11546800000002
 51
357.86560400000002
  0
TEXT
  5
251
  8
_________2
 62
     7
 10
109.5439999999999
 20
23.199100000000001
 30
0.0
 40
3.0923400000000001
  1
図番
 41
0.5
  0
LINE
  5
252
  8
_________2
 62
     7
 10
108.4889999999999
 20
27.4283
 30
0.0
 11
188.49000000000001
 21
27.4283
 31
0.0
  0
TEXT
  5
253
  8
_________2
 62
     7
 10
109.5439999999999
 20
33.198900000000002
 30
0.0
 40
3.0923400000000001
  1
品番
 41
0.5
  0
TEXT
  5
254
  8
_________2
 62
     7
 10
109.5439999999999
 20
53.337699999999998
 30
0.0
 40
3.0923400000000001
  1
名称
 41
0.5
  0
TEXT
  5
255
  8
_________2
 62
     7
 10
96.784058333333334
 20
48.341500000000011
 30
0.0
 40
3.6545800000000002
  1
mm
 41
0.5
 72
     1
 11
98.306799999999996
 21
48.341500000000011
 31
0.0
  0
TEXT
  5
256
  8
_________2
 62
     7
 10
90.582099999999997
 20
53.337699999999998
 30
0.0
 40
3.0923400000000001
  1
単位
 41
0.5
  0
TEXT
  5
257
  8
_________2
 62
     7
 10
90.582099999999997
 20
40.930399999999999
 30
0.0
 40
3.0923400000000001
  1
尺度
 41
0.5
  0
TEXT
  5
258
  8
_________2
 62
     7
 10
95.487658666666675
 20
34.73749999999999
 30
0.0
 40
3.6545800000000002
  1
1 ： 4
 41
0.5
 72
     1
 11
98.898600000000002
 21
34.73749999999999
 31
0.0
  0
TEXT
  5
259
  8
_________2
 62
     7
 10
114.11799999999999
 20
45.7453
 30
0.0
 40
3.9357000000000002
  1
セラオチジナルコレクション 手洗器
 41
0.5
  0
TEXT
  5
25A
  8
_________2
 62
     7
 10
44.364200333333329
 20
35.122599999999991
 30
0.0
 40
3.6545800000000002
  1
早川
 41
0.5
 72
     1
 11
46.252400000000002
 21
35.122599999999991
 31
0.0
  0
TEXT
  5
25B
  8
_________2
 62
     7
 10
25.729290666666671
 20
35.122599999999991
 30
0.0
 40
3.6545800000000002
  1
菅原
 41
0.5
 72
     1
 11
27.6784
 21
35.122599999999991
 31
0.0
  0
TEXT
  5
25C
  8
_________2
 62
     7
 10
72.724699999999999
 20
34.73749999999999
 30
0.0
 40
3.6545800000000002
  1
13.01.21
 41
0.5
  0
TEXT
  5
25D
  8
_________2
 62
     7
 10
71.531999999999996
 20
40.930399999999999
 30
0.0
 40
3.0923400000000001
  1
日付
 41
0.5
  0
TEXT
  5
25E
  8
_________2
 62
     7
 10
34.578299999999992
 20
40.930399999999999
 30
0.0
 40
3.0923400000000001
  1
検図
 41
0.5
  0
TEXT
  5
25F
  8
_________2
 62
     7
 10
22.960000000000001
 20
26.730999999999991
 30
0.0
 40
3.0923400000000001
  1
備考
 41
0.5
  0
TEXT
  5
260
  8
_________2
 62
     7
 10
22.960000000000001
 20
40.930399999999999
 30
0.0
 40
3.0923400000000001
  1
製図
 41
0.5
  0
TEXT
  5
261
  8
_________2
 62
     7
 10
28.727365333333339
 20
49.456400000000002
 30
0.0
 40
4.4979399999999989
  1
セラトレーディング株式会社
 41
0.5
 72
     1
 11
46.119399999999992
 21
49.456400000000002
 31
0.0
  0
LINE
  5
262
  8
_________2
 62
     7
 10
188.49000000000001
 20
17.428499999999989
 30
0.0
 11
21.988499999999991
 21
17.428499999999989
 31
0.0
  0
LINE
  5
263
  8
_________2
 62
     7
 10
21.988499999999991
 20
17.428499999999989
 30
0.0
 11
21.988499999999991
 21
280.42999999999989
 31
0.0
  0
LINE
  5
264
  8
_________2
 62
     7
 10
21.988499999999991
 20
280.42999999999989
 30
0.0
 11
188.49000000000001
 21
280.42999999999989
 31
0.0
  0
LINE
  5
265
  8
_________2
 62
     7
 10
188.49000000000001
 20
280.42999999999989
 30
0.0
 11
188.49000000000001
 21
17.428499999999989
 31
0.0
  0
LINE
  5
266
  8
_________2
 62
     7
 10
70.488799999999998
 20
30.9285
 30
0.0
 11
70.488799999999998
 21
57.428400000000011
 31
0.0
  0
LINE
  5
267
  8
_________2
 62
     7
 10
89.488600000000005
 20
30.9285
 30
0.0
 11
89.488600000000005
 21
57.428400000000011
 31
0.0
  0
LINE
  5
268
  8
_________2
 62
     7
 10
108.4889999999999
 20
17.428499999999989
 30
0.0
 11
108.4889999999999
 21
57.428400000000011
 31
0.0
  0
LINE
  5
269
  8
_________2
 62
     7
 10
33.488300000000002
 20
30.9285
 30
0.0
 11
33.488300000000002
 21
44.928800000000003
 31
0.0
  0
LINE
  5
26A
  8
_________2
 62
     7
 10
21.988499999999991
 20
30.9285
 30
0.0
 11
108.4889999999999
 21
30.9285
 31
0.0
  0
LINE
  5
26B
  8
_________2
 62
     7
 10
21.988499999999991
 20
44.928800000000003
 30
0.0
 11
108.4889999999999
 21
44.928800000000003
 31
0.0
  0
LINE
  5
26C
  8
_________2
 62
     7
 10
108.4889999999999
 20
37.428100000000001
 30
0.0
 11
188.49000000000001
 21
37.428100000000001
 31
0.0
  0
LINE
  5
26D
  8
_________2
 62
     7
 10
21.988499999999991
 20
57.428400000000011
 30
0.0
 11
188.49000000000001
 21
57.428400000000011
 31
0.0
  0
ENDSEC
  0
EOF
