  0
SECTION
  2
HEADER
  9
$ACADVER
  1
AC1009
  9
$INSBASE
 10
0.0
 20
0.0
 30
0.0
  9
$EXTMIN
 10
-4.7006899999999989
 20
-21.070999999999991
 30
0.0
  9
$EXTMAX
 10
205.30099999999999
 20
275.93099999999993
 30
0.0
  9
$LIMMIN
 10
0.0
 20
0.0
  9
$LIMMAX
 10
12.0
 20
9.0
  9
$ORTHOMODE
 70
     0
  9
$REGENMODE
 70
     1
  9
$FILLMODE
 70
     1
  9
$QTEXTMODE
 70
     0
  9
$MIRRTEXT
 70
     1
  9
$DRAGMODE
 70
     2
  9
$LTSCALE
 40
1.0
  9
$OSMODE
 70
    37
  9
$ATTMODE
 70
     1
  9
$TEXTSIZE
 40
0.0
  9
$TRACEWID
 40
0.05
  9
$TEXTSTYLE
  7
STANDARD
  9
$CLAYER
  8
0
  9
$CELTYPE
  6
CONTINUOUS
  9
$CECOLOR
 62
   256
  9
$DIMSCALE
 40
1.0
  9
$DIMASZ
 40
0.18
  9
$DIMEXO
 40
0.0625
  9
$DIMDLI
 40
0.38
  9
$DIMRND
 40
0.0
  9
$DIMDLE
 40
0.0
  9
$DIMEXE
 40
0.18
  9
$DIMTP
 40
0.0
  9
$DIMTM
 40
0.0
  9
$DIMTXT
 40
0.18
  9
$DIMCEN
 40
0.09
  9
$DIMTSZ
 40
0.0
  9
$DIMTOL
 70
     0
  9
$DIMLIM
 70
     0
  9
$DIMTIH
 70
     1
  9
$DIMTOH
 70
     1
  9
$DIMSE1
 70
     0
  9
$DIMSE2
 70
     0
  9
$DIMTAD
 70
     0
  9
$DIMZIN
 70
     0
  9
$DIMBLK
  1

  9
$DIMASO
 70
     1
  9
$DIMSHO
 70
     1
  9
$DIMPOST
  1

  9
$DIMAPOST
  1

  9
$DIMALT
 70
     0
  9
$DIMALTD
 70
     2
  9
$DIMALTF
 40
25.399999999999999
  9
$DIMLFAC
 40
1.0
  9
$DIMTOFL
 70
     0
  9
$DIMTVP
 40
0.0
  9
$DIMTIX
 70
     0
  9
$DIMSOXD
 70
     0
  9
$DIMSAH
 70
     0
  9
$DIMBLK1
  1

  9
$DIMBLK2
  1

  9
$DIMSTYLE
  2
STANDARD
  9
$DIMCLRD
 70
     0
  9
$DIMCLRE
 70
     0
  9
$DIMCLRT
 70
     0
  9
$DIMTFAC
 40
1.0
  9
$DIMGAP
 40
0.09
  9
$LUNITS
 70
     2
  9
$LUPREC
 70
     4
  9
$SKETCHINC
 40
0.1
  9
$FILLETRAD
 40
0.0
  9
$AUNITS
 70
     0
  9
$AUPREC
 70
     0
  9
$MENU
  1
.
  9
$ELEVATION
 40
0.0
  9
$PELEVATION
 40
0.0
  9
$THICKNESS
 40
0.0
  9
$LIMCHECK
 70
     0
  9
$BLIPMODE
 70
     0
  9
$CHAMFERA
 40
0.0
  9
$CHAMFERB
 40
0.0
  9
$SKPOLY
 70
     0
  9
$TDCREATE
 40
2444972.375
  9
$TDUPDATE
 40
2453466.2556098029
  9
$TDINDWG
 40
0.0000106019
  9
$TDUSRTIMER
 40
0.0000106019
  9
$USRTIMER
 70
     1
  9
$ANGBASE
 50
0.0
  9
$ANGDIR
 70
     0
  9
$PDMODE
 70
     0
  9
$PDSIZE
 40
0.0
  9
$PLINEWID
 40
0.0
  9
$COORDS
 70
     1
  9
$SPLFRAME
 70
     0
  9
$SPLINETYPE
 70
     6
  9
$SPLINESEGS
 70
     8
  9
$ATTDIA
 70
     0
  9
$ATTREQ
 70
     1
  9
$HANDLING
 70
 22529
  9
$HANDSEED
  5
D4
  9
$SURFTAB1
 70
     6
  9
$SURFTAB2
 70
     6
  9
$SURFTYPE
 70
     6
  9
$SURFU
 70
     6
  9
$SURFV
 70
     6
  9
$UCSNAME
  2

  9
$UCSORG
 10
0.0
 20
0.0
 30
0.0
  9
$UCSXDIR
 10
1.0
 20
0.0
 30
0.0
  9
$UCSYDIR
 10
0.0
 20
1.0
 30
0.0
  9
$PUCSNAME
  2

  9
$PUCSORG
 10
0.0
 20
0.0
 30
0.0
  9
$PUCSXDIR
 10
1.0
 20
0.0
 30
0.0
  9
$PUCSYDIR
 10
0.0
 20
1.0
 30
0.0
  9
$USERI1
 70
     0
  9
$USERI2
 70
     0
  9
$USERI3
 70
     0
  9
$USERI4
 70
     0
  9
$USERI5
 70
     0
  9
$USERR1
 40
0.0
  9
$USERR2
 40
0.0
  9
$USERR3
 40
0.0
  9
$USERR4
 40
0.0
  9
$USERR5
 40
0.0
  9
$WORLDVIEW
 70
     1
  9
$SHADEDGE
 70
     3
  9
$SHADEDIF
 70
    70
  9
$TILEMODE
 70
     1
  9
$MAXACTVP
 70
    48
  9
$PLIMCHECK
 70
     0
  9
$PEXTMIN
 10
1.0000000000000000E+020
 20
1.0000000000000000E+020
 30
1.0000000000000000E+020
  9
$PEXTMAX
 10
-1.0000000000000000E+020
 20
-1.0000000000000000E+020
 30
-1.0000000000000000E+020
  9
$PLIMMIN
 10
0.0
 20
0.0
  9
$PLIMMAX
 10
12.0
 20
9.0
  9
$UNITMODE
 70
     0
  9
$VISRETAIN
 70
     1
  9
$PLINEGEN
 70
     0
  9
$PSLTSCALE
 70
     1
  0
ENDSEC
  0
SECTION
  2
TABLES
  0
TABLE
  2
VPORT
 70
     2
  0
VPORT
  2
*ACTIVE
 70
     0
 10
0.0
 20
0.0
 11
1.0
 21
1.0
 12
189.5606512987321
 22
127.42999999999989
 13
0.0
 23
0.0
 14
1.0
 24
1.0
 15
0.0
 25
0.0
 16
0.0
 26
0.0
 36
1.0
 17
0.0
 27
0.0
 37
0.0
 40
299.24634760705283
 41
2.1842105263157889
 42
50.0
 43
0.0
 44
0.0
 50
0.0
 51
0.0
 71
     0
 72
   100
 73
     1
 74
     1
 75
     0
 76
     0
 77
     0
 78
     0
  0
ENDTAB
  0
TABLE
  2
LTYPE
 70
     2
  0
LTYPE
  2
CONTINUOUS
 70
     0
  3
Solid line
 72
    65
 73
     0
 40
0.0
  0
LTYPE
  2
AIGENLINE001
 70
     0
  3
generate AI->DXF Converter
 72
    65
 73
     4
 40
5.8561449999999988
 49
3.5278
 49
-0.776115
 49
0.776115
 49
-0.776115
  0
ENDTAB
  0
TABLE
  2
LAYER
 70
     2
  0
LAYER
  2
0
 70
     0
 62
     7
  6
CONTINUOUS
  0
LAYER
  2
_________2
 70
     0
 62
     7
  6
CONTINUOUS
  0
ENDTAB
  0
TABLE
  2
STYLE
 70
     1
  0
STYLE
  2
STANDARD
 70
     0
 40
0.0
 41
0.0
 50
0.0
 71
     0
 42
0.0
  3
TXT
  4
EXTFONT.SHX
  0
ENDTAB
  0
TABLE
  2
VIEW
 70
     0
  0
ENDTAB
  0
TABLE
  2
UCS
 70
     0
  0
ENDTAB
  0
TABLE
  2
APPID
 70
     1
  0
APPID
  2
ACAD
 70
     0
  0
ENDTAB
  0
TABLE
  2
DIMSTYLE
 70
     1
  0
DIMSTYLE
  2
STANDARD
 70
     0
  3

  4

  5

  6

  7

 40
1.0
 41
0.18
 42
0.0625
 43
0.38
 44
0.18
 45
0.0
 46
0.0
 47
0.0
 48
0.0
140
0.18
141
0.09
142
0.0
143
25.399999999999999
144
1.0
145
0.0
146
1.0
147
0.09
 71
     0
 72
     0
 73
     1
 74
     1
 75
     0
 76
     0
 77
     0
 78
     0
170
     0
171
     2
172
     0
173
     0
174
     0
175
     0
176
     0
177
     0
178
     0
  0
ENDTAB
  0
ENDSEC
  0
SECTION
  2
BLOCKS
  0
BLOCK
  8
0
  2
$MODEL_SPACE
 70
     0
 10
0.0
 20
0.0
 30
0.0
  3
$MODEL_SPACE
  1

  0
ENDBLK
  5
1A
  8
0
  0
BLOCK
 67
     1
  8
0
  2
$PAPER_SPACE
 70
     0
 10
0.0
 20
0.0
 30
0.0
  3
$PAPER_SPACE
  1

  0
ENDBLK
  5
17
 67
     1
  8
0
  0
ENDSEC
  0
SECTION
  2
ENTITIES
  0
TEXT
  5
22
  8
0
 62
     7
 10
111.3214399999999
 20
188.59599999999989
 30
0.0
 40
3.0923400000000001
  1
%%c42
 41
0.5
 72
     1
 11
113.3829999999999
 21
188.59599999999989
 31
0.0
  0
TEXT
  5
23
  8
0
 62
     7
 10
50.185200000000002
 20
84.839487500000004
 30
0.0
 40
3.0923400000000001
  1
220
 50
90.0
 41
0.5
 72
     1
 11
50.185200000000002
 21
86.772199999999998
 31
0.0
  0
TEXT
  5
24
  8
0
 62
     7
 10
57.203200000000002
 20
100.84122000000001
 30
0.0
 40
3.0923400000000001
  1
12
 50
90.0
 41
0.5
 72
     1
 11
57.203200000000002
 21
101.872
 31
0.0
  0
TEXT
  5
25
  8
0
 62
     7
 10
60.435772499999999
 20
117.2649999999999
 30
0.0
 40
3.0923400000000001
  1
20
 41
0.5
 72
     1
 11
61.595399999999991
 21
117.2649999999999
 31
0.0
  0
TEXT
  5
26
  8
0
 62
     7
 10
144.5933724999999
 20
117.2649999999999
 30
0.0
 40
3.0923400000000001
  1
20
 41
0.5
 72
     1
 11
145.75299999999999
 21
117.2649999999999
 31
0.0
  0
TEXT
  5
27
  8
0
 62
     7
 10
100.4022024999999
 20
117.4339999999999
 30
0.0
 40
3.0923400000000001
  1
%%c340
 41
0.5
 72
     1
 11
103.1079999999999
 21
117.4339999999999
 31
0.0
  0
TEXT
  5
28
  8
0
 62
     7
 10
100.2032024999999
 20
125.43899999999989
 30
0.0
 40
3.0923400000000001
  1
%%c380
 41
0.5
 72
     1
 11
102.90899999999991
 21
125.43899999999989
 31
0.0
  0
LINE
  5
29
  8
0
 62
     7
 10
59.073599999999999
 20
104.09699999999999
 30
0.0
 11
58.481400000000001
 21
106.30800000000001
 31
0.0
  0
LINE
  5
2A
  8
0
 62
     7
 10
58.481400000000001
 20
106.30800000000001
 30
0.0
 11
57.888999999999989
 21
104.09699999999999
 31
0.0
  0
LINE
  5
2B
  8
0
 62
     7
 10
57.888999999999989
 20
104.09699999999999
 30
0.0
 11
59.073599999999999
 21
104.09699999999999
 31
0.0
  0
LINE
  5
2C
  8
0
 62
     7
 10
57.90359999999999
 20
110.898
 30
0.0
 11
58.495899999999999
 21
108.6879999999999
 31
0.0
  0
LINE
  5
2D
  8
0
 62
     7
 10
58.495899999999999
 20
108.6879999999999
 30
0.0
 11
59.088200000000001
 21
110.898
 31
0.0
  0
LINE
  5
2E
  8
0
 62
     7
 10
59.088200000000001
 20
110.898
 30
0.0
 11
57.90359999999999
 21
110.898
 31
0.0
  0
LINE
  5
2F
  8
0
 62
     7
 10
58.488599999999998
 20
112.976
 30
0.0
 11
58.488599999999998
 21
100.486
 31
0.0
  0
LINE
  5
30
  8
0
 62
     7
 10
51.829900000000002
 20
106.4159999999999
 30
0.0
 11
51.237699999999997
 21
108.627
 31
0.0
  0
LINE
  5
31
  8
0
 62
     7
 10
51.237699999999997
 20
108.627
 30
0.0
 11
50.645299999999999
 21
106.4159999999999
 31
0.0
  0
LINE
  5
32
  8
0
 62
     7
 10
50.645299999999999
 20
106.4159999999999
 30
0.0
 11
51.829900000000002
 21
106.4159999999999
 31
0.0
  0
LINE
  5
33
  8
0
 62
     7
 10
50.6599
 20
66.864199999999997
 30
0.0
 11
51.252099999999999
 21
64.653499999999994
 31
0.0
  0
LINE
  5
34
  8
0
 62
     7
 10
51.252099999999999
 20
64.653499999999994
 30
0.0
 11
51.844499999999996
 21
66.864199999999997
 31
0.0
  0
LINE
  5
35
  8
0
 62
     7
 10
51.844499999999996
 20
66.864199999999997
 30
0.0
 11
50.6599
 21
66.864199999999997
 31
0.0
  0
LINE
  5
36
  8
0
 62
     7
 10
51.244900000000001
 20
108.627
 30
0.0
 11
51.244900000000001
 21
65.018999999999991
 31
0.0
  0
LINE
  5
37
  8
0
 62
     7
 10
96.655699999999996
 20
64.626300000000001
 30
0.0
 11
50.228900000000003
 21
64.626300000000001
 31
0.0
  0
LINE
  5
38
  8
0
 62
     7
 10
64.562399999999997
 20
108.626
 30
0.0
 11
50.228900000000003
 21
108.626
 31
0.0
  0
LINE
  5
39
  8
0
 62
     7
 10
64.562399999999997
 20
106.31699999999999
 30
0.0
 11
57.427
 21
106.31699999999999
 31
0.0
  0
LINE
  5
3A
  8
0
 62
     7
 10
63.180700000000002
 20
115.511
 30
0.0
 11
65.391300000000001
 21
116.10299999999999
 31
0.0
  0
LINE
  5
3B
  8
0
 62
     7
 10
65.391300000000001
 20
116.10299999999999
 30
0.0
 11
63.180700000000002
 21
116.6959999999999
 31
0.0
  0
LINE
  5
3C
  8
0
 62
     7
 10
63.180700000000002
 20
116.6959999999999
 30
0.0
 11
63.180700000000002
 21
115.511
 31
0.0
  0
LINE
  5
3D
  8
0
 62
     7
 10
135.2649999999999
 20
115.511
 30
0.0
 11
137.47599999999991
 21
116.10299999999999
 31
0.0
  0
LINE
  5
3E
  8
0
 62
     7
 10
137.47599999999991
 20
116.10299999999999
 30
0.0
 11
135.2649999999999
 21
116.6959999999999
 31
0.0
  0
LINE
  5
3F
  8
0
 62
     7
 10
135.2649999999999
 20
116.6959999999999
 30
0.0
 11
135.2649999999999
 21
115.511
 31
0.0
  0
LINE
  5
40
  8
0
 62
     7
 10
143.86699999999999
 20
116.6809999999999
 30
0.0
 11
141.65700000000001
 21
116.0889999999999
 31
0.0
  0
LINE
  5
41
  8
0
 62
     7
 10
141.65700000000001
 20
116.0889999999999
 30
0.0
 11
143.86699999999999
 21
115.497
 31
0.0
  0
LINE
  5
42
  8
0
 62
     7
 10
143.86699999999999
 20
115.497
 30
0.0
 11
143.86699999999999
 21
116.6809999999999
 31
0.0
  0
LINE
  5
43
  8
0
 62
     7
 10
71.900499999999994
 20
116.6809999999999
 30
0.0
 11
69.690100000000001
 21
116.0889999999999
 31
0.0
  0
LINE
  5
44
  8
0
 62
     7
 10
69.690100000000001
 20
116.0889999999999
 30
0.0
 11
71.900499999999994
 21
115.497
 31
0.0
  0
LINE
  5
45
  8
0
 62
     7
 10
71.900499999999994
 20
115.497
 30
0.0
 11
71.900499999999994
 21
116.6809999999999
 31
0.0
  0
LINE
  5
46
  8
0
 62
     7
 10
146.7229999999999
 20
116.0959999999999
 30
0.0
 11
59.3812
 21
116.0959999999999
 31
0.0
  0
LINE
  5
47
  8
0
 62
     7
 10
139.31200000000001
 20
123.041
 30
0.0
 11
141.523
 21
123.6329999999999
 31
0.0
  0
LINE
  5
48
  8
0
 62
     7
 10
141.523
 20
123.6329999999999
 30
0.0
 11
139.31200000000001
 21
124.22499999999999
 31
0.0
  0
LINE
  5
49
  8
0
 62
     7
 10
139.31200000000001
 20
124.22499999999999
 30
0.0
 11
139.31200000000001
 21
123.041
 31
0.0
  0
LINE
  5
4A
  8
0
 62
     7
 10
67.972999999999985
 20
124.211
 30
0.0
 11
65.762500000000003
 21
123.619
 31
0.0
  0
LINE
  5
4B
  8
0
 62
     7
 10
65.762500000000003
 20
123.619
 30
0.0
 11
67.972999999999985
 21
123.0269999999999
 31
0.0
  0
LINE
  5
4C
  8
0
 62
     7
 10
67.972999999999985
 20
123.0269999999999
 30
0.0
 11
67.972999999999985
 21
124.211
 31
0.0
  0
LINE
  5
4D
  8
0
 62
     7
 10
141.523
 20
123.626
 30
0.0
 11
65.762500000000003
 21
123.626
 31
0.0
  0
LINE
  5
4E
  8
0
 62
     7
 10
141.58799999999999
 20
109.6759999999999
 30
0.0
 11
141.58799999999999
 21
124.642
 31
0.0
  0
LINE
  5
4F
  8
0
 62
     7
 10
65.588300000000004
 20
109.6759999999999
 30
0.0
 11
65.588300000000004
 21
124.642
 31
0.0
  0
LINE
  5
50
  8
0
 62
     7
 10
137.5989999999999
 20
109.6759999999999
 30
0.0
 11
137.5989999999999
 21
117.11199999999999
 31
0.0
  0
LINE
  5
51
  8
0
 62
     7
 10
69.577200000000005
 20
109.6759999999999
 30
0.0
 11
69.577200000000005
 21
117.11199999999999
 31
0.0
  0
LINE
  5
52
  8
0
 62
     7
 10
71.167500000000004
 20
106.31699999999999
 30
0.0
 11
99.015900000000002
 21
66.658500000000004
 31
0.0
  0
LINE
  5
53
  8
0
 62
     7
 10
99.015900000000002
 20
66.658500000000004
 30
0.0
 11
99.015900000000002
 21
64.626300000000001
 31
0.0
  0
LINE
  5
54
  8
0
 62
     7
 10
99.015900000000002
 20
64.626300000000001
 30
0.0
 11
108.1599999999999
 21
64.626300000000001
 31
0.0
  0
LINE
  5
55
  8
0
 62
     7
 10
108.1599999999999
 20
64.626300000000001
 30
0.0
 11
108.1599999999999
 21
66.658500000000004
 31
0.0
  0
LINE
  5
56
  8
0
 62
     7
 10
108.1599999999999
 20
66.658500000000004
 30
0.0
 11
136.0089999999999
 21
106.31699999999999
 31
0.0
  0
LINE
  5
57
  8
0
 62
     7
 10
65.588300000000004
 20
106.227
 30
0.0
 11
141.58799999999999
 21
106.227
 31
0.0
  0
LINE
  5
58
  8
0
 62
     7
 10
141.58799999999999
 20
106.227
 30
0.0
 11
141.58799999999999
 21
107.407
 31
0.0
  0
ARC
  5
59
  8
0
 62
     7
 10
140.351924
 20
107.40040500000001
 30
0.0
 40
1.2362109999999991
 50
0.291683
 51
44.63887299999999
  0
ARC
  5
5A
  8
0
 62
     7
 10
140.36218400000001
 20
107.3887409999999
 30
0.0
 40
1.2372030000000001
 50
45.357133999999988
 51
89.689371999999992
  0
LINE
  5
5B
  8
0
 62
     7
 10
140.369
 20
108.626
 30
0.0
 11
66.807400000000001
 21
108.626
 31
0.0
  0
ARC
  5
5C
  8
0
 62
     7
 10
66.813680000000005
 20
107.39053800000001
 30
0.0
 40
1.235403
 50
90.292659999999984
 51
134.67696699999999
  0
ARC
  5
5D
  8
0
 62
     7
 10
66.824937000000006
 20
107.4000529999999
 30
0.0
 40
1.2366399999999991
 50
135.3577919999999
 51
179.6920659999999
  0
LINE
  5
5E
  8
0
 62
     7
 10
65.588300000000004
 20
107.407
 30
0.0
 11
65.588300000000004
 21
106.227
 31
0.0
  0
LINE
  5
5F
  8
0
  6
AIGENLINE001
 62
     7
 10
103.58799999999989
 20
111.547
 30
0.0
 11
103.58799999999989
 21
59.674900000000001
 31
0.0
  0
LINE
  5
60
  8
0
  6
AIGENLINE001
 62
     7
 10
103.58799999999989
 20
225.1279999999999
 30
0.0
 11
103.58799999999989
 21
139.27099999999999
 31
0.0
  0
LINE
  5
61
  8
0
  6
AIGENLINE001
 62
     7
 10
148.43600000000001
 20
181.36199999999999
 30
0.0
 11
59.89609999999999
 21
181.36199999999999
 31
0.0
  0
LINE
  5
62
  8
0
 62
     7
 10
99.474800000000002
 20
176.41099999999989
 30
0.0
 11
100.6189999999999
 21
178.39299999999989
 31
0.0
  0
LINE
  5
63
  8
0
 62
     7
 10
100.6189999999999
 20
178.39299999999989
 30
0.0
 11
98.637200000000007
 21
177.249
 31
0.0
  0
LINE
  5
64
  8
0
 62
     7
 10
98.637200000000007
 20
177.249
 30
0.0
 11
99.474800000000002
 21
176.41099999999989
 31
0.0
  0
LINE
  5
65
  8
0
 62
     7
 10
107.702
 20
186.31200000000001
 30
0.0
 11
106.557
 21
184.3309999999999
 31
0.0
  0
LINE
  5
66
  8
0
 62
     7
 10
106.557
 20
184.3309999999999
 30
0.0
 11
108.539
 21
185.47499999999991
 31
0.0
  0
LINE
  5
67
  8
0
 62
     7
 10
108.539
 20
185.47499999999991
 30
0.0
 11
107.702
 21
186.31200000000001
 31
0.0
  0
LINE
  5
68
  8
0
 62
     7
 10
97.395500000000013
 20
175.16900000000001
 30
0.0
 11
109.66200000000001
 21
187.43499999999989
 31
0.0
  0
LINE
  5
69
  8
0
 62
     7
 10
109.66200000000001
 20
187.43499999999989
 30
0.0
 11
116.67100000000001
 21
187.43499999999989
 31
0.0
  0
LINE
  5
6A
  8
0
 62
     7
 10
99.389399999999995
 20
181.36199999999999
 30
0.0
 11
107.78700000000001
 21
181.36199999999999
 31
0.0
  0
ARC
  5
6B
  8
0
 62
     7
 10
103.1779879999999
 20
181.19185999999999
 30
0.0
 40
34.410423999999999
 50
0.282718
 51
44.716605000000001
  0
ARC
  5
6C
  8
0
 62
     7
 10
103.419788
 20
180.955027
 30
0.0
 40
34.406900999999991
 50
45.280170000000012
 51
89.719084999999993
  0
ARC
  5
6D
  8
0
 62
     7
 10
103.756545
 20
180.954002
 30
0.0
 40
34.407924000000001
 50
90.279860999999968
 51
134.7191029999999
  0
ARC
  5
6E
  8
0
 62
     7
 10
103.99977
 20
181.19158999999991
 30
0.0
 40
34.41192199999999
 50
135.285213
 51
179.716825
  0
ARC
  5
6F
  8
0
 62
     7
 10
104.0007729999999
 20
181.53143700000001
 30
0.0
 40
34.412923999999997
 50
180.282703
 51
224.71409700000001
  0
ARC
  5
70
  8
0
 62
     7
 10
103.75712900000001
 20
181.7712139999999
 30
0.0
 40
34.410181999999999
 50
225.28325299999989
 51
269.71918599999992
  0
ARC
  5
71
  8
0
 62
     7
 10
103.4186709999999
 20
181.771477
 30
0.0
 40
34.41044999999999
 50
270.28274599999992
 51
314.71659699999998
  0
ARC
  5
72
  8
0
 62
     7
 10
103.17677499999991
 20
181.5312539999999
 30
0.0
 40
34.411634999999997
 50
315.28422699999987
 51
359.71761099999992
  0
ARC
  5
73
  8
0
 62
     7
 10
103.13042900000001
 20
181.17218600000001
 30
0.0
 40
38.458156000000002
 50
0.282273
 51
44.71651099999999
  0
ARC
  5
74
  8
0
 62
     7
 10
103.3984589999999
 20
180.90348499999999
 30
0.0
 40
38.458624999999991
 50
45.281936999999999
 51
89.716903000000002
  0
ARC
  5
75
  8
0
 62
     7
 10
103.77795399999999
 20
180.90436099999999
 30
0.0
 40
38.457746999999991
 50
90.282283999999976
 51
134.71857600000001
  0
ARC
  5
76
  8
0
 62
     7
 10
104.04326
 20
181.1729719999999
 30
0.0
 40
38.455407999999998
 50
135.28106299999999
 51
179.71885900000001
  0
ARC
  5
77
  8
0
 62
     7
 10
104.04635500000001
 20
181.551095
 30
0.0
 40
38.458506
 50
180.282253
 51
224.7170459999999
  0
ARC
  5
78
  8
0
 62
     7
 10
103.776894
 20
181.817059
 30
0.0
 40
38.456028000000003
 50
225.28111100000001
 51
269.71928199999991
  0
ARC
  5
79
  8
0
 62
     7
 10
103.3989939999999
 20
181.81920299999999
 30
0.0
 40
38.458176999999992
 50
270.2823029999999
 51
314.717603
  0
ARC
  5
7A
  8
0
 62
     7
 10
103.12693899999999
 20
181.55204499999991
 30
0.0
 40
38.461651000000003
 50
315.28561999999988
 51
359.71637500000003
  0
ARC
  5
7B
  8
0
 62
     7
 10
103.5359389999999
 20
181.33988299999999
 30
0.0
 40
4.251155999999999
 50
0.293412
 51
44.710073000000001
  0
ARC
  5
7C
  8
0
 62
     7
 10
103.56648199999999
 20
181.3097609999999
 30
0.0
 40
4.250856999999999
 50
45.288237000000002
 51
89.703556000000006
  0
ARC
  5
7D
  8
0
 62
     7
 10
103.61024500000001
 20
181.30862300000001
 30
0.0
 40
4.2519949999999991
 50
90.293349000000006
 51
134.7054149999999
  0
ARC
  5
7E
  8
0
 62
     7
 10
103.6366949999999
 20
181.34163100000001
 30
0.0
 40
4.2473489999999989
 50
135.272254
 51
179.729895
  0
ARC
  5
7F
  8
0
 62
     7
 10
103.6409069999999
 20
181.38341800000001
 30
0.0
 40
4.251568999999999
 50
180.29334399999991
 51
224.70450699999989
  0
ARC
  5
80
  8
0
 62
     7
 10
103.611037
 20
181.41480799999999
 30
0.0
 40
4.2526409999999997
 50
225.28818799999991
 51
269.6960259999999
  0
ARC
  5
81
  8
0
 62
     7
 10
103.5666699999999
 20
181.411306
 30
0.0
 40
4.249134999999999
 50
270.29403300000001
 51
314.73119800000001
  0
ARC
  5
82
  8
0
 62
     7
 10
103.5391489999999
 20
181.382093
 30
0.0
 40
4.2479389999999988
 50
315.27221200000002
 51
359.72430299999991
  0
TEXT
  5
83
  8
_________2
 62
     7
 10
20.924299999999992
 20
39.19959999999999
 30
0.0
 40
3.9357000000000002
  1
注記：排水金具は品質保持のため必ずCEM9600またはCEM9700を使用してください。
 41
0.5
  0
LINE
  5
84
  8
_________2
 62
     7
 10
205.30099999999999
 20
127.411
 30
0.0
 11
183.55000000000001
 21
127.411
 31
0.0
  0
LINE
  5
85
  8
_________2
 62
     7
 10
100.2999999999999
 20
-4.0910799999999998
 30
0.0
 11
100.2999999999999
 21
-21.070999999999991
 31
0.0
  0
LINE
  5
86
  8
_________2
 62
     7
 10
100.2999999999999
 20
275.93099999999993
 30
0.0
 11
100.2999999999999
 21
258.911
 31
0.0
  0
LINE
  5
87
  8
_________2
 62
     7
 10
17.049399999999991
 20
127.411
 30
0.0
 11
-4.7006899999999989
 21
127.411
 31
0.0
  0
LINE
  5
88
  8
_________2
 62
     7
 10
76.740799999999993
 20
29.8047
 30
0.0
 11
74.554599999999994
 21
29.8047
 31
0.0
  0
LINE
  5
89
  8
_________2
 62
     7
 10
77.233500000000006
 20
29.8047
 30
0.0
 11
76.981300000000005
 21
29.8047
 31
0.0
  0
LINE
  5
8A
  8
_________2
 62
     7
 10
77.726200000000006
 20
29.8047
 30
0.0
 11
80.6511
 21
29.8047
 31
0.0
  0
LINE
  5
8B
  8
_________2
 62
     7
 10
77.233500000000006
 20
29.8047
 30
0.0
 11
77.485299999999995
 21
29.8047
 31
0.0
  0
LINE
  5
8C
  8
_________2
 62
     7
 10
70.837000000000003
 20
29.8047
 30
0.0
 11
68.650300000000001
 21
29.8047
 31
0.0
  0
LINE
  5
8D
  8
_________2
 62
     7
 10
71.329300000000003
 20
29.8047
 30
0.0
 11
71.077399999999983
 21
29.8047
 31
0.0
  0
LINE
  5
8E
  8
_________2
 62
     7
 10
71.329300000000003
 20
30.2974
 30
0.0
 11
71.329300000000003
 21
32.484400000000001
 31
0.0
  0
LINE
  5
8F
  8
_________2
 62
     7
 10
71.329300000000003
 20
29.8047
 30
0.0
 11
71.329300000000003
 21
30.057300000000001
 31
0.0
  0
LINE
  5
90
  8
_________2
 62
     7
 10
71.821899999999999
 20
29.8047
 30
0.0
 11
74.008899999999997
 21
29.8047
 31
0.0
  0
LINE
  5
91
  8
_________2
 62
     7
 10
71.329300000000003
 20
29.8047
 30
0.0
 11
71.581400000000002
 21
29.8047
 31
0.0
  0
LINE
  5
92
  8
_________2
 62
     7
 10
71.329300000000003
 20
29.312799999999999
 30
0.0
 11
71.329300000000003
 21
27.126200000000001
 31
0.0
  0
LINE
  5
93
  8
_________2
 62
     7
 10
71.329300000000003
 20
29.8047
 30
0.0
 11
71.329300000000003
 21
29.5532
 31
0.0
  0
LINE
  5
94
  8
_________2
 62
     7
 10
75.040300000000002
 20
28.5852
 30
0.0
 11
80.218299999999985
 21
27.720400000000001
 31
0.0
  0
LINE
  5
95
  8
_________2
 62
     7
 10
75.040300000000002
 20
31.024699999999999
 30
0.0
 11
80.218299999999985
 21
31.8901
 31
0.0
  0
LINE
  5
96
  8
_________2
 62
     7
 10
80.218299999999985
 20
27.720400000000001
 30
0.0
 11
80.218299999999985
 21
31.8901
 31
0.0
  0
LINE
  5
97
  8
_________2
 62
     7
 10
75.040300000000002
 20
28.5852
 30
0.0
 11
75.040300000000002
 21
31.024699999999999
 31
0.0
  0
ARC
  5
98
  8
_________2
 62
     7
 10
71.282340000000005
 20
29.757825
 30
0.0
 40
1.2677020000000001
 50
2.1210029999999991
 51
87.878986999999995
  0
ARC
  5
99
  8
_________2
 62
     7
 10
71.375812999999994
 20
29.758545999999999
 30
0.0
 40
1.2669680000000001
 50
92.105782999999988
 51
177.91037
  0
ARC
  5
9A
  8
_________2
 62
     7
 10
71.376186000000004
 20
29.851671
 30
0.0
 40
1.2673680000000001
 50
182.12203600000001
 51
267.877993
  0
ARC
  5
9B
  8
_________2
 62
     7
 10
71.282359999999997
 20
29.851998999999989
 30
0.0
 40
1.267695999999999
 50
272.12015300000002
 51
357.863674
  0
ARC
  5
9C
  8
_________2
 62
     7
 10
71.248890000000003
 20
29.724731999999989
 30
0.0
 40
2.1668310000000002
 50
2.1161439999999989
 51
87.874379000000005
  0
ARC
  5
9D
  8
_________2
 62
     7
 10
71.408918999999983
 20
29.725798000000001
 30
0.0
 40
2.1657399999999991
 50
92.107930000000025
 51
177.91097500000001
  0
ARC
  5
9E
  8
_________2
 62
     7
 10
71.408934000000002
 20
29.884775999999999
 30
0.0
 40
2.1657950000000001
 50
182.11776599999999
 51
267.89173399999999
  0
ARC
  5
9F
  8
_________2
 62
     7
 10
71.249286999999995
 20
29.885429999999989
 30
0.0
 40
2.1664590000000001
 50
272.11546800000002
 51
357.86560400000002
  0
TEXT
  5
A0
  8
_________2
 62
     7
 10
104.604
 20
1.6794899999999999
 30
0.0
 40
3.0923400000000001
  1
図番
 41
0.5
  0
LINE
  5
A1
  8
_________2
 62
     7
 10
103.55
 20
5.9087199999999989
 30
0.0
 11
183.55099999999999
 21
5.9087199999999989
 31
0.0
  0
TEXT
  5
A2
  8
_________2
 62
     7
 10
104.604
 20
11.679299999999991
 30
0.0
 40
3.0923400000000001
  1
品番
 41
0.5
  0
TEXT
  5
A3
  8
_________2
 62
     7
 10
104.604
 20
31.8184
 30
0.0
 40
3.0923400000000001
  1
名称
 41
0.5
  0
TEXT
  5
A4
  8
_________2
 62
     7
 10
91.844958333333338
 20
26.822299999999998
 30
0.0
 40
3.6545800000000002
  1
mm
 41
0.5
 72
     1
 11
93.367699999999985
 21
26.822299999999998
 31
0.0
  0
TEXT
  5
A5
  8
_________2
 62
     7
 10
85.642999999999986
 20
31.8184
 30
0.0
 40
3.0923400000000001
  1
単位
 41
0.5
  0
TEXT
  5
A6
  8
_________2
 62
     7
 10
85.642999999999986
 20
19.410799999999991
 30
0.0
 40
3.0923400000000001
  1
尺度
 41
0.5
  0
TEXT
  5
A7
  8
_________2
 62
     7
 10
90.548558666666679
 20
13.218199999999991
 30
0.0
 40
3.6545800000000002
  1
1 ： 5
 41
0.5
 72
     1
 11
93.959500000000006
 21
13.218199999999991
 31
0.0
  0
TEXT
  5
A8
  8
_________2
 62
     7
 10
135.84258750000001
 20
9.1082000000000001
 30
0.0
 40
3.9357000000000002
  1
CEM02100S
 41
0.5
 72
     1
 11
143.55000000000001
 21
9.1082000000000001
 31
0.0
  0
TEXT
  5
A9
  8
_________2
 62
     7
 10
135.84258750000001
 20
-0.8926299999999999
 30
0.0
 40
3.9357000000000002
  1
CEM02100S
 41
0.5
 72
     1
 11
143.55000000000001
 21
-0.8926299999999999
 31
0.0
  0
TEXT
  5
AA
  8
_________2
 62
     7
 10
24.586600000000001
 20
0.707627
 30
0.0
 40
3.9357000000000002
  1
カウンター穴あけ径%%c350　実容量7L
 41
0.5
  0
TEXT
  5
AB
  8
_________2
 62
     7
 10
109.179
 20
24.226099999999999
 30
0.0
 40
3.9357000000000002
  1
マテリア/ニュートラル　アルミ手洗ボール（深型）
 41
0.5
  0
TEXT
  5
AC
  8
_________2
 62
     7
 10
39.425100333333333
 20
13.603400000000001
 30
0.0
 40
3.6545800000000002
  1
福田
 41
0.5
 72
     1
 11
41.313299999999998
 21
13.603400000000001
 31
0.0
  0
TEXT
  5
AD
  8
_________2
 62
     7
 10
20.789890666666661
 20
13.603400000000001
 30
0.0
 40
3.6545800000000002
  1
石原
 41
0.5
 72
     1
 11
22.739000000000001
 21
13.603400000000001
 31
0.0
  0
TEXT
  5
AE
  8
_________2
 62
     7
 10
67.785300000000007
 20
13.218199999999991
 30
0.0
 40
3.6545800000000002
  1
04.11.08
 41
0.5
  0
TEXT
  5
AF
  8
_________2
 62
     7
 10
66.5929
 20
19.410799999999991
 30
0.0
 40
3.0923400000000001
  1
日付
 41
0.5
  0
TEXT
  5
B0
  8
_________2
 62
     7
 10
29.639199999999992
 20
19.410799999999991
 30
0.0
 40
3.0923400000000001
  1
検図
 41
0.5
  0
TEXT
  5
B1
  8
_________2
 62
     7
 10
18.020900000000001
 20
5.21143
 30
0.0
 40
3.0923400000000001
  1
備考
 41
0.5
  0
TEXT
  5
B2
  8
_________2
 62
     7
 10
18.020900000000001
 20
19.410799999999991
 30
0.0
 40
3.0923400000000001
  1
製図
 41
0.5
  0
TEXT
  5
B3
  8
_________2
 62
     7
 10
23.788265333333339
 20
27.936800000000002
 30
0.0
 40
4.4979399999999989
  1
セラトレーディング株式会社
 41
0.5
 72
     1
 11
41.180300000000003
 21
27.936800000000002
 31
0.0
  0
LINE
  5
B4
  8
_________2
 62
     7
 10
183.55099999999999
 20
-4.0910799999999998
 30
0.0
 11
17.049399999999991
 21
-4.0910799999999998
 31
0.0
  0
LINE
  5
B5
  8
_________2
 62
     7
 10
17.049399999999991
 20
-4.0910799999999998
 30
0.0
 11
17.049399999999991
 21
258.911
 31
0.0
  0
LINE
  5
B6
  8
_________2
 62
     7
 10
17.049399999999991
 20
258.911
 30
0.0
 11
183.55099999999999
 21
258.911
 31
0.0
  0
LINE
  5
B7
  8
_________2
 62
     7
 10
183.55099999999999
 20
258.911
 30
0.0
 11
183.55099999999999
 21
-4.0910799999999998
 31
0.0
  0
LINE
  5
B8
  8
_________2
 62
     7
 10
65.549400000000006
 20
9.4092999999999982
 30
0.0
 11
65.549400000000006
 21
35.909100000000002
 31
0.0
  0
LINE
  5
B9
  8
_________2
 62
     7
 10
84.549599999999984
 20
9.4092999999999982
 30
0.0
 11
84.549599999999984
 21
35.909100000000002
 31
0.0
  0
LINE
  5
BA
  8
_________2
 62
     7
 10
103.55
 20
-4.0910799999999998
 30
0.0
 11
103.55
 21
35.909100000000002
 31
0.0
  0
LINE
  5
BB
  8
_________2
 62
     7
 10
28.549199999999988
 20
9.4092999999999982
 30
0.0
 11
28.549199999999988
 21
23.409199999999998
 31
0.0
  0
LINE
  5
BC
  8
_________2
 62
     7
 10
17.049399999999991
 20
9.4092999999999982
 30
0.0
 11
103.55
 21
9.4092999999999982
 31
0.0
  0
LINE
  5
BD
  8
_________2
 62
     7
 10
17.049399999999991
 20
23.409199999999998
 30
0.0
 11
103.55
 21
23.409199999999998
 31
0.0
  0
LINE
  5
BE
  8
_________2
 62
     7
 10
103.55
 20
15.9085
 30
0.0
 11
183.55099999999999
 21
15.9085
 31
0.0
  0
LINE
  5
BF
  8
_________2
 62
     7
 10
17.049399999999991
 20
35.909100000000002
 30
0.0
 11
183.55099999999999
 21
35.909100000000002
 31
0.0
  0
ENDSEC
  0
EOF
