  0
SECTION
  2
HEADER
  9
$ACADVER
  1
AC1009
  9
$INSBASE
 10
0.0
 20
0.0
 30
0.0
  9
$EXTMIN
 10
-4.7008599999999987
 20
-21.071000000000002
 30
0.0
  9
$EXTMAX
 10
205.30099999999999
 20
275.93099999999998
 30
0.0
  9
$LIMMIN
 10
0.0
 20
0.0
  9
$LIMMAX
 10
12.0
 20
9.0
  9
$ORTHOMODE
 70
     0
  9
$REGENMODE
 70
     1
  9
$FILLMODE
 70
     1
  9
$QTEXTMODE
 70
     0
  9
$MIRRTEXT
 70
     1
  9
$DRAGMODE
 70
     2
  9
$LTSCALE
 40
1.0
  9
$OSMODE
 70
    37
  9
$ATTMODE
 70
     1
  9
$TEXTSIZE
 40
0.0
  9
$TRACEWID
 40
0.05
  9
$TEXTSTYLE
  7
STANDARD
  9
$CLAYER
  8
0
  9
$CELTYPE
  6
CONTINUOUS
  9
$CECOLOR
 62
   256
  9
$DIMSCALE
 40
1.0
  9
$DIMASZ
 40
0.18
  9
$DIMEXO
 40
0.0625
  9
$DIMDLI
 40
0.38
  9
$DIMRND
 40
0.0
  9
$DIMDLE
 40
0.0
  9
$DIMEXE
 40
0.18
  9
$DIMTP
 40
0.0
  9
$DIMTM
 40
0.0
  9
$DIMTXT
 40
0.18
  9
$DIMCEN
 40
0.09
  9
$DIMTSZ
 40
0.0
  9
$DIMTOL
 70
     0
  9
$DIMLIM
 70
     0
  9
$DIMTIH
 70
     1
  9
$DIMTOH
 70
     1
  9
$DIMSE1
 70
     0
  9
$DIMSE2
 70
     0
  9
$DIMTAD
 70
     0
  9
$DIMZIN
 70
     0
  9
$DIMBLK
  1

  9
$DIMASO
 70
     1
  9
$DIMSHO
 70
     1
  9
$DIMPOST
  1

  9
$DIMAPOST
  1

  9
$DIMALT
 70
     0
  9
$DIMALTD
 70
     2
  9
$DIMALTF
 40
25.399999999999999
  9
$DIMLFAC
 40
1.0
  9
$DIMTOFL
 70
     0
  9
$DIMTVP
 40
0.0
  9
$DIMTIX
 70
     0
  9
$DIMSOXD
 70
     0
  9
$DIMSAH
 70
     0
  9
$DIMBLK1
  1

  9
$DIMBLK2
  1

  9
$DIMSTYLE
  2
STANDARD
  9
$DIMCLRD
 70
     0
  9
$DIMCLRE
 70
     0
  9
$DIMCLRT
 70
     0
  9
$DIMTFAC
 40
1.0
  9
$DIMGAP
 40
0.09
  9
$LUNITS
 70
     2
  9
$LUPREC
 70
     4
  9
$SKETCHINC
 40
0.1
  9
$FILLETRAD
 40
0.0
  9
$AUNITS
 70
     0
  9
$AUPREC
 70
     0
  9
$MENU
  1
.
  9
$ELEVATION
 40
0.0
  9
$PELEVATION
 40
0.0
  9
$THICKNESS
 40
0.0
  9
$LIMCHECK
 70
     0
  9
$BLIPMODE
 70
     0
  9
$CHAMFERA
 40
0.0
  9
$CHAMFERB
 40
0.0
  9
$SKPOLY
 70
     0
  9
$TDCREATE
 40
2444972.375
  9
$TDUPDATE
 40
2457221.2535799081
  9
$TDINDWG
 40
0.0000282523
  9
$TDUSRTIMER
 40
0.0000282523
  9
$USRTIMER
 70
     1
  9
$ANGBASE
 50
0.0
  9
$ANGDIR
 70
     0
  9
$PDMODE
 70
     0
  9
$PDSIZE
 40
0.0
  9
$PLINEWID
 40
0.0
  9
$COORDS
 70
     1
  9
$SPLFRAME
 70
     0
  9
$SPLINETYPE
 70
     6
  9
$SPLINESEGS
 70
     8
  9
$ATTDIA
 70
     1
  9
$ATTREQ
 70
     1
  9
$HANDLING
 70
     1
  9
$HANDSEED
  5
2F6
  9
$SURFTAB1
 70
     6
  9
$SURFTAB2
 70
     6
  9
$SURFTYPE
 70
     6
  9
$SURFU
 70
     6
  9
$SURFV
 70
     6
  9
$UCSNAME
  2

  9
$UCSORG
 10
0.0
 20
0.0
 30
0.0
  9
$UCSXDIR
 10
1.0
 20
0.0
 30
0.0
  9
$UCSYDIR
 10
0.0
 20
1.0
 30
0.0
  9
$PUCSNAME
  2

  9
$PUCSORG
 10
0.0
 20
0.0
 30
0.0
  9
$PUCSXDIR
 10
1.0
 20
0.0
 30
0.0
  9
$PUCSYDIR
 10
0.0
 20
1.0
 30
0.0
  9
$USERI1
 70
     0
  9
$USERI2
 70
     0
  9
$USERI3
 70
     0
  9
$USERI4
 70
     0
  9
$USERI5
 70
     0
  9
$USERR1
 40
0.0
  9
$USERR2
 40
0.0
  9
$USERR3
 40
0.0
  9
$USERR4
 40
0.0
  9
$USERR5
 40
0.0
  9
$WORLDVIEW
 70
     1
  9
$SHADEDGE
 70
     3
  9
$SHADEDIF
 70
    70
  9
$TILEMODE
 70
     1
  9
$MAXACTVP
 70
    48
  9
$PLIMCHECK
 70
     0
  9
$PEXTMIN
 10
1.0000000000000000E+020
 20
1.0000000000000000E+020
 30
1.0000000000000000E+020
  9
$PEXTMAX
 10
-1.0000000000000000E+020
 20
-1.0000000000000000E+020
 30
-1.0000000000000000E+020
  9
$PLIMMIN
 10
0.0
 20
0.0
  9
$PLIMMAX
 10
12.0
 20
9.0
  9
$UNITMODE
 70
     0
  9
$VISRETAIN
 70
     1
  9
$PLINEGEN
 70
     0
  9
$PSLTSCALE
 70
     1
  0
ENDSEC
  0
SECTION
  2
TABLES
  0
TABLE
  2
VPORT
 70
     1
  0
VPORT
  2
*ACTIVE
 70
     0
 10
0.0
 20
0.0
 11
1.0
 21
1.0
 12
155.35644193003401
 22
127.42999999999989
 13
0.0
 23
0.0
 14
1.0
 24
1.0
 15
0.0
 25
0.0
 16
0.0
 26
0.0
 36
1.0
 17
0.0
 27
0.0
 37
0.0
 40
283.65115399946512
 41
2.1001926782273599
 42
50.0
 43
0.0
 44
0.0
 50
0.0
 51
0.0
 71
     0
 72
   100
 73
     1
 74
     1
 75
     0
 76
     0
 77
     0
 78
     0
  0
ENDTAB
  0
TABLE
  2
LTYPE
 70
     3
  0
LTYPE
  2
CONTINUOUS
 70
     0
  3
Solid line
 72
    65
 73
     0
 40
0.0
  0
LTYPE
  2
AIGENLINE001
 70
     0
  3
generate AI->DXF Converter
 72
    65
 73
     4
 40
5.3799970000000004
 49
3.5278
 49
-0.776115
 49
0.776115
 49
-0.299967
  0
LTYPE
  2
AIGENLINE002
 70
     0
  3
generate AI->DXF Converter
 72
    65
 73
     4
 40
5.8561449999999988
 49
3.5278
 49
-0.776115
 49
0.776115
 49
-0.776115
  0
ENDTAB
  0
TABLE
  2
LAYER
 70
     2
  0
LAYER
  2
0
 70
     0
 62
     7
  6
CONTINUOUS
  0
LAYER
  2
_________2
 70
     0
 62
     7
  6
CONTINUOUS
  0
ENDTAB
  0
TABLE
  2
STYLE
 70
     1
  0
STYLE
  2
STANDARD
 70
     0
 40
0.0
 41
0.0
 50
0.0
 71
     0
 42
0.0
  3
TXT
  4
EXTFONT.SHX
  0
ENDTAB
  0
TABLE
  2
VIEW
 70
     0
  0
ENDTAB
  0
TABLE
  2
UCS
 70
     0
  0
ENDTAB
  0
TABLE
  2
APPID
 70
     3
  0
APPID
  2
ACAD
 70
     0
  0
APPID
  2
ACAD_NAV_VCDISPLAY
 70
     0
  0
APPID
  2
ACAD_MLEADERVER
 70
     0
  0
ENDTAB
  0
TABLE
  2
DIMSTYLE
 70
     1
  0
DIMSTYLE
  2
STANDARD
 70
     0
  3

  4

  5

  6

  7

 40
1.0
 41
0.18
 42
0.0625
 43
0.38
 44
0.18
 45
0.0
 46
0.0
 47
0.0
 48
0.0
140
0.18
141
0.09
142
0.0
143
25.399999999999999
144
1.0
145
0.0
146
1.0
147
0.09
 71
     0
 72
     0
 73
     1
 74
     1
 75
     0
 76
     0
 77
     0
 78
     0
170
     0
171
     2
172
     0
173
     0
174
     0
175
     0
176
     0
177
     0
178
     0
  0
ENDTAB
  0
ENDSEC
  0
SECTION
  2
BLOCKS
  0
BLOCK
  8
0
  2
$MODEL_SPACE
 70
     0
 10
0.0
 20
0.0
 30
0.0
  3
$MODEL_SPACE
  1

  0
ENDBLK
  5
1A
  8
0
  0
BLOCK
 67
     1
  8
0
  2
$PAPER_SPACE
 70
     0
 10
0.0
 20
0.0
 30
0.0
  3
$PAPER_SPACE
  1

  0
ENDBLK
  5
17
 67
     1
  8
0
  0
ENDSEC
  0
SECTION
  2
ENTITIES
  0
TEXT
  5
23
  8
0
 62
     7
 10
66.755299999999991
 20
126.187
 30
0.0
 40
3.0923400000000001
  1
排水栓
 41
0.5
 72
     2
 11
71.909199999999998
 21
126.187
 31
0.0
  0
TEXT
  5
24
  8
0
 62
     7
 10
28.148
 20
106.848
 30
0.0
 40
3.0923400000000001
  1
パッキン
 41
0.5
  0
TEXT
  5
25
  8
0
 62
     7
 10
73.758151999999995
 20
116.04600000000001
 30
0.0
 40
3.0923400000000001
  1
パッキン
 41
0.5
 72
     2
 11
80.561300000000017
 21
116.04600000000001
 31
0.0
  0
TEXT
  5
26
  8
0
 62
     7
 10
99.838499999999996
 20
94.310050000000004
 30
0.0
 40
3.0923400000000001
  1
%%c5
 50
90.0
 41
0.5
 72
     2
 11
99.838499999999996
 21
96.887
 31
0.0
  0
TEXT
  5
27
  8
0
 62
     7
 10
166.06299999999999
 20
91.144720000000007
 30
0.0
 40
3.0923400000000001
  1
41
 50
90.0
 41
0.5
 72
     1
 11
166.06299999999999
 21
92.175500000000014
 31
0.0
  0
TEXT
  5
28
  8
0
 62
     7
 10
113.0282875
 20
73.913600000000002
 30
0.0
 40
3.0923400000000001
  1
220
 41
0.5
 72
     1
 11
114.961
 21
73.913600000000002
 31
0.0
  0
TEXT
  5
29
  8
0
 62
     7
 10
148.07180899999989
 20
66.463899999999995
 30
0.0
 40
3.0923400000000001
  1
G1 1/4
 41
0.5
 72
     1
 11
151.62799999999999
 21
66.463899999999995
 31
0.0
  0
TEXT
  5
2A
  8
0
 62
     7
 10
149.56644
 20
126.08
 30
0.0
 40
3.0923400000000001
  1
%%c63
 41
0.5
 72
     1
 11
151.62799999999999
 21
126.08
 31
0.0
  0
TEXT
  5
2B
  8
0
 62
     7
 10
133.92400000000001
 20
104.5904225
 30
0.0
 40
3.0923400000000001
  1
max.50
 50
90.0
 41
0.5
 72
     1
 11
133.92400000000001
 21
108.327
 31
0.0
  0
LINE
  5
2C
  8
0
 62
     7
 10
47.110599999999991
 20
110.145
 30
0.0
 11
60.444200000000002
 21
110.145
 31
0.0
  0
LINE
  5
2D
  8
0
 62
     7
 10
61.110900000000001
 20
112.81100000000001
 30
0.0
 11
60.444200000000002
 21
110.145
 31
0.0
  0
LINE
  5
2E
  8
0
 62
     7
 10
64.277299999999997
 20
114.47799999999999
 30
0.0
 11
61.110900000000001
 21
112.81100000000001
 31
0.0
  0
LINE
  5
2F
  8
0
 62
     7
 10
46.444000000000003
 20
112.81100000000001
 30
0.0
 11
47.110599999999991
 21
110.145
 31
0.0
  0
LINE
  5
30
  8
0
 62
     7
 10
43.277200000000001
 20
114.47799999999999
 30
0.0
 11
46.444000000000003
 21
112.81100000000001
 31
0.0
  0
LINE
  5
31
  8
0
 62
     7
 10
46.444000000000003
 20
112.81100000000001
 30
0.0
 11
61.110900000000001
 21
112.81100000000001
 31
0.0
  0
LINE
  5
32
  8
0
 62
     7
 10
64.277299999999997
 20
114.47799999999999
 30
0.0
 11
43.277200000000001
 21
114.47799999999999
 31
0.0
  0
LINE
  5
33
  8
0
 62
     7
 10
43.277200000000001
 20
114.47799999999999
 30
0.0
 11
43.277200000000001
 21
114.81100000000001
 31
0.0
  0
LINE
  5
34
  8
0
 62
     7
 10
43.277200000000001
 20
114.81100000000001
 30
0.0
 11
64.277299999999997
 21
114.81100000000001
 31
0.0
  0
LINE
  5
35
  8
0
 62
     7
 10
64.277299999999997
 20
114.81100000000001
 30
0.0
 11
64.277299999999997
 21
114.47799999999999
 31
0.0
  0
LINE
  5
36
  8
0
 62
     7
 10
60.444200000000002
 20
108.60599999999999
 30
0.0
 11
60.444200000000002
 21
102.175
 31
0.0
  0
LINE
  5
37
  8
0
 62
     7
 10
60.444200000000002
 20
110.145
 30
0.0
 11
60.444200000000002
 21
109.43899999999999
 31
0.0
  0
LINE
  5
38
  8
0
 62
     7
 10
47.110599999999991
 20
110.145
 30
0.0
 11
47.110599999999991
 21
109.43899999999999
 31
0.0
  0
LINE
  5
39
  8
0
 62
     7
 10
47.110300000000002
 20
108.60599999999999
 30
0.0
 11
47.110300000000002
 21
102.175
 31
0.0
  0
LINE
  5
3A
  8
0
 62
     7
 10
43.7774
 20
108.60599999999999
 30
0.0
 11
63.7774
 21
108.60599999999999
 31
0.0
  0
LINE
  5
3B
  8
0
 62
     7
 10
63.7774
 20
108.60599999999999
 30
0.0
 11
63.7774
 21
109.43899999999999
 31
0.0
  0
LINE
  5
3C
  8
0
 62
     7
 10
63.7774
 20
109.43899999999999
 30
0.0
 11
43.7774
 21
109.43899999999999
 31
0.0
  0
LINE
  5
3D
  8
0
 62
     7
 10
43.7774
 20
109.43899999999999
 30
0.0
 11
43.7774
 21
108.60599999999999
 31
0.0
  0
LINE
  5
3E
  8
0
 62
     7
 10
144.96100000000001
 20
110.145
 30
0.0
 11
158.29499999999999
 21
110.145
 31
0.0
  0
LINE
  5
3F
  8
0
 62
     7
 10
158.96100000000001
 20
112.81100000000001
 30
0.0
 11
158.29499999999999
 21
110.145
 31
0.0
  0
LINE
  5
40
  8
0
 62
     7
 10
162.12799999999999
 20
114.47799999999999
 30
0.0
 11
158.96100000000001
 21
112.81100000000001
 31
0.0
  0
LINE
  5
41
  8
0
 62
     7
 10
144.29400000000001
 20
112.81100000000001
 30
0.0
 11
144.96100000000001
 21
110.145
 31
0.0
  0
LINE
  5
42
  8
0
 62
     7
 10
141.12799999999999
 20
114.47799999999999
 30
0.0
 11
144.29400000000001
 21
112.81100000000001
 31
0.0
  0
LINE
  5
43
  8
0
 62
     7
 10
144.29400000000001
 20
112.81100000000001
 30
0.0
 11
158.96100000000001
 21
112.81100000000001
 31
0.0
  0
LINE
  5
44
  8
0
 62
     7
 10
162.12799999999999
 20
114.47799999999999
 30
0.0
 11
141.12799999999999
 21
114.47799999999999
 31
0.0
  0
LINE
  5
45
  8
0
 62
     7
 10
141.12799999999999
 20
114.47799999999999
 30
0.0
 11
141.12799999999999
 21
114.81100000000001
 31
0.0
  0
LINE
  5
46
  8
0
 62
     7
 10
141.12799999999999
 20
114.81100000000001
 30
0.0
 11
162.12799999999999
 21
114.81100000000001
 31
0.0
  0
LINE
  5
47
  8
0
 62
     7
 10
162.12799999999999
 20
114.81100000000001
 30
0.0
 11
162.12799999999999
 21
114.47799999999999
 31
0.0
  0
LINE
  5
48
  8
0
 62
     7
 10
61.750599999999999
 20
125.48699999999999
 30
0.0
 11
71.909199999999998
 21
125.48699999999999
 31
0.0
  0
LINE
  5
49
  8
0
 62
     7
 10
28.148
 20
106.148
 30
0.0
 11
40.801199999999987
 21
106.148
 31
0.0
  0
LINE
  5
4A
  8
0
 62
     7
 10
67.908100000000005
 20
115.346
 30
0.0
 11
80.561300000000017
 21
115.346
 31
0.0
  0
LINE
  5
4B
  8
0
 62
     7
 10
43.141999999999989
 20
101.767
 30
0.0
 11
44.893999999999991
 21
100.29600000000001
 31
0.0
  0
LINE
  5
4C
  8
0
 62
     7
 10
44.893999999999991
 20
100.29600000000001
 30
0.0
 11
44.112699999999997
 21
102.446
 31
0.0
  0
LINE
  5
4D
  8
0
 62
     7
 10
44.112699999999997
 20
102.446
 30
0.0
 11
43.141999999999989
 21
101.767
 31
0.0
  0
LINE
  5
4E
  8
0
 62
     7
 10
44.893999999999991
 20
100.29600000000001
 30
0.0
 11
40.801199999999987
 21
106.148
 31
0.0
  0
LINE
  5
4F
  8
0
 62
     7
 10
65.529399999999995
 20
110.911
 30
0.0
 11
63.7774
 21
109.43899999999999
 31
0.0
  0
LINE
  5
50
  8
0
 62
     7
 10
63.7774
 20
109.43899999999999
 30
0.0
 11
64.558700000000002
 21
111.589
 31
0.0
  0
LINE
  5
51
  8
0
 62
     7
 10
64.558700000000002
 20
111.589
 30
0.0
 11
65.529399999999995
 21
110.911
 31
0.0
  0
LINE
  5
52
  8
0
 62
     7
 10
63.7774
 20
109.43899999999999
 30
0.0
 11
67.908100000000005
 21
115.346
 31
0.0
  0
LINE
  5
53
  8
0
 62
     7
 10
59.371899999999997
 20
121.05200000000001
 30
0.0
 11
57.619900000000001
 21
119.581
 31
0.0
  0
LINE
  5
54
  8
0
 62
     7
 10
57.619900000000001
 20
119.581
 30
0.0
 11
58.401299999999999
 21
121.73099999999999
 31
0.0
  0
LINE
  5
55
  8
0
 62
     7
 10
58.401299999999999
 20
121.73099999999999
 30
0.0
 11
59.371899999999997
 21
121.05200000000001
 31
0.0
  0
LINE
  5
56
  8
0
 62
     7
 10
57.619900000000001
 20
119.581
 30
0.0
 11
61.750599999999999
 21
125.48699999999999
 31
0.0
  0
ARC
  5
57
  8
0
 62
     7
 10
55.440066000000002
 20
115.940872
 30
0.0
 40
1.0376529999999999
 50
91.952033000000014
 51
175.73103399999999
  0
ARC
  5
58
  8
0
 62
     7
 10
60.671326000000001
 20
115.499785
 30
0.0
 40
1.727436999999999
 50
161.70715200000001
 51
180.03965099999999
  0
ARC
  5
59
  8
0
 62
     7
 10
60.203254000000001
 20
115.618469
 30
0.0
 40
1.246237
 50
129.740477
 51
160.13328899999999
  0
ARC
  5
5A
  8
0
 62
     7
 10
60.518093999999991
 20
115.260324
 30
0.0
 40
1.722963
 50
120.00592899999999
 51
130.17710299999999
  0
ARC
  5
5B
  8
0
 62
     7
 10
61.035747000000001
 20
114.401357
 30
0.0
 40
2.7257439999999988
 50
116.61019400000001
 51
120.399276
  0
ARC
  5
5C
  8
0
 62
     7
 10
63.670527
 20
109.045878
 30
0.0
 40
8.6942130000000013
 50
114.169774
 51
116.325974
  0
ARC
  5
5D
  8
0
 62
     7
 10
59.924692000000007
 20
117.830612
 30
0.0
 40
0.5195610000000001
 50
272.1304970000001
 51
357.86951299999998
  0
ARC
  5
5E
  8
0
 62
     7
 10
59.924353000000004
 20
117.792001
 30
0.0
 40
0.519898
 50
2.1269830000000001
 51
87.833532999999989
  0
LINE
  5
5F
  8
0
 62
     7
 10
54.40529999999999
 20
116.018
 30
0.0
 11
54.357100000000003
 21
114.81100000000001
 31
0.0
  0
LINE
  5
60
  8
0
 62
     7
 10
58.943899999999999
 20
115.499
 30
0.0
 11
58.943899999999999
 21
114.81100000000001
 31
0.0
  0
LINE
  5
61
  8
0
 62
     7
 10
60.443899999999992
 20
118.81100000000001
 30
0.0
 11
60.352899999999991
 21
118.312
 31
0.0
  0
LINE
  5
62
  8
0
 62
     7
 10
60.171399999999998
 20
117.31100000000001
 30
0.0
 11
60.11079999999999
 21
116.97799999999999
 31
0.0
  0
LINE
  5
63
  8
0
 62
     7
 10
60.11079999999999
 20
116.97799999999999
 30
0.0
 11
55.404699999999998
 21
116.97799999999999
 31
0.0
  0
LINE
  5
64
  8
0
 62
     7
 10
55.110500000000002
 20
114.81100000000001
 30
0.0
 11
55.110500000000002
 21
116.934
 31
0.0
  0
ARC
  5
65
  8
0
 62
     7
 10
57.897362000000001
 20
113.61680800000001
 30
0.0
 40
5.7852189999999997
 50
63.884695999999998
 51
71.516712999999996
  0
ARC
  5
66
  8
0
 62
     7
 10
56.810895999999993
 20
110.546899
 30
0.0
 40
9.0413920000000001
 50
71.154387999999983
 51
78.11098299999999
  0
ARC
  5
67
  8
0
 62
     7
 10
55.647543999999989
 20
105.454041
 30
0.0
 40
14.264949
 50
77.752769999999984
 51
82.931201000000016
  0
ARC
  5
68
  8
0
 62
     7
 10
54.581532999999993
 20
97.590942999999996
 30
0.0
 40
22.199648
 50
82.698223999999996
 51
87.162076999999996
  0
ARC
  5
69
  8
0
 62
     7
 10
53.87209399999999
 20
85.927268000000012
 30
0.0
 40
33.884397
 50
86.940409000000002
 51
90.160368000000005
  0
ARC
  5
6A
  8
0
 62
     7
 10
52.114415000000001
 20
115.94123
 30
0.0
 40
1.0372959999999991
 50
4.2506199999999987
 51
88.046535999999989
  0
ARC
  5
6B
  8
0
 62
     7
 10
46.883164000000001
 20
115.49978400000001
 30
0.0
 40
1.7274409999999989
 50
359.96038900000002
 51
18.292808999999998
  0
ARC
  5
6C
  8
0
 62
     7
 10
47.351239999999997
 20
115.618469
 30
0.0
 40
1.246237
 50
19.866690999999999
 51
50.259504000000007
  0
ARC
  5
6D
  8
0
 62
     7
 10
47.0364
 20
115.260324
 30
0.0
 40
1.722963
 50
49.822876999999998
 51
59.994052000000003
  0
ARC
  5
6E
  8
0
 62
     7
 10
46.518746999999991
 20
114.401357
 30
0.0
 40
2.7257439999999988
 50
59.600704000000007
 51
63.389786000000001
  0
ARC
  5
6F
  8
0
 62
     7
 10
43.883966999999998
 20
109.045878
 30
0.0
 40
8.6942130000000013
 50
63.674006000000013
 51
65.830206000000004
  0
ARC
  5
70
  8
0
 62
     7
 10
47.629796999999989
 20
117.830607
 30
0.0
 40
0.519555
 50
182.12996100000001
 51
267.870069
  0
ARC
  5
71
  8
0
 62
     7
 10
47.630140999999988
 20
117.792001
 30
0.0
 40
0.519898
 50
92.166447000000005
 51
177.872997
  0
LINE
  5
72
  8
0
 62
     7
 10
53.148899999999998
 20
116.018
 30
0.0
 11
53.197099999999999
 21
114.81100000000001
 31
0.0
  0
LINE
  5
73
  8
0
 62
     7
 10
48.610599999999998
 20
115.499
 30
0.0
 11
48.610599999999998
 21
114.81100000000001
 31
0.0
  0
LINE
  5
74
  8
0
 62
     7
 10
47.110599999999991
 20
118.81100000000001
 30
0.0
 11
47.2012
 21
118.312
 31
0.0
  0
LINE
  5
75
  8
0
 62
     7
 10
47.383099999999999
 20
117.31100000000001
 30
0.0
 11
47.443699999999993
 21
116.97799999999999
 31
0.0
  0
LINE
  5
76
  8
0
 62
     7
 10
47.443699999999993
 20
116.97799999999999
 30
0.0
 11
52.149799999999999
 21
116.97799999999999
 31
0.0
  0
LINE
  5
77
  8
0
 62
     7
 10
47.383099999999999
 20
117.31100000000001
 30
0.0
 11
60.171399999999998
 21
117.31100000000001
 31
0.0
  0
LINE
  5
78
  8
0
 62
     7
 10
47.2012
 20
118.312
 30
0.0
 11
60.352899999999991
 21
118.312
 31
0.0
  0
LINE
  5
79
  8
0
 62
     7
 10
47.110599999999991
 20
118.81100000000001
 30
0.0
 11
60.443899999999992
 21
118.81100000000001
 31
0.0
  0
LINE
  5
7A
  8
0
 62
     7
 10
52.443999999999988
 20
114.81100000000001
 30
0.0
 11
52.443999999999988
 21
116.934
 31
0.0
  0
ARC
  5
7B
  8
0
 62
     7
 10
49.657237000000002
 20
113.617397
 30
0.0
 40
5.7847369999999998
 50
108.48736700000001
 51
116.118785
  0
ARC
  5
7C
  8
0
 62
     7
 10
50.743141999999992
 20
110.548689
 30
0.0
 40
9.0395929999999982
 50
101.889942
 51
108.847329
  0
ARC
  5
7D
  8
0
 62
     7
 10
51.906235000000002
 20
105.4571
 30
0.0
 40
14.261856999999999
 50
97.068472
 51
102.24791999999999
  0
ARC
  5
7E
  8
0
 62
     7
 10
52.972659999999998
 20
97.59087700000002
 30
0.0
 40
22.199708000000001
 50
92.837592000000001
 51
97.301626000000013
  0
ARC
  5
7F
  8
0
 62
     7
 10
53.68235
 20
85.922398999999999
 30
0.0
 40
33.889265999999999
 50
89.839549000000005
 51
93.059355000000025
  0
LINE
  5
80
  8
0
  6
AIGENLINE001
 62
     7
 10
53.777200000000001
 20
121.56699999999999
 30
0.0
 11
53.777200000000001
 21
79.943899999999999
 31
0.0
  0
ARC
  5
81
  8
0
 62
     7
 10
153.29035400000001
 20
115.940872
 30
0.0
 40
1.0376529999999999
 50
91.952033000000014
 51
175.73103399999999
  0
ARC
  5
82
  8
0
 62
     7
 10
158.518959
 20
115.50019500000001
 30
0.0
 40
1.724782
 50
161.692353
 51
180.0533429999999
  0
ARC
  5
83
  8
0
 62
     7
 10
158.05354700000001
 20
115.618469
 30
0.0
 40
1.246237
 50
129.740477
 51
160.13328899999999
  0
ARC
  5
84
  8
0
 62
     7
 10
158.36787699999999
 20
115.261078
 30
0.0
 40
1.7220580000000001
 50
120.003902
 51
130.18029100000001
  0
ARC
  5
85
  8
0
 62
     7
 10
158.88603499999999
 20
114.401357
 30
0.0
 40
2.7257439999999988
 50
116.61019400000001
 51
120.399276
  0
ARC
  5
86
  8
0
 62
     7
 10
161.520814
 20
109.045878
 30
0.0
 40
8.6942130000000013
 50
114.169774
 51
116.325974
  0
ARC
  5
87
  8
0
 62
     7
 10
157.77498
 20
117.830612
 30
0.0
 40
0.5195610000000001
 50
272.1304970000001
 51
357.86951299999998
  0
ARC
  5
88
  8
0
 62
     7
 10
157.774641
 20
117.792001
 30
0.0
 40
0.519898
 50
2.1269830000000001
 51
87.833532999999989
  0
LINE
  5
89
  8
0
 62
     7
 10
152.256
 20
116.018
 30
0.0
 11
152.20699999999999
 21
114.81100000000001
 31
0.0
  0
LINE
  5
8A
  8
0
 62
     7
 10
156.79400000000001
 20
115.499
 30
0.0
 11
156.79400000000001
 21
114.81100000000001
 31
0.0
  0
LINE
  5
8B
  8
0
 62
     7
 10
158.2939999999999
 20
118.81100000000001
 30
0.0
 11
158.203
 21
118.312
 31
0.0
  0
LINE
  5
8C
  8
0
 62
     7
 10
158.02199999999999
 20
117.31100000000001
 30
0.0
 11
157.96100000000001
 21
116.97799999999999
 31
0.0
  0
LINE
  5
8D
  8
0
 62
     7
 10
157.96100000000001
 20
116.97799999999999
 30
0.0
 11
153.255
 21
116.97799999999999
 31
0.0
  0
LINE
  5
8E
  8
0
 62
     7
 10
152.96100000000001
 20
114.81100000000001
 30
0.0
 11
152.96100000000001
 21
116.934
 31
0.0
  0
ARC
  5
8F
  8
0
 62
     7
 10
155.74756099999999
 20
113.616626
 30
0.0
 40
5.7854219999999996
 50
63.884703000000002
 51
71.516401999999999
  0
ARC
  5
90
  8
0
 62
     7
 10
154.660301
 20
110.54366899999999
 30
0.0
 40
9.0447350000000011
 50
71.155676
 51
78.109695999999985
  0
ARC
  5
91
  8
0
 62
     7
 10
153.497837
 20
105.454041
 30
0.0
 40
14.264949
 50
77.752769999999984
 51
82.931201000000016
  0
ARC
  5
92
  8
0
 62
     7
 10
152.431569
 20
97.588013000000004
 30
0.0
 40
22.202587000000001
 50
82.698529000000008
 51
87.161804000000004
  0
ARC
  5
93
  8
0
 62
     7
 10
151.722353
 20
85.926147999999984
 30
0.0
 40
33.885517
 50
86.940462999999994
 51
90.160314999999983
  0
ARC
  5
94
  8
0
 62
     7
 10
149.964697
 20
115.941225
 30
0.0
 40
1.037301
 50
4.2508839999999992
 51
88.046272999999985
  0
ARC
  5
95
  8
0
 62
     7
 10
144.736107
 20
115.50019399999999
 30
0.0
 40
1.7247859999999999
 50
359.94669699999997
 51
18.307607000000001
  0
ARC
  5
96
  8
0
 62
     7
 10
145.20152200000001
 20
115.618469
 30
0.0
 40
1.246237
 50
19.866690999999999
 51
50.259504000000007
  0
ARC
  5
97
  8
0
 62
     7
 10
144.887193
 20
115.261078
 30
0.0
 40
1.7220580000000001
 50
49.819688999999997
 51
59.996078000000011
  0
ARC
  5
98
  8
0
 62
     7
 10
144.369034
 20
114.401357
 30
0.0
 40
2.7257439999999988
 50
59.600704000000007
 51
63.389786000000001
  0
ARC
  5
99
  8
0
 62
     7
 10
141.73425499999999
 20
109.045878
 30
0.0
 40
8.6942130000000013
 50
63.674006000000013
 51
65.830206000000004
  0
ARC
  5
9A
  8
0
 62
     7
 10
145.48007899999999
 20
117.830602
 30
0.0
 40
0.51955
 50
182.12941499999999
 51
267.87061499999999
  0
ARC
  5
9B
  8
0
 62
     7
 10
145.48042799999999
 20
117.792001
 30
0.0
 40
0.519898
 50
92.166447000000005
 51
177.872997
  0
LINE
  5
9C
  8
0
 62
     7
 10
150.999
 20
116.018
 30
0.0
 11
151.047
 21
114.81100000000001
 31
0.0
  0
LINE
  5
9D
  8
0
 62
     7
 10
146.46100000000001
 20
115.499
 30
0.0
 11
146.46100000000001
 21
114.81100000000001
 31
0.0
  0
LINE
  5
9E
  8
0
 62
     7
 10
144.96100000000001
 20
118.81100000000001
 30
0.0
 11
145.05099999999999
 21
118.312
 31
0.0
  0
LINE
  5
9F
  8
0
 62
     7
 10
145.233
 20
117.31100000000001
 30
0.0
 11
145.29400000000001
 21
116.97799999999999
 31
0.0
  0
LINE
  5
A0
  8
0
 62
     7
 10
145.29400000000001
 20
116.97799999999999
 30
0.0
 11
150.0
 21
116.97799999999999
 31
0.0
  0
LINE
  5
A1
  8
0
 62
     7
 10
145.233
 20
117.31100000000001
 30
0.0
 11
158.02199999999999
 21
117.31100000000001
 31
0.0
  0
LINE
  5
A2
  8
0
 62
     7
 10
145.05099999999999
 20
118.312
 30
0.0
 11
158.203
 21
118.312
 31
0.0
  0
LINE
  5
A3
  8
0
 62
     7
 10
144.96100000000001
 20
118.81100000000001
 30
0.0
 11
158.2939999999999
 21
118.81100000000001
 31
0.0
  0
LINE
  5
A4
  8
0
 62
     7
 10
150.29400000000001
 20
114.81100000000001
 30
0.0
 11
150.29400000000001
 21
116.934
 31
0.0
  0
ARC
  5
A5
  8
0
 62
     7
 10
147.509636
 20
113.61225
 30
0.0
 40
5.7902870000000002
 50
108.49102999999999
 51
116.115122
  0
ARC
  5
A6
  8
0
 62
     7
 10
148.592986
 20
110.550303
 30
0.0
 40
9.0379229999999993
 50
101.889298
 51
108.847973
  0
ARC
  5
A7
  8
0
 62
     7
 10
149.756484
 20
105.45728699999999
 30
0.0
 40
14.261666
 50
97.068386000000004
 51
102.247925
  0
ARC
  5
A8
  8
0
 62
     7
 10
150.82283100000001
 20
97.592290000000006
 30
0.0
 40
22.198291000000001
 50
92.837471999999977
 51
97.301777000000001
  0
ARC
  5
A9
  8
0
 62
     7
 10
151.53260900000001
 20
85.923519999999996
 30
0.0
 40
33.888145000000002
 50
89.839495999999997
 51
93.059407999999976
  0
ARC
  5
AA
  8
0
 62
     7
 10
142.46305799999999
 20
90.470364000000004
 30
0.0
 40
2.2673860000000001
 50
22.560141999999999
 51
35.345435999999999
  0
ARC
  5
AB
  8
0
 62
     7
 10
141.20572100000001
 20
89.891033999999991
 30
0.0
 40
3.651149999999999
 50
16.514579000000001
 51
23.385874999999999
  0
ARC
  5
AC
  8
0
 62
     7
 10
139.673394
 20
89.417360000000002
 30
0.0
 40
5.2549419999999989
 50
10.889075
 51
16.716895000000001
  0
ARC
  5
AD
  8
0
 62
     7
 10
137.23135099999999
 20
88.928609999999992
 30
0.0
 40
7.745366999999999
 50
3.658849
 51
11.026873999999999
  0
ARC
  5
AE
  8
0
 62
     7
 10
134.88499200000001
 20
88.711135999999996
 30
0.0
 40
10.101046
 50
0.023133
 51
4.0405720000000001
  0
ARC
  5
AF
  8
0
 62
     7
 10
142.46305799999999
 20
86.960065000000014
 30
0.0
 40
2.2673860000000001
 50
324.65456399999999
 51
337.43985800000002
  0
ARC
  5
B0
  8
0
 62
     7
 10
141.20450399999999
 20
87.539823999999996
 30
0.0
 40
3.6524359999999998
 50
336.61553700000002
 51
343.484489
  0
ARC
  5
B1
  8
0
 62
     7
 10
139.67432099999999
 20
88.012868000000012
 30
0.0
 40
5.253995999999999
 50
343.28236099999998
 51
349.11111799999998
  0
ARC
  5
B2
  8
0
 62
     7
 10
137.23058900000001
 20
88.501909999999995
 30
0.0
 40
7.7461339999999987
 50
348.97351099999997
 51
356.34084500000012
  0
ARC
  5
B3
  8
0
 62
     7
 10
134.88499200000001
 20
88.719293000000008
 30
0.0
 40
10.101046
 50
355.959428
 51
359.97686700000003
  0
ARC
  5
B4
  8
0
 62
     7
 10
51.77458
 20
104.474244
 30
0.0
 40
0.7113970000000001
 50
179.89138
 51
224.25729899999999
  0
ARC
  5
B5
  8
0
 62
     7
 10
51.76829399999999
 20
104.47503399999999
 30
0.0
 40
0.707464
 50
224.65836899999999
 51
269.31094999999999
  0
LINE
  5
B6
  8
0
 62
     7
 10
51.759799999999998
 20
103.768
 30
0.0
 11
51.77150000000001
 21
103.768
 31
0.0
  0
LINE
  5
B7
  8
0
 62
     7
 10
51.77150000000001
 20
103.768
 30
0.0
 11
55.723700000000001
 21
103.768
 31
0.0
  0
ARC
  5
B8
  8
0
 62
     7
 10
55.810143999999987
 20
104.393051
 30
0.0
 40
0.63137
 50
262.13416999999998
 51
306.6982660000001
  0
ARC
  5
B9
  8
0
 62
     7
 10
55.803077999999992
 20
104.393625
 30
0.0
 40
0.636075
 50
307.177637
 51
351.43178
  0
ARC
  5
BA
  8
0
 62
     7
 10
55.748702999999999
 20
104.387225
 30
0.0
 40
0.6890410000000001
 50
352.63171499999999
 51
7.3682850000000011
  0
LINE
  5
BB
  8
0
 62
     7
 10
56.432099999999991
 20
104.476
 30
0.0
 11
56.432099999999991
 21
107.071
 31
0.0
  0
ARC
  5
BC
  8
0
 62
     7
 10
55.801976000000003
 20
107.155941
 30
0.0
 40
0.6357120000000001
 50
352.36589800000002
 51
36.626178000000003
  0
ARC
  5
BD
  8
0
 62
     7
 10
55.809488000000002
 20
107.156282
 30
0.0
 40
0.6294940000000001
 50
37.009171000000002
 51
81.657916999999983
  0
ARC
  5
BE
  8
0
 62
     7
 10
55.812277999999999
 20
107.170541
 30
0.0
 40
0.614982
 50
81.722296999999998
 51
98.277682999999982
  0
LINE
  5
BF
  8
0
 62
     7
 10
55.723700000000001
 20
107.779
 30
0.0
 11
51.77150000000001
 21
107.779
 31
0.0
  0
ARC
  5
C0
  8
0
 62
     7
 10
51.769284000000013
 20
107.068144
 30
0.0
 40
0.710975
 50
89.821415999999999
 51
134.23155700000001
  0
ARC
  5
C1
  8
0
 62
     7
 10
51.770577000000003
 20
107.074352
 30
0.0
 40
0.707449
 50
134.65734499999999
 51
179.28318200000001
  0
LINE
  5
C2
  8
0
 62
     7
 10
51.063200000000002
 20
107.083
 30
0.0
 11
51.063200000000002
 21
107.071
 31
0.0
  0
LINE
  5
C3
  8
0
 62
     7
 10
51.063200000000002
 20
107.071
 30
0.0
 11
51.063200000000002
 21
104.476
 31
0.0
  0
ARC
  5
C4
  8
0
 62
     7
 10
149.622782
 20
104.473399
 30
0.0
 40
0.709314
 50
179.822756
 51
224.32592299999999
  0
ARC
  5
C5
  8
0
 62
     7
 10
149.617964
 20
104.47358
 30
0.0
 40
0.7060030000000001
 50
224.60966099999999
 51
269.35965900000002
  0
LINE
  5
C6
  8
0
 62
     7
 10
149.61000000000001
 20
103.768
 30
0.0
 11
149.62200000000001
 21
103.768
 31
0.0
  0
LINE
  5
C7
  8
0
 62
     7
 10
149.62200000000001
 20
103.768
 30
0.0
 11
153.57400000000001
 21
103.768
 31
0.0
  0
ARC
  5
C8
  8
0
 62
     7
 10
153.66043099999999
 20
104.393051
 30
0.0
 40
0.63137
 50
262.13416999999998
 51
306.6982660000001
  0
ARC
  5
C9
  8
0
 62
     7
 10
153.65454199999999
 20
104.392927
 30
0.0
 40
0.6348080000000002
 50
307.13114900000011
 51
351.47826800000001
  0
ARC
  5
CA
  8
0
 62
     7
 10
153.588337
 20
104.387225
 30
0.0
 40
0.699608
 50
352.743607
 51
7.2563929999999992
  0
LINE
  5
CB
  8
0
 62
     7
 10
154.28200000000001
 20
104.476
 30
0.0
 11
154.28200000000001
 21
107.071
 31
0.0
  0
ARC
  5
CC
  8
0
 62
     7
 10
153.65007499999999
 20
107.15537500000001
 30
0.0
 40
0.6378080000000002
 50
352.44241600000009
 51
36.549658999999998
  0
ARC
  5
CD
  8
0
 62
     7
 10
153.65977599999999
 20
107.156282
 30
0.0
 40
0.6294940000000001
 50
37.009171000000002
 51
81.657916999999983
  0
ARC
  5
CE
  8
0
 62
     7
 10
153.662565
 20
107.170541
 30
0.0
 40
0.614982
 50
81.722296999999998
 51
98.277682999999982
  0
LINE
  5
CF
  8
0
 62
     7
 10
153.57400000000001
 20
107.779
 30
0.0
 11
149.62200000000001
 21
107.779
 31
0.0
  0
ARC
  5
D0
  8
0
 62
     7
 10
149.61957100000001
 20
107.068144
 30
0.0
 40
0.710975
 50
89.821415999999999
 51
134.23155700000001
  0
ARC
  5
D1
  8
0
 62
     7
 10
149.61942400000001
 20
107.07496399999999
 30
0.0
 40
0.7060010000000001
 50
134.609093
 51
179.331434
  0
LINE
  5
D2
  8
0
 62
     7
 10
148.91300000000001
 20
107.083
 30
0.0
 11
148.91300000000001
 21
107.071
 31
0.0
  0
LINE
  5
D3
  8
0
 62
     7
 10
148.91300000000001
 20
107.071
 30
0.0
 11
148.91300000000001
 21
104.476
 31
0.0
  0
ARC
  5
D4
  8
0
 62
     7
 10
53.744832000000002
 20
88.747271999999995
 30
0.0
 40
0.8663819999999999
 50
272.14416899999998
 51
357.87952200000001
  0
ARC
  5
D5
  8
0
 62
     7
 10
53.809336999999992
 20
88.746946999999992
 30
0.0
 40
0.866045
 50
182.09983
 51
267.87651899999997
  0
ARC
  5
D6
  8
0
 62
     7
 10
53.80896400000001
 20
88.683140000000009
 30
0.0
 40
0.865685
 50
92.099675000000019
 51
177.87660500000001
  0
ARC
  5
D7
  8
0
 62
     7
 10
53.745204999999999
 20
88.682815000000005
 30
0.0
 40
0.8660219999999999
 50
2.1440339999999991
 51
87.879645999999994
  0
ARC
  5
D8
  8
0
 62
     7
 10
63.264014000000003
 20
99.188423000000014
 30
0.0
 40
0.34688
 50
272.17149000000001
 51
357.82852000000003
  0
ARC
  5
D9
  8
0
 62
     7
 10
63.274453000000001
 20
99.173922000000005
 30
0.0
 40
0.336195
 50
0.231308
 51
43.841141
  0
LINE
  5
DA
  8
0
 62
     7
 10
63.5169
 20
99.406800000000004
 30
0.0
 11
60.849400000000003
 21
102.175
 31
0.0
  0
ARC
  5
DB
  8
0
 62
     7
 10
44.290480000000002
 20
99.188423000000014
 30
0.0
 40
0.34688
 50
182.17150000000001
 51
267.82853
  0
ARC
  5
DC
  8
0
 62
     7
 10
44.28004099999999
 20
99.173923000000016
 30
0.0
 40
0.336195
 50
136.15881999999999
 51
179.76869099999999
  0
LINE
  5
DD
  8
0
 62
     7
 10
63.157299999999999
 20
98.841800000000006
 30
0.0
 11
63.157299999999999
 21
98.311199999999999
 31
0.0
  0
LINE
  5
DE
  8
0
 62
     7
 10
44.397199999999998
 20
98.841800000000006
 30
0.0
 11
44.397199999999998
 21
98.311199999999999
 31
0.0
  0
LINE
  5
DF
  8
0
 62
     7
 10
44.27729999999999
 20
98.841800000000006
 30
0.0
 11
63.277200000000001
 21
98.841800000000006
 31
0.0
  0
LINE
  5
E0
  8
0
 62
     7
 10
44.037599999999998
 20
99.406800000000004
 30
0.0
 11
46.705100000000002
 21
102.175
 31
0.0
  0
LINE
  5
E1
  8
0
 62
     7
 10
46.705100000000002
 20
102.175
 30
0.0
 11
60.849400000000003
 21
102.175
 31
0.0
  0
LINE
  5
E2
  8
0
 62
     7
 10
60.855600000000003
 20
82.305199999999999
 30
0.0
 11
60.361600000000003
 21
81.841499999999996
 31
0.0
  0
LINE
  5
E3
  8
0
 62
     7
 10
46.6982
 20
82.305199999999999
 30
0.0
 11
47.192899999999987
 21
81.841499999999996
 31
0.0
  0
LINE
  5
E4
  8
0
 62
     7
 10
60.361600000000003
 20
81.841499999999996
 30
0.0
 11
60.361600000000003
 21
85.174999999999997
 31
0.0
  0
LINE
  5
E5
  8
0
 62
     7
 10
60.855600000000003
 20
82.305199999999999
 30
0.0
 11
60.855600000000003
 21
85.174999999999997
 31
0.0
  0
LINE
  5
E6
  8
0
 62
     7
 10
47.192899999999987
 20
81.841499999999996
 30
0.0
 11
47.192899999999987
 21
85.174999999999997
 31
0.0
  0
LINE
  5
E7
  8
0
 62
     7
 10
46.6982
 20
82.305199999999999
 30
0.0
 11
46.6982
 21
85.174999999999997
 31
0.0
  0
LINE
  5
E8
  8
0
 62
     7
 10
60.855600000000003
 20
82.305199999999999
 30
0.0
 11
46.6982
 21
82.305199999999999
 31
0.0
  0
LINE
  5
E9
  8
0
 62
     7
 10
60.361600000000003
 20
81.841499999999996
 30
0.0
 11
47.192899999999987
 21
81.841499999999996
 31
0.0
  0
LINE
  5
EA
  8
0
 62
     7
 10
52.241799999999998
 20
85.174999999999997
 30
0.0
 11
46.461899999999993
 21
85.174999999999997
 31
0.0
  0
LINE
  5
EB
  8
0
 62
     7
 10
46.461899999999993
 20
85.174999999999997
 30
0.0
 11
46.461899999999993
 21
96.246200000000002
 31
0.0
  0
ARC
  5
EC
  8
0
 62
     7
 10
44.423229999999997
 20
96.28715600000001
 30
0.0
 40
2.039066
 50
358.85024700000008
 51
43.327609000000002
  0
ARC
  5
ED
  8
0
 62
     7
 10
44.436301999999998
 20
96.272153000000003
 30
0.0
 40
2.039947999999999
 50
43.886100999999996
 51
88.339547999999979
  0
ARC
  5
EE
  8
0
 62
     7
 10
44.446319000000003
 20
96.075147999999999
 30
0.0
 40
2.2366349999999988
 50
88.742277999999985
 51
91.257701999999995
  0
LINE
  5
EF
  8
0
 62
     7
 10
44.397199999999998
 20
98.311199999999999
 30
0.0
 11
63.157299999999999
 21
98.311199999999999
 31
0.0
  0
ARC
  5
F0
  8
0
 62
     7
 10
63.220830000000007
 20
96.165356000000003
 30
0.0
 40
2.14683
 50
91.696609999999993
 51
136.025429
  0
ARC
  5
F1
  8
0
 62
     7
 10
63.231085
 20
96.186486000000002
 30
0.0
 40
2.139654999999999
 50
136.623312
 51
178.39964800000001
  0
LINE
  5
F2
  8
0
 62
     7
 10
61.092300000000002
 20
96.246200000000002
 30
0.0
 11
61.092300000000002
 21
85.174999999999997
 31
0.0
  0
LINE
  5
F3
  8
0
 62
     7
 10
61.092300000000002
 20
85.174999999999997
 30
0.0
 11
55.313099999999999
 21
85.174999999999997
 31
0.0
  0
ARC
  5
F4
  8
0
 62
     7
 10
142.140773
 20
99.188429000000014
 30
0.0
 40
0.346886
 50
182.172371
 51
267.82765899999998
  0
ARC
  5
F5
  8
0
 62
     7
 10
142.13242199999999
 20
99.173074999999983
 30
0.0
 40
0.338293
 50
136.300916
 51
179.62659500000001
  0
LINE
  5
F6
  8
0
 62
     7
 10
141.88800000000001
 20
99.406800000000004
 30
0.0
 11
144.55500000000001
 21
102.175
 31
0.0
  0
ARC
  5
F7
  8
0
 62
     7
 10
161.114632
 20
99.188079000000002
 30
0.0
 40
0.346537
 50
272.17597699999999
 51
357.88325400000002
  0
ARC
  5
F8
  8
0
 62
     7
 10
161.12176099999999
 20
99.173081999999994
 30
0.0
 40
0.339179
 50
0.371273
 51
43.554580999999992
  0
LINE
  5
F9
  8
0
 62
     7
 10
142.24799999999999
 20
98.841800000000006
 30
0.0
 11
142.24799999999999
 21
98.311199999999999
 31
0.0
  0
LINE
  5
FA
  8
0
 62
     7
 10
161.00800000000001
 20
98.841800000000006
 30
0.0
 11
161.00800000000001
 21
98.311199999999999
 31
0.0
  0
LINE
  5
FB
  8
0
 62
     7
 10
158.29499999999999
 20
108.60599999999999
 30
0.0
 11
158.29499999999999
 21
102.175
 31
0.0
  0
LINE
  5
FC
  8
0
 62
     7
 10
158.29499999999999
 20
110.145
 30
0.0
 11
158.29499999999999
 21
109.43899999999999
 31
0.0
  0
LINE
  5
FD
  8
0
 62
     7
 10
144.96100000000001
 20
110.145
 30
0.0
 11
144.96100000000001
 21
109.43899999999999
 31
0.0
  0
LINE
  5
FE
  8
0
 62
     7
 10
144.96100000000001
 20
108.60599999999999
 30
0.0
 11
144.96100000000001
 21
102.175
 31
0.0
  0
LINE
  5
FF
  8
0
 62
     7
 10
141.62799999999999
 20
108.60599999999999
 30
0.0
 11
161.62799999999999
 21
108.60599999999999
 31
0.0
  0
LINE
  5
100
  8
0
 62
     7
 10
161.62799999999999
 20
108.60599999999999
 30
0.0
 11
161.62799999999999
 21
109.43899999999999
 31
0.0
  0
LINE
  5
101
  8
0
 62
     7
 10
161.62799999999999
 20
109.43899999999999
 30
0.0
 11
141.62799999999999
 21
109.43899999999999
 31
0.0
  0
LINE
  5
102
  8
0
 62
     7
 10
141.62799999999999
 20
109.43899999999999
 30
0.0
 11
141.62799999999999
 21
108.60599999999999
 31
0.0
  0
ARC
  5
103
  8
0
 62
     7
 10
53.777246999999988
 20
91.159839000000005
 30
0.0
 40
1.716677999999999
 50
60.66780099999999
 51
119.332179
  0
ARC
  5
104
  8
0
 62
     7
 10
55.894114999999999
 20
89.937772999999993
 30
0.0
 40
1.7166269999999999
 50
0.659246
 51
59.319667000000003
  0
ARC
  5
105
  8
0
 62
     7
 10
55.897417000000011
 20
87.491449000000003
 30
0.0
 40
1.7133130000000001
 50
300.61774500000013
 51
359.37986599999999
  0
ARC
  5
106
  8
0
 62
     7
 10
53.777246999999988
 20
86.270589999999999
 30
0.0
 40
1.716677999999999
 50
240.667821
 51
299.332199
  0
ARC
  5
107
  8
0
 62
     7
 10
51.659176000000002
 20
87.492660000000001
 30
0.0
 40
1.7154240000000001
 50
180.65985900000001
 51
239.342569
  0
LINE
  5
108
  8
0
 62
     7
 10
50.784500000000001
 20
91.414100000000005
 30
0.0
 11
52.936300000000003
 21
92.656400000000005
 31
0.0
  0
LINE
  5
109
  8
0
 62
     7
 10
49.943899999999999
 20
87.472899999999996
 30
0.0
 11
49.943899999999999
 21
89.957499999999996
 31
0.0
  0
ARC
  5
10A
  8
0
 62
     7
 10
51.658991
 20
89.938574000000017
 30
0.0
 40
1.71523
 50
120.654094
 51
179.366953
  0
LINE
  5
10B
  8
0
 62
     7
 10
54.600999999999999
 20
92.6661
 30
0.0
 11
56.770000000000003
 21
91.414100000000005
 31
0.0
  0
LINE
  5
10C
  8
0
 62
     7
 10
57.610599999999998
 20
89.957499999999996
 30
0.0
 11
57.610599999999998
 21
87.472899999999996
 31
0.0
  0
LINE
  5
10D
  8
0
 62
     7
 10
56.785899999999991
 20
86.025999999999996
 30
0.0
 11
54.617899999999999
 21
84.774000000000015
 31
0.0
  0
LINE
  5
10E
  8
0
 62
     7
 10
52.953499999999998
 20
84.764399999999995
 30
0.0
 11
50.784500000000001
 21
86.01700000000001
 31
0.0
  0
ARC
  5
10F
  8
0
 62
     7
 10
53.777073999999999
 20
88.715043000000009
 30
0.0
 40
3.500067
 50
270.00283999999999
 51
0.00281
  0
ARC
  5
110
  8
0
 62
     7
 10
53.777419000000002
 20
88.715042000000025
 30
0.0
 40
3.5000659999999999
 50
179.99715
 51
269.99720000000002
  0
ARC
  5
111
  8
0
 62
     7
 10
53.777075000000004
 20
88.715042000000025
 30
0.0
 40
3.4997229999999999
 50
89.997179999999986
 51
179.99715
  0
ARC
  5
112
  8
0
 62
     7
 10
53.777419000000002
 20
88.715042000000025
 30
0.0
 40
3.4997229999999999
 50
0.00283
 51
90.002800000000008
  0
ARC
  5
113
  8
0
 62
     7
 10
53.777073999999999
 20
88.715043000000009
 30
0.0
 40
2.5002939999999989
 50
270.00396699999999
 51
0.003937
  0
ARC
  5
114
  8
0
 62
     7
 10
53.777419000000002
 20
88.715042000000025
 30
0.0
 40
2.5002930000000001
 50
179.99602300000001
 51
269.99607200000003
  0
ARC
  5
115
  8
0
 62
     7
 10
53.777075000000004
 20
88.715042000000025
 30
0.0
 40
2.4999500000000001
 50
89.996052000000006
 51
179.99602200000001
  0
ARC
  5
116
  8
0
 62
     7
 10
53.777419000000002
 20
88.715042000000025
 30
0.0
 40
2.4999500000000001
 50
0.003958
 51
90.003928000000016
  0
LINE
  5
117
  8
0
  6
AIGENLINE002
 62
     7
 10
48.395600000000002
 20
88.715199999999996
 30
0.0
 11
59.395499999999998
 21
88.715199999999996
 31
0.0
  0
LINE
  5
118
  8
0
 62
     7
 10
161.12799999999999
 20
98.841800000000006
 30
0.0
 11
142.12799999999999
 21
98.841800000000006
 31
0.0
  0
LINE
  5
119
  8
0
 62
     7
 10
161.36799999999999
 20
99.406800000000004
 30
0.0
 11
158.69999999999999
 21
102.175
 31
0.0
  0
LINE
  5
11A
  8
0
 62
     7
 10
158.69999999999999
 20
102.175
 30
0.0
 11
144.55500000000001
 21
102.175
 31
0.0
  0
ARC
  5
11B
  8
0
 62
     7
 10
53.776989999999998
 20
219.61683600000001
 30
0.0
 40
10.166629
 50
89.998543999999995
 51
179.998514
  0
ARC
  5
11C
  8
0
 62
     7
 10
53.777504
 20
219.61683600000001
 30
0.0
 40
10.166629
 50
0.001466
 51
90.001436000000012
  0
ARC
  5
11D
  8
0
 62
     7
 10
53.777417000000007
 20
219.61726999999999
 30
0.0
 40
10.166715
 50
269.99904900000001
 51
359.99901899999998
  0
ARC
  5
11E
  8
0
 62
     7
 10
53.777073000000001
 20
219.617267
 30
0.0
 40
10.166712
 50
180.000981
 51
270.000991
  0
ARC
  5
11F
  8
0
 62
     7
 10
53.777335000000001
 20
219.61717999999999
 30
0.0
 40
10.499772
 50
90.000470000000007
 51
180.00048000000001
  0
ARC
  5
120
  8
0
 62
     7
 10
53.777504
 20
219.61683600000001
 30
0.0
 40
10.500116
 50
0.00142
 51
90.001390000000001
  0
ARC
  5
121
  8
0
 62
     7
 10
53.777417000000007
 20
219.61726999999999
 30
0.0
 40
10.500202
 50
269.99907999999999
 51
359.99905000000001
  0
ARC
  5
122
  8
0
 62
     7
 10
53.777417000000007
 20
219.61692199999999
 30
0.0
 40
10.499853999999999
 50
179.99903
 51
269.99907999999999
  0
ARC
  5
123
  8
0
 62
     7
 10
53.777076000000001
 20
219.61692300000001
 30
0.0
 40
6.6664750000000002
 50
89.998519999999999
 51
179.99849
  0
ARC
  5
124
  8
0
 62
     7
 10
53.777590000000011
 20
219.61675
 30
0.0
 40
6.6666479999999986
 50
0.002971
 51
90.002941000000007
  0
ARC
  5
125
  8
0
 62
     7
 10
53.777245999999998
 20
219.617097
 30
0.0
 40
6.6669919999999987
 50
270.00002000000001
 51
359.99999000000003
  0
ARC
  5
126
  8
0
 62
     7
 10
53.777417999999997
 20
219.61692300000001
 30
0.0
 40
6.6668179999999992
 50
179.99849
 51
269.99853899999999
  0
LINE
  5
127
  8
0
 62
     7
 10
57.846600000000002
 20
202.673
 30
0.0
 11
57.846600000000002
 21
203.44800000000001
 31
0.0
  0
LINE
  5
128
  8
0
 62
     7
 10
49.870800000000003
 20
205.256
 30
0.0
 11
49.870800000000003
 21
206.43600000000001
 31
0.0
  0
LINE
  5
129
  8
0
 62
     7
 10
49.870800000000003
 20
202.673
 30
0.0
 11
49.870800000000003
 21
203.358
 31
0.0
  0
ARC
  5
12A
  8
0
 62
     7
 10
50.251924000000002
 20
204.339991
 30
0.0
 40
1.2043469999999989
 50
337.94966599999998
 51
0.00368
  0
ARC
  5
12B
  8
0
 62
     7
 10
50.526066999999998
 20
204.260751
 30
0.0
 40
0.9209799999999999
 50
295.26455399999998
 51
336.11561799999998
  0
ARC
  5
12C
  8
0
 62
     7
 10
50.298037000000001
 20
204.68007700000001
 30
0.0
 40
1.3977850000000001
 50
279.50807900000001
 51
296.38165400000003
  0
ARC
  5
12D
  8
0
 62
     7
 10
50.113067000000001
 20
205.56763699999999
 30
0.0
 40
2.3039849999999991
 50
269.32202000000012
 51
280.39879400000001
  0
ARC
  5
12E
  8
0
 62
     7
 10
50.085957000000001
 20
203.43669199999999
 30
0.0
 40
0.172879
 50
256.77284800000001
 51
269.94921299999999
  0
ARC
  5
12F
  8
0
 62
     7
 10
50.115470000000002
 20
203.57304300000001
 30
0.0
 40
0.312375
 50
246.17691500000001
 51
257.22564700000009
  0
ARC
  5
130
  8
0
 62
     7
 10
50.205690999999987
 20
203.780948
 30
0.0
 40
0.539009
 50
237.90034800000001
 51
246.330229
  0
ARC
  5
131
  8
0
 62
     7
 10
50.424594999999997
 20
204.124921
 30
0.0
 40
0.9467249999999999
 50
223.374787
 51
237.73971599999999
  0
ARC
  5
132
  8
0
 62
     7
 10
50.764223000000001
 20
204.474065
 30
0.0
 40
1.4335209999999989
 50
191.24278699999999
 51
224.195753
  0
ARC
  5
133
  8
0
 62
     7
 10
50.403272999999999
 20
204.37332799999999
 30
0.0
 40
1.060238
 50
180.1218429999999
 51
189.7062169999999
  0
ARC
  5
134
  8
0
 62
     7
 10
50.211156000000003
 20
204.36987300000001
 30
0.0
 40
0.86812
 50
152.86126200000001
 51
179.92071300000001
  0
ARC
  5
135
  8
0
 62
     7
 10
50.545259000000001
 20
204.21784
 30
0.0
 40
1.234907999999999
 50
129.57348999999999
 51
153.654899
  0
ARC
  5
136
  8
0
 62
     7
 10
50.613593000000002
 20
204.177378
 30
0.0
 40
1.309906
 50
119.083529
 51
130.749979
  0
ARC
  5
137
  8
0
 62
     7
 10
50.324226000000003
 20
204.68823399999999
 30
0.0
 40
0.7228200000000001
 50
110.521587
 51
118.721901
  0
ARC
  5
138
  8
0
 62
     7
 10
50.176533999999997
 20
205.095033
 30
0.0
 40
0.290093
 50
93.360418000000024
 51
111.368543
  0
ARC
  5
139
  8
0
 62
     7
 10
50.161335999999991
 20
202.76417699999999
 30
0.0
 40
2.6204519999999998
 50
79.236787000000007
 51
90.039484999999985
  0
ARC
  5
13A
  8
0
 62
     7
 10
50.373972000000002
 20
204.011235
 30
0.0
 40
1.3558339999999991
 50
62.048566000000001
 51
78.222822999999991
  0
ARC
  5
13B
  8
0
 62
     7
 10
50.588892000000001
 20
204.463966
 30
0.0
 40
0.8554709999999998
 50
10.311752
 51
60.551034999999999
  0
ARC
  5
13C
  8
0
 62
     7
 10
50.104368000000001
 20
204.35423900000001
 30
0.0
 40
1.3519779999999999
 50
359.399452
 51
11.211207999999999
  0
ARC
  5
13D
  8
0
 62
     7
 10
55.630318999999993
 20
204.432107
 30
0.0
 40
2.466759999999999
 50
344.46885099999997
 51
359.99072699999999
  0
ARC
  5
13E
  8
0
 62
     7
 10
56.823768000000008
 20
204.126722
 30
0.0
 40
1.235379
 50
331.650915
 51
343.29415
  0
ARC
  5
13F
  8
0
 62
     7
 10
57.392831999999991
 20
203.825535
 30
0.0
 40
0.591568
 50
314.06103999999999
 51
331.15219200000001
  0
ARC
  5
140
  8
0
 62
     7
 10
57.627331999999988
 20
203.59020799999999
 30
0.0
 40
0.259431
 50
273.77034400000002
 51
312.98781000000002
  0
ARC
  5
141
  8
0
 62
     7
 10
57.644294999999993
 20
206.45223799999999
 30
0.0
 40
3.1208999999999989
 50
260.1260069999999
 51
270.00176800000003
  0
ARC
  5
142
  8
0
 62
     7
 10
57.460749999999997
 20
205.27741
 30
0.0
 40
1.9321099999999991
 50
245.765896
 51
259.51406400000002
  0
ARC
  5
143
  8
0
 62
     7
 10
57.165843999999993
 20
204.58285000000001
 30
0.0
 40
1.1778200000000001
 50
222.12887699999999
 51
244.978995
  0
ARC
  5
144
  8
0
 62
     7
 10
56.932393000000012
 20
204.335217
 30
0.0
 40
0.839007
 50
179.668679
 51
220.280968
  0
ARC
  5
145
  8
0
 62
     7
 10
56.972102999999997
 20
204.33661900000001
 30
0.0
 40
0.87871
 50
138.35174699999999
 51
179.775058
  0
ARC
  5
146
  8
0
 62
     7
 10
57.231333999999997
 20
204.13030699999999
 30
0.0
 40
1.209659
 50
115.302831
 51
139.209541
  0
ARC
  5
147
  8
0
 62
     7
 10
57.531621999999999
 20
203.57799199999999
 30
0.0
 40
1.8376709999999989
 50
97.454682000000005
 51
116.40719
  0
ARC
  5
148
  8
0
 62
     7
 10
57.680114000000003
 20
202.79890399999999
 30
0.0
 40
2.6298449999999991
 50
89.757481999999996
 51
98.460314000000011
  0
ARC
  5
149
  8
0
 62
     7
 10
57.691122
 20
205.282264
 30
0.0
 40
0.146461
 50
60.703214000000003
 51
89.951860000000025
  0
ARC
  5
14A
  8
0
 62
     7
 10
57.644692999999997
 20
205.18510000000001
 30
0.0
 40
0.254015
 50
50.10940999999999
 51
62.294688000000008
  0
ARC
  5
14B
  8
0
 62
     7
 10
57.554103000000012
 20
205.077384
 30
0.0
 40
0.39476
 50
39.138655
 51
50.047654000000009
  0
ARC
  5
14C
  8
0
 62
     7
 10
57.312015000000002
 20
204.88267300000001
 30
0.0
 40
0.705432
 50
23.043485
 51
38.993728999999988
  0
ARC
  5
14D
  8
0
 62
     7
 10
56.752122999999997
 20
204.61676199999999
 30
0.0
 40
1.3249809999999991
 50
12.429364
 51
24.147774999999999
  0
ARC
  5
14E
  8
0
 62
     7
 10
56.080921999999987
 20
204.45079899999999
 30
0.0
 40
2.016248
 50
359.45747899999998
 51
12.929686999999999
  0
ARC
  5
14F
  8
0
 62
     7
 10
54.983745999999996
 20
204.341498
 30
0.0
 40
0.663857
 50
328.89329199999997
 51
359.87655599999999
  0
ARC
  5
150
  8
0
 62
     7
 10
54.7224
 20
204.48217700000001
 30
0.0
 40
0.9604129999999999
 50
308.85879999999997
 51
329.76254799999998
  0
ARC
  5
151
  8
0
 62
     7
 10
54.331552000000002
 20
204.91977199999999
 30
0.0
 40
1.5466719999999989
 50
294.360883
 51
309.96291000000002
  0
ARC
  5
152
  8
0
 62
     7
 10
53.969943999999991
 20
205.64748700000001
 30
0.0
 40
2.3589340000000001
 50
277.669445
 51
295.071168
  0
ARC
  5
153
  8
0
 62
     7
 10
53.835174999999992
 20
206.31494799999999
 30
0.0
 40
3.0387360000000001
 50
269.91461900000002
 51
278.50825300000002
  0
ARC
  5
154
  8
0
 62
     7
 10
53.830742999999998
 20
206.24984499999999
 30
0.0
 40
2.9736289999999999
 50
251.89589899999999
 51
269.99815000000001
  0
ARC
  5
155
  8
0
 62
     7
 10
53.545985999999999
 20
205.28742299999999
 30
0.0
 40
1.970572
 50
233.509412
 51
251.06990300000001
  0
ARC
  5
156
  8
0
 62
     7
 10
53.068016
 20
204.596721
 30
0.0
 40
1.1313439999999999
 50
213.399969
 51
232.16778400000001
  0
ARC
  5
157
  8
0
 62
     7
 10
52.730518999999987
 20
204.35622499999999
 30
0.0
 40
0.7173540000000001
 50
181.290626
 51
212.20247000000001
  0
ARC
  5
158
  8
0
 62
     7
 10
52.676074999999997
 20
204.338606
 30
0.0
 40
0.66273
 50
148.87696099999999
 51
179.87359499999999
  0
ARC
  5
159
  8
0
 62
     7
 10
52.940685999999999
 20
204.19609199999999
 30
0.0
 40
0.963028
 50
128.90950100000001
 51
149.75577699999999
  0
ARC
  5
15A
  8
0
 62
     7
 10
53.331593999999988
 20
203.758702
 30
0.0
 40
1.549185
 50
114.41698700000001
 51
129.99912599999999
  0
ARC
  5
15B
  8
0
 62
     7
 10
53.696773
 20
203.02234300000001
 30
0.0
 40
2.3708070000000001
 50
97.239640000000023
 51
115.09670800000001
  0
ARC
  5
15C
  8
0
 62
     7
 10
53.825956999999988
 20
202.37360000000001
 30
0.0
 40
3.0310130000000002
 50
89.911349000000016
 51
98.116783000000027
  0
ARC
  5
15D
  8
0
 62
     7
 10
53.830569999999987
 20
202.44404900000001
 30
0.0
 40
2.9605610000000002
 50
71.824877999999998
 51
89.998509999999996
  0
ARC
  5
15E
  8
0
 62
     7
 10
54.112691000000012
 20
203.391919
 30
0.0
 40
1.972175999999999
 50
53.468381999999991
 51
71.022542000000001
  0
ARC
  5
15F
  8
0
 62
     7
 10
54.590260000000001
 20
204.08063899999999
 30
0.0
 40
1.134790999999999
 50
33.425733000000001
 51
52.143808
  0
ARC
  5
160
  8
0
 62
     7
 10
54.930509999999998
 20
204.32333800000001
 30
0.0
 40
0.717286
 50
1.3365119999999999
 51
32.217286000000001
  0
LINE
  5
161
  8
0
 62
     7
 10
50.366599999999998
 20
202.26300000000001
 30
0.0
 11
57.3536
 21
202.26300000000001
 31
0.0
  0
ARC
  5
162
  8
0
 62
     7
 10
50.369311000000003
 20
202.83624399999999
 30
0.0
 40
0.5735890000000001
 50
229.328836
 51
269.72732999999999
  0
ARC
  5
163
  8
0
 62
     7
 10
50.263717
 20
202.688695
 30
0.0
 40
0.393189
 50
182.24098000000001
 51
226.98620099999999
  0
ARC
  5
164
  8
0
 62
     7
 10
57.474826999999998
 20
202.67631700000001
 30
0.0
 40
0.371805
 50
307.034786
 51
359.53821199999999
  0
ARC
  5
165
  8
0
 62
     7
 10
57.365952
 20
202.79438300000001
 30
0.0
 40
0.531863
 50
268.671786
 51
308.73719799999998
  0
LINE
  5
166
  8
0
 62
     7
 10
50.045200000000001
 20
206.58099999999999
 30
0.0
 11
57.520000000000003
 21
206.58099999999999
 31
0.0
  0
LINE
  5
167
  8
0
 62
     7
 10
50.045200000000001
 20
206.58099999999999
 30
0.0
 11
49.870800000000003
 21
206.43600000000001
 31
0.0
  0
LINE
  5
168
  8
0
 62
     7
 10
57.691200000000002
 20
206.43600000000001
 30
0.0
 11
57.520000000000003
 21
206.58099999999999
 31
0.0
  0
LINE
  5
169
  8
0
 62
     7
 10
57.691200000000002
 20
205.429
 30
0.0
 11
57.691200000000002
 21
206.43600000000001
 31
0.0
  0
LINE
  5
16A
  8
0
  6
AIGENLINE002
 62
     7
 10
53.777200000000001
 20
232.89099999999999
 30
0.0
 11
53.777200000000001
 21
142.452
 31
0.0
  0
LINE
  5
16B
  8
0
  6
AIGENLINE001
 62
     7
 10
67.899100000000004
 20
219.61699999999999
 30
0.0
 11
39.659799999999997
 21
219.61699999999999
 31
0.0
  0
LINE
  5
16C
  8
0
 62
     7
 10
54.610599999999991
 20
202.26300000000001
 30
0.0
 11
54.610599999999991
 21
146.28299999999999
 31
0.0
  0
LINE
  5
16D
  8
0
 62
     7
 10
54.610599999999991
 20
146.28299999999999
 30
0.0
 11
52.943899999999992
 21
146.28299999999999
 31
0.0
  0
LINE
  5
16E
  8
0
 62
     7
 10
52.943899999999992
 20
146.28299999999999
 30
0.0
 11
52.943899999999992
 21
202.26300000000001
 31
0.0
  0
LINE
  5
16F
  8
0
 62
     7
 10
54.613700000000001
 20
146.81399999999999
 30
0.0
 11
52.938000000000002
 21
146.81399999999999
 31
0.0
  0
LINE
  5
170
  8
0
 62
     7
 10
56.844799999999999
 20
207.17099999999999
 30
0.0
 11
56.844799999999999
 21
209.57300000000001
 31
0.0
  0
LINE
  5
171
  8
0
 62
     7
 10
50.710099999999997
 20
207.17099999999999
 30
0.0
 11
50.710099999999997
 21
209.57300000000001
 31
0.0
  0
LINE
  5
172
  8
0
 62
     7
 10
50.414799999999993
 20
206.58099999999999
 30
0.0
 11
50.414799999999993
 21
207.17099999999999
 31
0.0
  0
LINE
  5
173
  8
0
 62
     7
 10
50.414799999999993
 20
207.17099999999999
 30
0.0
 11
57.139699999999991
 21
207.17099999999999
 31
0.0
  0
LINE
  5
174
  8
0
 62
     7
 10
57.139699999999991
 20
207.17099999999999
 30
0.0
 11
57.139699999999991
 21
206.58099999999999
 31
0.0
  0
LINE
  5
175
  8
0
 62
     7
 10
134.684
 20
92.783899999999988
 30
0.0
 11
135.458
 21
92.783899999999988
 31
0.0
  0
LINE
  5
176
  8
0
 62
     7
 10
137.26599999999999
 20
84.808499999999995
 30
0.0
 11
138.447
 21
84.808499999999995
 31
0.0
  0
LINE
  5
177
  8
0
 62
     7
 10
134.684
 20
84.808499999999995
 30
0.0
 11
135.369
 21
84.808499999999995
 31
0.0
  0
ARC
  5
178
  8
0
 62
     7
 10
136.35044500000001
 20
85.189417000000006
 30
0.0
 40
1.2037889999999991
 50
89.997074999999995
 51
112.039804
  0
ARC
  5
179
  8
0
 62
     7
 10
136.271154
 20
85.463716999999988
 30
0.0
 40
0.92025
 50
113.872742
 51
154.7291689999999
  0
ARC
  5
17A
  8
0
 62
     7
 10
136.69107600000001
 20
85.235491000000025
 30
0.0
 40
1.3976779999999991
 50
153.61729299999999
 51
170.486163
  0
ARC
  5
17B
  8
0
 62
     7
 10
137.57392200000001
 20
85.051056000000003
 30
0.0
 40
2.2991470000000001
 50
169.58957899999999
 51
180.688569
  0
ARC
  5
17C
  8
0
 62
     7
 10
135.45175
 20
85.023989000000014
 30
0.0
 40
0.17681
 50
180.181997
 51
193.07984099999999
  0
ARC
  5
17D
  8
0
 62
     7
 10
135.584757
 20
85.052970000000002
 30
0.0
 40
0.3129300000000001
 50
192.73723000000001
 51
203.77291399999999
  0
ARC
  5
17E
  8
0
 62
     7
 10
135.79158200000001
 20
85.142538999999985
 30
0.0
 40
0.538315
 50
203.62339299999999
 51
212.06556399999999
  0
ARC
  5
17F
  8
0
 62
     7
 10
136.13682
 20
85.362144999999984
 30
0.0
 40
0.9474739999999998
 50
212.23608999999999
 51
226.58410900000001
  0
ARC
  5
180
  8
0
 62
     7
 10
136.48368500000001
 20
85.699478999999997
 30
0.0
 40
1.4310459999999989
 50
225.778898
 51
258.77184799999998
  0
ARC
  5
181
  8
0
 62
     7
 10
136.38371100000001
 20
85.340731999999988
 30
0.0
 40
1.0600750000000001
 50
260.29655100000002
 51
269.88119499999999
  0
ARC
  5
182
  8
0
 62
     7
 10
136.380325
 20
85.149927999999989
 30
0.0
 40
0.86927
 50
270.078304
 51
297.11965700000002
  0
ARC
  5
183
  8
0
 62
     7
 10
136.207853
 20
85.516237000000004
 30
0.0
 40
1.2739979999999991
 50
296.51376199999999
 51
336.16319700000003
  0
ARC
  5
184
  8
0
 62
     7
 10
137.0902669999999
 20
85.116556000000003
 30
0.0
 40
0.30546
 50
337.84712400000001
 51
356.22855900000002
  0
ARC
  5
185
  8
0
 62
     7
 10
134.771298
 20
85.098272999999992
 30
0.0
 40
2.6237680000000001
 50
359.96049599999998
 51
10.755119000000001
  0
ARC
  5
186
  8
0
 62
     7
 10
136.020375
 20
85.310731999999987
 30
0.0
 40
1.3572040000000001
 50
11.783766
 51
27.943470000000001
  0
ARC
  5
187
  8
0
 62
     7
 10
136.47495900000001
 20
85.526402000000004
 30
0.0
 40
0.8548530000000001
 50
29.451229999999999
 51
79.718493999999993
  0
ARC
  5
188
  8
0
 62
     7
 10
136.364665
 20
85.038670999999994
 30
0.0
 40
1.3546089999999991
 50
78.810323999999994
 51
90.598865000000004
  0
ARC
  5
189
  8
0
 62
     7
 10
136.44155499999999
 20
90.575139000000007
 30
0.0
 40
2.459563999999999
 50
89.986217000000011
 51
105.553518
  0
ARC
  5
18A
  8
0
 62
     7
 10
136.13729699999999
 20
91.761087999999987
 30
0.0
 40
1.235711
 50
106.70732
 51
118.347982
  0
ARC
  5
18B
  8
0
 62
     7
 10
135.83610200000001
 20
92.330243999999993
 30
0.0
 40
0.5918160000000001
 50
118.848845
 51
135.93364299999999
  0
ARC
  5
18C
  8
0
 62
     7
 10
135.60088400000001
 20
92.564864999999983
 30
0.0
 40
0.259674
 50
137.03502399999999
 51
176.21330499999999
  0
ARC
  5
18D
  8
0
 62
     7
 10
138.44170099999999
 20
92.580414000000005
 30
0.0
 40
3.0999249999999989
 50
179.970403
 51
189.91327999999999
  0
ARC
  5
18E
  8
0
 62
     7
 10
137.28778399999999
 20
92.398884999999993
 30
0.0
 40
1.932086999999999
 50
190.50153
 51
204.25126499999999
  0
ARC
  5
18F
  8
0
 62
     7
 10
136.594157
 20
92.104189000000005
 30
0.0
 40
1.1787389999999991
 50
205.0392040000001
 51
227.873693
  0
ARC
  5
190
  8
0
 62
     7
 10
136.346057
 20
91.870311999999984
 30
0.0
 40
0.839301
 50
229.72609399999999
 51
270.30373300000002
  0
ARC
  5
191
  8
0
 62
     7
 10
136.34706800000001
 20
91.909685999999994
 30
0.0
 40
0.87867
 50
270.224244
 51
311.64871399999998
  0
ARC
  5
192
  8
0
 62
     7
 10
136.140344
 20
92.169263999999998
 30
0.0
 40
1.2101509999999991
 50
310.79477799999989
 51
334.69236000000001
  0
ARC
  5
193
  8
0
 62
     7
 10
135.58898500000001
 20
92.469052999999988
 30
0.0
 40
1.8370869999999999
 50
333.59065099999998
 51
352.54881399999999
  0
ARC
  5
194
  8
0
 62
     7
 10
134.81334899999999
 20
92.617513999999986
 30
0.0
 40
2.625839
 50
351.53147100000001
 51
0.24774
  0
ARC
  5
195
  8
0
 62
     7
 10
137.29150000000001
 20
92.628365999999986
 30
0.0
 40
0.147664
 50
0.19472
 51
29.158063000000009
  0
ARC
  5
196
  8
0
 62
     7
 10
137.19685000000001
 20
92.583145999999999
 30
0.0
 40
0.25244
 50
27.653987000000001
 51
39.903989000000003
  0
ARC
  5
197
  8
0
 62
     7
 10
137.087705
 20
92.491536999999994
 30
0.0
 40
0.394934
 50
39.941485999999998
 51
50.837868000000007
  0
ARC
  5
198
  8
0
 62
     7
 10
136.89361700000001
 20
92.250680999999986
 30
0.0
 40
0.7042570000000001
 50
50.969353000000012
 51
66.937658999999996
  0
ARC
  5
199
  8
0
 62
     7
 10
136.62757500000001
 20
91.691061000000005
 30
0.0
 40
1.3236149999999991
 50
65.831236000000004
 51
77.56133100000001
  0
ARC
  5
19A
  8
0
 62
     7
 10
136.46146300000001
 20
91.020531999999974
 30
0.0
 40
2.0142630000000001
 50
77.055419999999998
 51
90.549439999999976
  0
ARC
  5
19B
  8
0
 62
     7
 10
136.35195100000001
 20
89.922085999999993
 30
0.0
 40
0.66314
 50
90.12480699999999
 51
121.119434
  0
ARC
  5
19C
  8
0
 62
     7
 10
136.493898
 20
89.658929000000001
 30
0.0
 40
0.9618969999999999
 50
120.256525
 51
141.124628
  0
ARC
  5
19D
  8
0
 62
     7
 10
136.93085600000001
 20
89.268694999999994
 30
0.0
 40
1.5472779999999999
 50
140.03014200000001
 51
155.62913599999999
  0
ARC
  5
19E
  8
0
 62
     7
 10
137.66989599999999
 20
88.902582999999993
 30
0.0
 40
2.3717099999999989
 50
154.93984900000001
 51
172.79006200000001
  0
ARC
  5
19F
  8
0
 62
     7
 10
138.321879
 20
88.772518999999988
 30
0.0
 40
3.0352290000000002
 50
171.89887400000001
 51
180.09323499999999
  0
ARC
  5
1A0
  8
0
 62
     7
 10
138.2546669999999
 20
88.767673000000002
 30
0.0
 40
2.968013
 50
180.00181599999999
 51
198.131415
  0
ARC
  5
1A1
  8
0
 62
     7
 10
137.36755299999999
 20
88.508803999999984
 30
0.0
 40
2.044608999999999
 50
198.97359900000001
 51
212.576956
  0
ARC
  5
1A2
  8
0
 62
     7
 10
136.73655500000001
 20
88.122683999999978
 30
0.0
 40
1.3050669999999991
 50
213.20816099999999
 51
230.18261699999999
  0
ARC
  5
1A3
  8
0
 62
     7
 10
136.39704699999999
 20
87.736916000000008
 30
0.0
 40
0.7914810000000001
 50
231.1779589999999
 51
260.662622
  0
ARC
  5
1A4
  8
0
 62
     7
 10
136.35046399999999
 20
87.585394999999991
 30
0.0
 40
0.63477
 50
262.59302200000002
 51
270.00389699999999
  0
ARC
  5
1A5
  8
0
 62
     7
 10
136.34904599999999
 20
87.613157000000001
 30
0.0
 40
0.662533
 50
270.12630999999999
 51
301.13317799999999
  0
ARC
  5
1A6
  8
0
 62
     7
 10
136.20640800000001
 20
87.878004000000004
 30
0.0
 40
0.963096
 50
300.250315
 51
321.096093
  0
ARC
  5
1A7
  8
0
 62
     7
 10
135.76958099999999
 20
88.268640000000005
 30
0.0
 40
1.5486439999999999
 50
319.99874
 51
335.58669300000003
  0
ARC
  5
1A8
  8
0
 62
     7
 10
135.036744
 20
88.633093000000002
 30
0.0
 40
2.3667679999999991
 50
334.88526400000001
 51
352.76881900000001
  0
ARC
  5
1A9
  8
0
 62
     7
 10
134.38660300000001
 20
88.762951000000001
 30
0.0
 40
3.0284490000000002
 50
351.87977899999998
 51
0.087587
  0
ARC
  5
1AA
  8
0
 62
     7
 10
134.450524
 20
88.767510999999985
 30
0.0
 40
2.9645239999999999
 50
0.001346
 51
18.162855
  0
ARC
  5
1AB
  8
0
 62
     7
 10
135.40256400000001
 20
89.050600000000003
 30
0.0
 40
1.9718720000000001
 50
18.970220000000001
 51
36.529769999999999
  0
ARC
  5
1AC
  8
0
 62
     7
 10
136.09220300000001
 20
89.529043999999985
 30
0.0
 40
1.133224
 50
37.846882000000001
 51
56.590735000000002
  0
ARC
  5
1AD
  8
0
 62
     7
 10
136.33389600000001
 20
89.868390000000005
 30
0.0
 40
0.7170260000000001
 50
57.781954000000013
 51
88.672573999999983
  0
LINE
  5
1AE
  8
0
 62
     7
 10
134.273
 20
85.303899999999999
 30
0.0
 11
134.273
 21
92.291199999999989
 31
0.0
  0
ARC
  5
1AF
  8
0
 62
     7
 10
134.84304599999999
 20
85.305645999999996
 30
0.0
 40
0.5699480000000001
 50
180.179609
 51
220.80443600000001
  0
ARC
  5
1B0
  8
0
 62
     7
 10
134.69942699999999
 20
85.201831999999996
 30
0.0
 40
0.393692
 50
223.02735699999999
 51
267.7191390000001
  0
ARC
  5
1B1
  8
0
 62
     7
 10
134.68710899999999
 20
92.411131999999995
 30
0.0
 40
0.372781
 50
90.514957999999993
 51
142.85672700000001
  0
ARC
  5
1B2
  8
0
 62
     7
 10
134.804293
 20
92.303593000000006
 30
0.0
 40
0.531336
 50
141.242707
 51
181.331492
  0
LINE
  5
1B3
  8
0
 62
     7
 10
138.59100000000001
 20
84.982799999999983
 30
0.0
 11
138.59100000000001
 21
92.457300000000004
 31
0.0
  0
LINE
  5
1B4
  8
0
 62
     7
 10
138.59100000000001
 20
84.982799999999983
 30
0.0
 11
138.447
 21
84.808499999999995
 31
0.0
  0
LINE
  5
1B5
  8
0
 62
     7
 10
138.447
 20
92.628900000000002
 30
0.0
 11
138.59100000000001
 21
92.457300000000004
 31
0.0
  0
LINE
  5
1B6
  8
0
 62
     7
 10
137.43899999999999
 20
92.628900000000002
 30
0.0
 11
138.447
 21
92.628900000000002
 31
0.0
  0
LINE
  5
1B7
  8
0
 62
     7
 10
144.54900000000001
 20
82.305199999999999
 30
0.0
 11
145.04300000000001
 21
81.841499999999996
 31
0.0
  0
LINE
  5
1B8
  8
0
 62
     7
 10
158.70699999999999
 20
82.305199999999999
 30
0.0
 11
158.21199999999999
 21
81.841499999999996
 31
0.0
  0
LINE
  5
1BA
  8
0
 62
     7
 10
101.126
 20
91.731099999999984
 30
0.0
 11
100.53400000000001
 21
89.520700000000005
 31
0.0
  0
LINE
  5
1BB
  8
0
 62
     7
 10
100.53400000000001
 20
89.520700000000005
 30
0.0
 11
99.941800000000001
 21
91.731099999999984
 31
0.0
  0
LINE
  5
1BC
  8
0
 62
     7
 10
99.941800000000001
 20
91.731099999999984
 30
0.0
 11
101.126
 21
91.731099999999984
 31
0.0
  0
LINE
  5
1BD
  8
0
 62
     7
 10
99.951499999999996
 20
85.610499999999988
 30
0.0
 11
100.54300000000001
 21
87.821600000000004
 31
0.0
  0
LINE
  5
1BE
  8
0
 62
     7
 10
100.54300000000001
 20
87.821600000000004
 30
0.0
 11
101.136
 21
85.610499999999988
 31
0.0
  0
LINE
  5
1BF
  8
0
 62
     7
 10
101.136
 20
85.610499999999988
 30
0.0
 11
99.951499999999996
 21
85.610499999999988
 31
0.0
  0
LINE
  5
1C0
  8
0
 62
     7
 10
100.539
 20
85.370699999999985
 30
0.0
 11
100.539
 21
96.887
 31
0.0
  0
LINE
  5
1C1
  8
0
 62
     7
 10
159.917
 20
125.97199999999999
 30
0.0
 11
162.12799999999999
 21
125.38
 31
0.0
  0
LINE
  5
1C2
  8
0
 62
     7
 10
162.12799999999999
 20
125.38
 30
0.0
 11
159.917
 21
124.788
 31
0.0
  0
LINE
  5
1C3
  8
0
 62
     7
 10
159.917
 20
124.788
 30
0.0
 11
159.917
 21
125.97199999999999
 31
0.0
  0
LINE
  5
1C4
  8
0
 62
     7
 10
143.33699999999999
 20
124.788
 30
0.0
 11
141.12799999999999
 21
125.38
 31
0.0
  0
LINE
  5
1C5
  8
0
 62
     7
 10
141.12799999999999
 20
125.38
 30
0.0
 11
143.33699999999999
 21
125.973
 31
0.0
  0
LINE
  5
1C6
  8
0
 62
     7
 10
143.33699999999999
 20
125.973
 30
0.0
 11
143.33699999999999
 21
124.788
 31
0.0
  0
LINE
  5
1C7
  8
0
 62
     7
 10
162.12799999999999
 20
125.38
 30
0.0
 11
141.12799999999999
 21
125.38
 31
0.0
  0
LINE
  5
1C8
  8
0
 62
     7
 10
80.585099999999997
 20
72.625799999999984
 30
0.0
 11
78.375399999999999
 21
73.218400000000003
 31
0.0
  0
LINE
  5
1C9
  8
0
 62
     7
 10
78.375399999999999
 20
73.218400000000003
 30
0.0
 11
80.585099999999997
 21
73.810299999999984
 31
0.0
  0
LINE
  5
1CA
  8
0
 62
     7
 10
80.585099999999997
 20
73.810299999999984
 30
0.0
 11
80.585099999999997
 21
72.625799999999984
 31
0.0
  0
LINE
  5
1CB
  8
0
 62
     7
 10
149.40799999999999
 20
73.800600000000003
 30
0.0
 11
151.619
 21
73.208100000000002
 31
0.0
  0
LINE
  5
1CC
  8
0
 62
     7
 10
151.619
 20
73.208100000000002
 30
0.0
 11
149.40799999999999
 21
72.616200000000006
 31
0.0
  0
LINE
  5
1CD
  8
0
 62
     7
 10
149.40799999999999
 20
72.616200000000006
 30
0.0
 11
149.40799999999999
 21
73.800600000000003
 31
0.0
  0
LINE
  5
1CE
  8
0
 62
     7
 10
78.375399999999999
 20
73.2136
 30
0.0
 11
151.619
 21
73.2136
 31
0.0
  0
LINE
  5
1CF
  8
0
 62
     7
 10
166.17599999999999
 20
96.636200000000017
 30
0.0
 11
166.76900000000001
 21
98.847300000000004
 31
0.0
  0
LINE
  5
1D0
  8
0
 62
     7
 10
166.76900000000001
 20
98.847300000000004
 30
0.0
 11
167.36099999999999
 21
96.636200000000017
 31
0.0
  0
LINE
  5
1D1
  8
0
 62
     7
 10
167.36099999999999
 20
96.636200000000017
 30
0.0
 11
166.17599999999999
 21
96.636200000000017
 31
0.0
  0
LINE
  5
1D2
  8
0
 62
     7
 10
167.351
 20
87.390900000000002
 30
0.0
 11
166.75899999999999
 21
85.180499999999995
 31
0.0
  0
LINE
  5
1D3
  8
0
 62
     7
 10
166.75899999999999
 20
85.180499999999995
 30
0.0
 11
166.166
 21
87.390900000000002
 31
0.0
  0
LINE
  5
1D4
  8
0
 62
     7
 10
166.166
 20
87.390900000000002
 30
0.0
 11
167.351
 21
87.390900000000002
 31
0.0
  0
LINE
  5
1D5
  8
0
 62
     7
 10
166.76300000000001
 20
98.847300000000004
 30
0.0
 11
166.76300000000001
 21
85.174999999999997
 31
0.0
  0
LINE
  5
1D6
  8
0
 62
     7
 10
78.2941
 20
87.298599999999993
 30
0.0
 11
78.2941
 21
72.426699999999997
 31
0.0
  0
LINE
  5
1D7
  8
0
 62
     7
 10
144.54900000000001
 20
65.138900000000007
 30
0.0
 11
144.54900000000001
 21
81.425299999999979
 31
0.0
  0
LINE
  5
1D8
  8
0
 62
     7
 10
146.81299999999999
 20
65.1768
 30
0.0
 11
144.602
 21
65.768699999999995
 31
0.0
  0
LINE
  5
1D9
  8
0
 62
     7
 10
144.602
 20
65.768699999999995
 30
0.0
 11
146.81299999999999
 21
66.361199999999997
 31
0.0
  0
LINE
  5
1DA
  8
0
 62
     7
 10
146.81299999999999
 20
66.361199999999997
 30
0.0
 11
146.81299999999999
 21
65.1768
 31
0.0
  0
LINE
  5
1DB
  8
0
 62
     7
 10
156.48400000000001
 20
66.351600000000005
 30
0.0
 11
158.69499999999999
 21
65.759
 31
0.0
  0
LINE
  5
1DC
  8
0
 62
     7
 10
158.69499999999999
 20
65.759
 30
0.0
 11
156.48400000000001
 21
65.166499999999999
 31
0.0
  0
LINE
  5
1DD
  8
0
 62
     7
 10
156.48400000000001
 20
65.166499999999999
 30
0.0
 11
156.48400000000001
 21
66.351600000000005
 31
0.0
  0
LINE
  5
1DE
  8
0
 62
     7
 10
144.602
 20
65.763800000000003
 30
0.0
 11
158.69499999999999
 21
65.763800000000003
 31
0.0
  0
LINE
  5
1DF
  8
0
 62
     7
 10
158.70699999999999
 20
81.425299999999979
 30
0.0
 11
158.70699999999999
 21
65.138900000000007
 31
0.0
  0
LINE
  5
1E0
  8
0
 62
     7
 10
167.59700000000001
 20
85.174999999999997
 30
0.0
 11
159.65100000000001
 21
85.174999999999997
 31
0.0
  0
LINE
  5
1E1
  8
0
 62
     7
 10
167.59700000000001
 20
98.841800000000006
 30
0.0
 11
162.18700000000001
 21
98.841800000000006
 31
0.0
  0
LINE
  5
1E2
  8
0
  6
AIGENLINE002
 62
     7
 10
151.62799999999999
 20
88.715199999999996
 30
0.0
 11
75.543499999999995
 21
88.715199999999996
 31
0.0
  0
LINE
  5
1E3
  8
0
 62
     7
 10
134.02000000000001
 20
102.175
 30
0.0
 11
143.85499999999999
 21
102.175
 31
0.0
  0
LINE
  5
1E4
  8
0
 62
     7
 10
135.21199999999999
 20
104.395
 30
0.0
 11
134.619
 21
102.185
 31
0.0
  0
LINE
  5
1E5
  8
0
 62
     7
 10
134.619
 20
102.185
 30
0.0
 11
134.02699999999999
 21
104.395
 31
0.0
  0
LINE
  5
1E6
  8
0
 62
     7
 10
134.02699999999999
 20
104.395
 30
0.0
 11
135.21199999999999
 21
104.395
 31
0.0
  0
LINE
  5
1E7
  8
0
 62
     7
 10
134.03700000000001
 20
112.218
 30
0.0
 11
134.62899999999999
 21
114.429
 31
0.0
  0
LINE
  5
1E8
  8
0
 62
     7
 10
134.62899999999999
 20
114.429
 30
0.0
 11
135.221
 21
112.218
 31
0.0
  0
LINE
  5
1E9
  8
0
 62
     7
 10
135.221
 20
112.218
 30
0.0
 11
134.03700000000001
 21
112.218
 31
0.0
  0
LINE
  5
1EA
  8
0
 62
     7
 10
134.624
 20
102.185
 30
0.0
 11
134.624
 21
114.429
 31
0.0
  0
LINE
  5
1EB
  8
0
 62
     7
 10
140.42699999999999
 20
114.47799999999999
 30
0.0
 11
134.02000000000001
 21
114.47799999999999
 31
0.0
  0
LINE
  5
1EC
  8
0
 62
     7
 10
141.12799999999999
 20
126.08
 30
0.0
 11
141.12799999999999
 21
115.511
 31
0.0
  0
LINE
  5
1ED
  8
0
 62
     7
 10
162.12799999999999
 20
115.511
 30
0.0
 11
162.12799999999999
 21
126.08
 31
0.0
  0
LINE
  5
1EE
  8
0
 62
     7
 10
151.62799999999999
 20
79.489199999999997
 30
0.0
 11
151.62799999999999
 21
72.492199999999997
 31
0.0
  0
LINE
  5
1EF
  8
0
  6
AIGENLINE001
 62
     7
 10
151.62799999999999
 20
121.56699999999999
 30
0.0
 11
151.62799999999999
 21
79.943899999999999
 31
0.0
  0
LINE
  5
1F0
  8
0
 62
     7
 10
134.273
 20
89.548199999999994
 30
0.0
 11
78.2941
 21
89.548199999999994
 31
0.0
  0
LINE
  5
1F1
  8
0
 62
     7
 10
78.2941
 20
89.548199999999994
 30
0.0
 11
78.2941
 21
87.881499999999988
 31
0.0
  0
LINE
  5
1F2
  8
0
 62
     7
 10
78.2941
 20
87.881499999999988
 30
0.0
 11
134.273
 21
87.881499999999988
 31
0.0
  0
LINE
  5
1F3
  8
0
 62
     7
 10
78.824600000000004
 20
89.550999999999988
 30
0.0
 11
78.824600000000004
 21
87.875299999999996
 31
0.0
  0
LINE
  5
1F4
  8
0
 62
     7
 10
139.18100000000001
 20
91.782099999999986
 30
0.0
 11
144.31299999999999
 21
91.782099999999986
 31
0.0
  0
LINE
  5
1F5
  8
0
 62
     7
 10
139.18100000000001
 20
85.647700000000015
 30
0.0
 11
144.31299999999999
 21
85.647700000000015
 31
0.0
  0
LINE
  5
1F6
  8
0
 62
     7
 10
145.04300000000001
 20
81.841499999999996
 30
0.0
 11
145.04300000000001
 21
85.174999999999997
 31
0.0
  0
LINE
  5
1F7
  8
0
 62
     7
 10
144.54900000000001
 20
82.305199999999999
 30
0.0
 11
144.54900000000001
 21
85.174999999999997
 31
0.0
  0
LINE
  5
1F8
  8
0
 62
     7
 10
158.21199999999999
 20
81.841499999999996
 30
0.0
 11
158.21199999999999
 21
85.174999999999997
 31
0.0
  0
LINE
  5
1F9
  8
0
 62
     7
 10
158.70699999999999
 20
82.305199999999999
 30
0.0
 11
158.70699999999999
 21
85.174999999999997
 31
0.0
  0
LINE
  5
1FA
  8
0
 62
     7
 10
138.59100000000001
 20
85.352099999999993
 30
0.0
 11
139.18100000000001
 21
85.352099999999993
 31
0.0
  0
LINE
  5
1FB
  8
0
 62
     7
 10
139.18100000000001
 20
85.352099999999993
 30
0.0
 11
139.18100000000001
 21
92.076999999999998
 31
0.0
  0
LINE
  5
1FC
  8
0
 62
     7
 10
139.18100000000001
 20
92.076999999999998
 30
0.0
 11
138.59100000000001
 21
92.076999999999998
 31
0.0
  0
LINE
  5
1FD
  8
0
 62
     7
 10
144.54900000000001
 20
82.305199999999999
 30
0.0
 11
158.70699999999999
 21
82.305199999999999
 31
0.0
  0
LINE
  5
1FE
  8
0
 62
     7
 10
145.04300000000001
 20
81.841499999999996
 30
0.0
 11
158.21199999999999
 21
81.841499999999996
 31
0.0
  0
LINE
  5
1FF
  8
0
 62
     7
 10
144.31299999999999
 20
85.648399999999995
 30
0.0
 11
144.31299999999999
 21
85.174999999999997
 31
0.0
  0
LINE
  5
200
  8
0
 62
     7
 10
144.31299999999999
 20
85.174999999999997
 30
0.0
 11
158.94300000000001
 21
85.174999999999997
 31
0.0
  0
LINE
  5
201
  8
0
 62
     7
 10
158.94300000000001
 20
85.174999999999997
 30
0.0
 11
158.94300000000001
 21
96.246200000000002
 31
0.0
  0
ARC
  5
202
  8
0
 62
     7
 10
160.97945899999999
 20
96.287963000000005
 30
0.0
 40
2.0369890000000002
 50
136.64848799999999
 51
181.17365599999999
  0
ARC
  5
203
  8
0
 62
     7
 10
160.968479
 20
96.272153000000003
 30
0.0
 40
2.039947999999999
 50
91.660432999999998
 51
136.113879
  0
LINE
  5
204
  8
0
 62
     7
 10
160.90899999999999
 20
98.311199999999999
 30
0.0
 11
161.00800000000001
 21
98.311199999999999
 31
0.0
  0
LINE
  5
205
  8
0
 62
     7
 10
161.00800000000001
 20
98.311199999999999
 30
0.0
 11
142.24799999999999
 21
98.311199999999999
 31
0.0
  0
ARC
  5
206
  8
0
 62
     7
 10
142.18395200000001
 20
96.165356000000003
 30
0.0
 40
2.14683
 50
43.974550999999998
 51
88.303370000000015
  0
ARC
  5
207
  8
0
 62
     7
 10
142.173697
 20
96.186486000000002
 30
0.0
 40
2.139654999999999
 50
1.6003329999999989
 51
43.376669
  0
LINE
  5
208
  8
0
 62
     7
 10
144.31299999999999
 20
96.246200000000002
 30
0.0
 11
144.31299999999999
 21
91.782099999999986
 31
0.0
  0
TEXT
  5
209
  8
_________2
 62
     7
 10
24.5868
 20
0.707627
 30
0.0
 40
3.9357000000000002
  1
ヨーロッパ製洗面器用
 41
0.5
  0
TEXT
  5
20A
  8
_________2
 62
     7
 10
109.179
 20
24.226099999999999
 30
0.0
 40
3.9357000000000002
  1
ポップアップ式排水ヘッド部
 41
0.5
  0
LINE
  5
20B
  8
_________2
 62
     7
 10
205.30099999999999
 20
127.41200000000001
 30
0.0
 11
183.55099999999999
 21
127.41200000000001
 31
0.0
  0
LINE
  5
20C
  8
_________2
 62
     7
 10
100.3
 20
-4.0907299999999998
 30
0.0
 11
100.3
 21
-21.071000000000002
 31
0.0
  0
LINE
  5
20D
  8
_________2
 62
     7
 10
100.3
 20
275.93099999999998
 30
0.0
 11
100.3
 21
258.911
 31
0.0
  0
LINE
  5
20E
  8
_________2
 62
     7
 10
17.049499999999998
 20
127.41200000000001
 30
0.0
 11
-4.7008599999999987
 21
127.41200000000001
 31
0.0
  0
LINE
  5
20F
  8
_________2
 62
     7
 10
76.741
 20
29.805099999999999
 30
0.0
 11
74.554699999999997
 21
29.805099999999999
 31
0.0
  0
LINE
  5
210
  8
_________2
 62
     7
 10
77.233699999999999
 20
29.805099999999999
 30
0.0
 11
76.981499999999997
 21
29.805099999999999
 31
0.0
  0
LINE
  5
211
  8
_________2
 62
     7
 10
77.726299999999995
 20
29.805099999999999
 30
0.0
 11
80.651200000000003
 21
29.805099999999999
 31
0.0
  0
LINE
  5
212
  8
_________2
 62
     7
 10
77.233699999999999
 20
29.805099999999999
 30
0.0
 11
77.485900000000001
 21
29.805099999999999
 31
0.0
  0
LINE
  5
213
  8
_________2
 62
     7
 10
70.837500000000006
 20
29.805099999999999
 30
0.0
 11
68.650499999999994
 21
29.805099999999999
 31
0.0
  0
LINE
  5
214
  8
_________2
 62
     7
 10
71.329400000000007
 20
29.805099999999999
 30
0.0
 11
71.0779
 21
29.805099999999999
 31
0.0
  0
LINE
  5
215
  8
_________2
 62
     7
 10
71.329400000000007
 20
30.297699999999999
 30
0.0
 11
71.329400000000007
 21
32.484699999999997
 31
0.0
  0
LINE
  5
216
  8
_________2
 62
     7
 10
71.329400000000007
 20
29.805099999999999
 30
0.0
 11
71.329400000000007
 21
30.057300000000001
 31
0.0
  0
LINE
  5
217
  8
_________2
 62
     7
 10
71.822100000000006
 20
29.805099999999999
 30
0.0
 11
74.009
 21
29.805099999999999
 31
0.0
  0
LINE
  5
218
  8
_________2
 62
     7
 10
71.329400000000007
 20
29.805099999999999
 30
0.0
 11
71.581599999999995
 21
29.805099999999999
 31
0.0
  0
LINE
  5
219
  8
_________2
 62
     7
 10
71.329400000000007
 20
29.313099999999999
 30
0.0
 11
71.329400000000007
 21
27.126200000000001
 31
0.0
  0
LINE
  5
21A
  8
_________2
 62
     7
 10
71.329400000000007
 20
29.805099999999999
 30
0.0
 11
71.329400000000007
 21
29.553599999999999
 31
0.0
  0
LINE
  5
21B
  8
_________2
 62
     7
 10
75.040499999999994
 20
28.5855
 30
0.0
 11
80.218500000000006
 21
27.720800000000001
 31
0.0
  0
LINE
  5
21C
  8
_________2
 62
     7
 10
75.040499999999994
 20
31.024699999999999
 30
0.0
 11
80.218500000000006
 21
31.8901
 31
0.0
  0
LINE
  5
21D
  8
_________2
 62
     7
 10
80.218500000000006
 20
27.720800000000001
 30
0.0
 11
80.218500000000006
 21
31.8901
 31
0.0
  0
LINE
  5
21E
  8
_________2
 62
     7
 10
75.040499999999994
 20
28.5855
 30
0.0
 11
75.040499999999994
 21
31.024699999999999
 31
0.0
  0
ARC
  5
21F
  8
_________2
 62
     7
 10
71.283190000000005
 20
29.758130999999999
 30
0.0
 40
1.2673709999999989
 50
2.1232950000000002
 51
87.909056000000007
  0
ARC
  5
220
  8
_________2
 62
     7
 10
71.375959999999992
 20
29.758557
 30
0.0
 40
1.2669559999999991
 50
92.104701000000006
 51
177.89526900000001
  0
ARC
  5
221
  8
_________2
 62
     7
 10
71.376357999999996
 20
29.852015000000002
 30
0.0
 40
1.2673680000000001
 50
182.12203600000001
 51
267.877993
  0
ARC
  5
222
  8
_________2
 62
     7
 10
71.282541000000009
 20
29.852692999999999
 30
0.0
 40
1.2680439999999991
 50
272.11916400000001
 51
357.84848499999998
  0
ARC
  5
223
  8
_________2
 62
     7
 10
71.329430000000002
 20
29.805087
 30
0.0
 40
2.0849849999999992
 50
0.00001
 51
89.999980000000008
  0
ARC
  5
224
  8
_________2
 62
     7
 10
71.409075999999999
 20
29.726157000000001
 30
0.0
 40
2.165379999999999
 50
92.107876000000005
 51
177.91103200000001
  0
ARC
  5
225
  8
_________2
 62
     7
 10
71.409439000000006
 20
29.885096000000001
 30
0.0
 40
2.1657829999999998
 50
182.117133
 51
267.88289700000001
  0
ARC
  5
226
  8
_________2
 62
     7
 10
71.249459000000002
 20
29.885774000000001
 30
0.0
 40
2.1664590000000001
 50
272.11546800000002
 51
357.86560400000002
  0
TEXT
  5
227
  8
_________2
 62
     7
 10
104.605
 20
1.67984
 30
0.0
 40
3.0923400000000001
  1
図番
 41
0.5
  0
LINE
  5
228
  8
_________2
 62
     7
 10
103.551
 20
5.9090699999999989
 30
0.0
 11
183.55099999999999
 21
5.9090699999999989
 31
0.0
  0
TEXT
  5
229
  8
_________2
 62
     7
 10
104.605
 20
11.679600000000001
 30
0.0
 40
3.0923400000000001
  1
品番
 41
0.5
  0
TEXT
  5
22A
  8
_________2
 62
     7
 10
104.605
 20
31.8184
 30
0.0
 40
3.0923400000000001
  1
名称
 41
0.5
  0
TEXT
  5
22B
  8
_________2
 62
     7
 10
91.845058333333341
 20
26.822299999999998
 30
0.0
 40
3.6545800000000002
  1
mm
 41
0.5
 72
     1
 11
93.367800000000003
 21
26.822299999999998
 31
0.0
  0
TEXT
  5
22C
  8
_________2
 62
     7
 10
85.643199999999993
 20
31.8184
 30
0.0
 40
3.0923400000000001
  1
単位
 41
0.5
  0
TEXT
  5
22D
  8
_________2
 62
     7
 10
85.643199999999993
 20
19.411200000000001
 30
0.0
 40
3.0923400000000001
  1
尺度
 41
0.5
  0
TEXT
  5
22E
  8
_________2
 62
     7
 10
90.548758666666686
 20
13.2182
 30
0.0
 40
3.6545800000000002
  1
1 ： 3
 41
0.5
 72
     1
 11
93.959699999999998
 21
13.2182
 31
0.0
  0
TEXT
  5
22F
  8
_________2
 62
     7
 10
138.13841249999999
 20
9.1082000000000001
 30
0.0
 40
3.9357000000000002
  1
CET320
 41
0.5
 72
     1
 11
143.55000000000001
 21
9.1082000000000001
 31
0.0
  0
TEXT
  5
230
  8
_________2
 62
     7
 10
138.13841249999999
 20
-0.892285
 30
0.0
 40
3.9357000000000002
  1
CET320
 41
0.5
 72
     1
 11
143.55000000000001
 21
-0.892285
 31
0.0
  0
TEXT
  5
231
  8
_________2
 62
     7
 10
39.425300333333333
 20
13.603400000000001
 30
0.0
 40
3.6545800000000002
  1
早川
 41
0.5
 72
     1
 11
41.313499999999998
 21
13.603400000000001
 31
0.0
  0
TEXT
  5
232
  8
_________2
 62
     7
 10
20.790390666666671
 20
13.603400000000001
 30
0.0
 40
3.6545800000000002
  1
石原
 41
0.5
 72
     1
 11
22.7395
 21
13.603400000000001
 31
0.0
  0
TEXT
  5
233
  8
_________2
 62
     7
 10
67.785799999999995
 20
13.2182
 30
0.0
 40
3.6545800000000002
  1
15.07.15
 41
0.5
  0
TEXT
  5
234
  8
_________2
 62
     7
 10
66.593100000000007
 20
19.411200000000001
 30
0.0
 40
3.0923400000000001
  1
日付
 41
0.5
  0
TEXT
  5
235
  8
_________2
 62
     7
 10
29.639399999999998
 20
19.411200000000001
 30
0.0
 40
3.0923400000000001
  1
検図
 41
0.5
  0
TEXT
  5
236
  8
_________2
 62
     7
 10
18.021100000000001
 20
5.2117699999999987
 30
0.0
 40
3.0923400000000001
  1
備考
 41
0.5
  0
TEXT
  5
237
  8
_________2
 62
     7
 10
18.021100000000001
 20
19.411200000000001
 30
0.0
 40
3.0923400000000001
  1
製図
 41
0.5
  0
TEXT
  5
238
  8
_________2
 62
     7
 10
23.788465333333338
 20
27.937100000000001
 30
0.0
 40
4.4979399999999989
  1
セラトレーディング株式会社
 41
0.5
 72
     1
 11
41.180500000000002
 21
27.937100000000001
 31
0.0
  0
LINE
  5
239
  8
_________2
 62
     7
 10
183.55099999999999
 20
-4.0907299999999998
 30
0.0
 11
17.049499999999998
 21
-4.0907299999999998
 31
0.0
  0
LINE
  5
23A
  8
_________2
 62
     7
 10
17.049499999999998
 20
-4.0907299999999998
 30
0.0
 11
17.049499999999998
 21
258.911
 31
0.0
  0
LINE
  5
23B
  8
_________2
 62
     7
 10
17.049499999999998
 20
258.911
 30
0.0
 11
183.55099999999999
 21
258.911
 31
0.0
  0
LINE
  5
23C
  8
_________2
 62
     7
 10
183.55099999999999
 20
258.911
 30
0.0
 11
183.55099999999999
 21
-4.0907299999999998
 31
0.0
  0
LINE
  5
23D
  8
_________2
 62
     7
 10
65.549899999999994
 20
9.4092999999999982
 30
0.0
 11
65.549899999999994
 21
35.909100000000002
 31
0.0
  0
LINE
  5
23E
  8
_________2
 62
     7
 10
84.549700000000016
 20
9.4092999999999982
 30
0.0
 11
84.549700000000016
 21
35.909100000000002
 31
0.0
  0
LINE
  5
23F
  8
_________2
 62
     7
 10
103.551
 20
-4.0907299999999998
 30
0.0
 11
103.551
 21
35.909100000000002
 31
0.0
  0
LINE
  5
240
  8
_________2
 62
     7
 10
28.549299999999999
 20
9.4092999999999982
 30
0.0
 11
28.549299999999999
 21
23.409600000000001
 31
0.0
  0
LINE
  5
241
  8
_________2
 62
     7
 10
17.049499999999998
 20
9.4092999999999982
 30
0.0
 11
103.551
 21
9.4092999999999982
 31
0.0
  0
LINE
  5
242
  8
_________2
 62
     7
 10
17.049499999999998
 20
23.409600000000001
 30
0.0
 11
103.551
 21
23.409600000000001
 31
0.0
  0
LINE
  5
243
  8
_________2
 62
     7
 10
103.551
 20
15.908899999999999
 30
0.0
 11
183.55099999999999
 21
15.908899999999999
 31
0.0
  0
LINE
  5
244
  8
_________2
 62
     7
 10
17.049499999999998
 20
35.909100000000002
 30
0.0
 11
183.55099999999999
 21
35.909100000000002
 31
0.0
  0
ENDSEC
  0
EOF
