  0
SECTION
  2
HEADER
  9
$ACADVER
  1
AC1009
  9
$INSBASE
 10
0.0
 20
0.0
 30
0.0
  9
$EXTMIN
 10
-4.70052
 20
-21.070900000000002
 30
0.0
  9
$EXTMAX
 10
205.30099999999999
 20
275.93099999999993
 30
0.0
  9
$LIMMIN
 10
0.0
 20
0.0
  9
$LIMMAX
 10
12.0
 20
9.0
  9
$ORTHOMODE
 70
     0
  9
$REGENMODE
 70
     1
  9
$FILLMODE
 70
     1
  9
$QTEXTMODE
 70
     0
  9
$MIRRTEXT
 70
     1
  9
$DRAGMODE
 70
     2
  9
$LTSCALE
 40
1.0
  9
$OSMODE
 70
    37
  9
$ATTMODE
 70
     1
  9
$TEXTSIZE
 40
0.0
  9
$TRACEWID
 40
0.05
  9
$TEXTSTYLE
  7
STANDARD
  9
$CLAYER
  8
0
  9
$CELTYPE
  6
CONTINUOUS
  9
$CECOLOR
 62
   256
  9
$DIMSCALE
 40
1.0
  9
$DIMASZ
 40
0.18
  9
$DIMEXO
 40
0.0625
  9
$DIMDLI
 40
0.38
  9
$DIMRND
 40
0.0
  9
$DIMDLE
 40
0.0
  9
$DIMEXE
 40
0.18
  9
$DIMTP
 40
0.0
  9
$DIMTM
 40
0.0
  9
$DIMTXT
 40
0.18
  9
$DIMCEN
 40
0.09
  9
$DIMTSZ
 40
0.0
  9
$DIMTOL
 70
     0
  9
$DIMLIM
 70
     0
  9
$DIMTIH
 70
     1
  9
$DIMTOH
 70
     1
  9
$DIMSE1
 70
     0
  9
$DIMSE2
 70
     0
  9
$DIMTAD
 70
     0
  9
$DIMZIN
 70
     0
  9
$DIMBLK
  1

  9
$DIMASO
 70
     1
  9
$DIMSHO
 70
     1
  9
$DIMPOST
  1

  9
$DIMAPOST
  1

  9
$DIMALT
 70
     0
  9
$DIMALTD
 70
     2
  9
$DIMALTF
 40
25.399999999999999
  9
$DIMLFAC
 40
1.0
  9
$DIMTOFL
 70
     0
  9
$DIMTVP
 40
0.0
  9
$DIMTIX
 70
     0
  9
$DIMSOXD
 70
     0
  9
$DIMSAH
 70
     0
  9
$DIMBLK1
  1

  9
$DIMBLK2
  1

  9
$DIMSTYLE
  2
STANDARD
  9
$DIMCLRD
 70
     0
  9
$DIMCLRE
 70
     0
  9
$DIMCLRT
 70
     0
  9
$DIMTFAC
 40
1.0
  9
$DIMGAP
 40
0.09
  9
$LUNITS
 70
     2
  9
$LUPREC
 70
     4
  9
$SKETCHINC
 40
0.1
  9
$FILLETRAD
 40
0.0
  9
$AUNITS
 70
     0
  9
$AUPREC
 70
     0
  9
$MENU
  1
.
  9
$ELEVATION
 40
0.0
  9
$PELEVATION
 40
0.0
  9
$THICKNESS
 40
0.0
  9
$LIMCHECK
 70
     0
  9
$BLIPMODE
 70
     0
  9
$CHAMFERA
 40
0.0
  9
$CHAMFERB
 40
0.0
  9
$SKPOLY
 70
     0
  9
$TDCREATE
 40
2444972.375
  9
$TDUPDATE
 40
2453693.2552520949
  9
$TDINDWG
 40
0.0000845486
  9
$TDUSRTIMER
 40
0.0000845486
  9
$USRTIMER
 70
     1
  9
$ANGBASE
 50
0.0
  9
$ANGDIR
 70
     0
  9
$PDMODE
 70
     0
  9
$PDSIZE
 40
0.0
  9
$PLINEWID
 40
0.0
  9
$COORDS
 70
     1
  9
$SPLFRAME
 70
     0
  9
$SPLINETYPE
 70
     6
  9
$SPLINESEGS
 70
     8
  9
$ATTDIA
 70
     0
  9
$ATTREQ
 70
     1
  9
$HANDLING
 70
     1
  9
$HANDSEED
  5
E3
  9
$SURFTAB1
 70
     6
  9
$SURFTAB2
 70
     6
  9
$SURFTYPE
 70
     6
  9
$SURFU
 70
     6
  9
$SURFV
 70
     6
  9
$UCSNAME
  2

  9
$UCSORG
 10
0.0
 20
0.0
 30
0.0
  9
$UCSXDIR
 10
1.0
 20
0.0
 30
0.0
  9
$UCSYDIR
 10
0.0
 20
1.0
 30
0.0
  9
$PUCSNAME
  2

  9
$PUCSORG
 10
0.0
 20
0.0
 30
0.0
  9
$PUCSXDIR
 10
1.0
 20
0.0
 30
0.0
  9
$PUCSYDIR
 10
0.0
 20
1.0
 30
0.0
  9
$USERI1
 70
     0
  9
$USERI2
 70
     0
  9
$USERI3
 70
     0
  9
$USERI4
 70
     0
  9
$USERI5
 70
     0
  9
$USERR1
 40
0.0
  9
$USERR2
 40
0.0
  9
$USERR3
 40
0.0
  9
$USERR4
 40
0.0
  9
$USERR5
 40
0.0
  9
$WORLDVIEW
 70
     1
  9
$SHADEDGE
 70
     3
  9
$SHADEDIF
 70
    70
  9
$TILEMODE
 70
     1
  9
$MAXACTVP
 70
    48
  9
$PLIMCHECK
 70
     0
  9
$PEXTMIN
 10
1.0000000000000000E+020
 20
1.0000000000000000E+020
 30
1.0000000000000000E+020
  9
$PEXTMAX
 10
-1.0000000000000000E+020
 20
-1.0000000000000000E+020
 30
-1.0000000000000000E+020
  9
$PLIMMIN
 10
0.0
 20
0.0
  9
$PLIMMAX
 10
12.0
 20
9.0
  9
$UNITMODE
 70
     0
  9
$VISRETAIN
 70
     1
  9
$PLINEGEN
 70
     0
  9
$PSLTSCALE
 70
     1
  0
ENDSEC
  0
SECTION
  2
TABLES
  0
TABLE
  2
VPORT
 70
     2
  0
VPORT
  2
*ACTIVE
 70
     0
 10
0.0
 20
0.0
 11
1.0
 21
1.0
 12
200.17533677571029
 22
127.43004999999989
 13
0.0
 23
0.0
 14
1.0
 24
1.0
 15
0.0
 25
0.0
 16
0.0
 26
0.0
 36
1.0
 17
0.0
 27
0.0
 37
0.0
 40
299.1857374999999
 41
2.1842105263157889
 42
50.0
 43
0.0
 44
0.0
 50
0.0
 51
0.0
 71
     0
 72
   100
 73
     1
 74
     1
 75
     0
 76
     0
 77
     0
 78
     0
  0
ENDTAB
  0
TABLE
  2
LTYPE
 70
     2
  0
LTYPE
  2
CONTINUOUS
 70
     0
  3
Solid line
 72
    65
 73
     0
 40
0.0
  0
LTYPE
  2
AIGENLINE001
 70
     0
  3
generate AI->DXF Converter
 72
    65
 73
     4
 40
5.8561449999999988
 49
3.5278
 49
-0.776115
 49
0.776115
 49
-0.776115
  0
ENDTAB
  0
TABLE
  2
LAYER
 70
     2
  0
LAYER
  2
0
 70
     0
 62
     7
  6
CONTINUOUS
  0
LAYER
  2
_________2
 70
     0
 62
     7
  6
CONTINUOUS
  0
ENDTAB
  0
TABLE
  2
STYLE
 70
     1
  0
STYLE
  2
STANDARD
 70
     0
 40
0.0
 41
0.0
 50
0.0
 71
     0
 42
0.0
  3
TXT
  4
EXTFONT.SHX
  0
ENDTAB
  0
TABLE
  2
VIEW
 70
     0
  0
ENDTAB
  0
TABLE
  2
UCS
 70
     0
  0
ENDTAB
  0
TABLE
  2
APPID
 70
     1
  0
APPID
  2
ACAD
 70
     0
  0
ENDTAB
  0
TABLE
  2
DIMSTYLE
 70
     1
  0
DIMSTYLE
  2
STANDARD
 70
     0
  3

  4

  5

  6

  7

 40
1.0
 41
0.18
 42
0.0625
 43
0.38
 44
0.18
 45
0.0
 46
0.0
 47
0.0
 48
0.0
140
0.18
141
0.09
142
0.0
143
25.399999999999999
144
1.0
145
0.0
146
1.0
147
0.09
 71
     0
 72
     0
 73
     1
 74
     1
 75
     0
 76
     0
 77
     0
 78
     0
170
     0
171
     2
172
     0
173
     0
174
     0
175
     0
176
     0
177
     0
178
     0
  0
ENDTAB
  0
ENDSEC
  0
SECTION
  2
BLOCKS
  0
BLOCK
  8
0
  2
$MODEL_SPACE
 70
     0
 10
0.0
 20
0.0
 30
0.0
  3
$MODEL_SPACE
  1

  0
ENDBLK
  5
1A
  8
0
  0
BLOCK
 67
     1
  8
0
  2
$PAPER_SPACE
 70
     0
 10
0.0
 20
0.0
 30
0.0
  3
$PAPER_SPACE
  1

  0
ENDBLK
  5
17
 67
     1
  8
0
  0
ENDSEC
  0
SECTION
  2
ENTITIES
  0
TEXT
  5
22
  8
0
 62
     7
 10
86.815399999999997
 20
146.80099999999999
 30
0.0
 40
3.0923400000000001
  1
%%c6
 41
0.5
  0
TEXT
  5
23
  8
0
 62
     7
 10
91.690599999999989
 20
126.4129999999999
 30
0.0
 40
3.0923400000000001
  1
18
 41
0.5
  0
TEXT
  5
24
  8
0
 62
     7
 10
117.3839999999999
 20
139.626
 30
0.0
 40
3.0923400000000001
  1
19
 50
90.0
 41
0.5
  0
TEXT
  5
25
  8
0
 62
     7
 10
109.2789999999999
 20
143.542
 30
0.0
 40
3.0923400000000001
  1
%%c6
 50
90.0
 41
0.5
  0
LINE
  5
26
  8
0
  6
AIGENLINE001
 62
     7
 10
98.139799999999994
 20
156.142
 30
0.0
 11
98.139799999999994
 21
130.89299999999989
 31
0.0
  0
LINE
  5
27
  8
0
 62
     7
 10
99.708800000000011
 20
144.423
 30
0.0
 11
99.182500000000005
 21
144.001
 31
0.0
  0
LINE
  5
28
  8
0
 62
     7
 10
96.570600000000013
 20
144.423
 30
0.0
 11
97.096800000000002
 21
144.001
 31
0.0
  0
LINE
  5
29
  8
0
 62
     7
 10
87.4863
 20
126.267
 30
0.0
 11
85.275800000000004
 21
125.67399999999989
 31
0.0
  0
LINE
  5
2A
  8
0
 62
     7
 10
85.275800000000004
 20
125.67399999999989
 30
0.0
 11
87.4863
 21
125.08199999999999
 31
0.0
  0
LINE
  5
2B
  8
0
 62
     7
 10
87.4863
 20
125.08199999999999
 30
0.0
 11
87.4863
 21
126.267
 31
0.0
  0
LINE
  5
2C
  8
0
 62
     7
 10
101.06399999999989
 20
125.09699999999999
 30
0.0
 11
103.2739999999999
 21
125.68899999999999
 31
0.0
  0
LINE
  5
2D
  8
0
 62
     7
 10
103.2739999999999
 20
125.68899999999999
 30
0.0
 11
101.06399999999989
 21
126.28099999999991
 31
0.0
  0
LINE
  5
2E
  8
0
 62
     7
 10
101.06399999999989
 20
126.28099999999991
 30
0.0
 11
101.06399999999989
 21
125.09699999999999
 31
0.0
  0
LINE
  5
2F
  8
0
 62
     7
 10
85.275800000000004
 20
125.682
 30
0.0
 11
103.2739999999999
 21
125.682
 31
0.0
  0
LINE
  5
30
  8
0
 62
     7
 10
118.786
 20
149.143
 30
0.0
 11
118.1939999999999
 21
151.3539999999999
 31
0.0
  0
LINE
  5
31
  8
0
 62
     7
 10
118.1939999999999
 20
151.3539999999999
 30
0.0
 11
117.602
 21
149.143
 31
0.0
  0
LINE
  5
32
  8
0
 62
     7
 10
117.602
 20
149.143
 30
0.0
 11
118.786
 21
149.143
 31
0.0
  0
LINE
  5
33
  8
0
 62
     7
 10
117.616
 20
134.42500000000001
 30
0.0
 11
118.209
 21
132.215
 31
0.0
  0
LINE
  5
34
  8
0
 62
     7
 10
118.209
 20
132.215
 30
0.0
 11
118.801
 21
134.42500000000001
 31
0.0
  0
LINE
  5
35
  8
0
 62
     7
 10
118.801
 20
134.42500000000001
 30
0.0
 11
117.616
 21
134.42500000000001
 31
0.0
  0
LINE
  5
36
  8
0
 62
     7
 10
118.20099999999999
 20
151.2359999999999
 30
0.0
 11
118.20099999999999
 21
132.215
 31
0.0
  0
LINE
  5
37
  8
0
 62
     7
 10
103.21599999999999
 20
124.952
 30
0.0
 11
103.21599999999999
 21
133.11600000000001
 31
0.0
  0
LINE
  5
38
  8
0
 62
     7
 10
85.215500000000006
 20
133.11600000000001
 30
0.0
 11
85.215500000000006
 21
124.952
 31
0.0
  0
LINE
  5
39
  8
0
 62
     7
 10
118.77799999999991
 20
151.33799999999991
 30
0.0
 11
101.5079999999999
 21
151.33799999999991
 31
0.0
  0
LINE
  5
3A
  8
0
 62
     7
 10
118.982
 20
132.14699999999999
 30
0.0
 11
101.5079999999999
 21
132.14699999999999
 31
0.0
  0
LINE
  5
3B
  8
0
 62
     7
 10
111.86
 20
146.52699999999999
 30
0.0
 11
111.267
 21
148.73799999999989
 31
0.0
  0
LINE
  5
3C
  8
0
 62
     7
 10
111.267
 20
148.73799999999989
 30
0.0
 11
110.6749999999999
 21
146.52699999999999
 31
0.0
  0
LINE
  5
3D
  8
0
 62
     7
 10
110.6749999999999
 20
146.52699999999999
 30
0.0
 11
111.86
 21
146.52699999999999
 31
0.0
  0
LINE
  5
3E
  8
0
 62
     7
 10
110.6899999999999
 20
144.93100000000001
 30
0.0
 11
111.282
 21
142.721
 31
0.0
  0
LINE
  5
3F
  8
0
 62
     7
 10
111.282
 20
142.721
 30
0.0
 11
111.874
 21
144.93100000000001
 31
0.0
  0
LINE
  5
40
  8
0
 62
     7
 10
111.874
 20
144.93100000000001
 30
0.0
 11
110.6899999999999
 21
144.93100000000001
 31
0.0
  0
LINE
  5
41
  8
0
 62
     7
 10
111.27500000000001
 20
148.5929999999999
 30
0.0
 11
111.27500000000001
 21
142.721
 31
0.0
  0
LINE
  5
42
  8
0
 62
     7
 10
112.3359999999999
 20
142.75200000000001
 30
0.0
 11
100.309
 21
142.75200000000001
 31
0.0
  0
LINE
  5
43
  8
0
 62
     7
 10
112.3359999999999
 20
148.75399999999991
 30
0.0
 11
100.309
 21
148.75399999999991
 31
0.0
  0
LINE
  5
44
  8
0
 62
     7
 10
88.391900000000007
 20
145.58000000000001
 30
0.0
 11
86.181299999999979
 21
144.988
 31
0.0
  0
LINE
  5
45
  8
0
 62
     7
 10
86.181299999999979
 20
144.988
 30
0.0
 11
88.391900000000007
 21
144.39500000000001
 31
0.0
  0
LINE
  5
46
  8
0
 62
     7
 10
88.391900000000007
 20
144.39500000000001
 30
0.0
 11
88.391900000000007
 21
145.58000000000001
 31
0.0
  0
LINE
  5
47
  8
0
 62
     7
 10
89.982200000000006
 20
144.40999999999991
 30
0.0
 11
92.192699999999988
 21
145.00200000000001
 31
0.0
  0
LINE
  5
48
  8
0
 62
     7
 10
92.192699999999988
 20
145.00200000000001
 30
0.0
 11
89.982200000000006
 21
145.595
 31
0.0
  0
LINE
  5
49
  8
0
 62
     7
 10
89.982200000000006
 20
145.595
 30
0.0
 11
89.982200000000006
 21
144.40999999999991
 31
0.0
  0
LINE
  5
4A
  8
0
 62
     7
 10
86.181299999999979
 20
144.995
 30
0.0
 11
92.192699999999988
 21
144.995
 31
0.0
  0
LINE
  5
4B
  8
0
 62
     7
 10
92.1875
 20
145.459
 30
0.0
 11
92.1875
 21
140.084
 31
0.0
  0
LINE
  5
4C
  8
0
 62
     7
 10
86.142099999999985
 20
145.459
 30
0.0
 11
86.142099999999985
 21
140.084
 31
0.0
  0
LINE
  5
4D
  8
0
 62
     7
 10
91.125900000000001
 20
140.54599999999991
 30
0.0
 11
91.125900000000001
 21
135.93100000000001
 31
0.0
  0
LINE
  5
4E
  8
0
 62
     7
 10
103.9079999999999
 20
140.5
 30
0.0
 11
103.21599999999999
 21
140.5
 31
0.0
  0
LINE
  5
4F
  8
0
 62
     7
 10
103.9079999999999
 20
135.977
 30
0.0
 11
103.21599999999999
 21
135.977
 31
0.0
  0
LINE
  5
50
  8
0
 62
     7
 10
99.708800000000011
 20
151.29900000000001
 30
0.0
 11
99.708800000000011
 21
152.584
 31
0.0
  0
LINE
  5
51
  8
0
 62
     7
 10
97.096800000000002
 20
151.37200000000001
 30
0.0
 11
97.096800000000002
 21
152.584
 31
0.0
  0
LINE
  5
52
  8
0
 62
     7
 10
97.096800000000002
 20
144.001
 30
0.0
 11
97.096800000000002
 21
148.5989999999999
 31
0.0
  0
LINE
  5
53
  8
0
 62
     7
 10
99.182500000000005
 20
151.37200000000001
 30
0.0
 11
99.182500000000005
 21
152.584
 31
0.0
  0
LINE
  5
54
  8
0
 62
     7
 10
99.182500000000005
 20
144.001
 30
0.0
 11
99.182500000000005
 21
148.5989999999999
 31
0.0
  0
LINE
  5
55
  8
0
 62
     7
 10
99.708800000000011
 20
144.423
 30
0.0
 11
99.708800000000011
 21
148.34299999999999
 31
0.0
  0
LINE
  5
56
  8
0
 62
     7
 10
96.570600000000013
 20
151.30000000000001
 30
0.0
 11
96.570600000000013
 21
152.584
 31
0.0
  0
LINE
  5
57
  8
0
 62
     7
 10
96.570600000000013
 20
144.423
 30
0.0
 11
96.570600000000013
 21
148.34200000000001
 31
0.0
  0
LINE
  5
58
  8
0
 62
     7
 10
104.97
 20
133.6699999999999
 30
0.0
 11
104.97
 21
142.85299999999989
 31
0.0
  0
LINE
  5
59
  8
0
 62
     7
 10
103.9079999999999
 20
142.85299999999989
 30
0.0
 11
103.9079999999999
 21
133.6699999999999
 31
0.0
  0
LINE
  5
5A
  8
0
 62
     7
 10
103.9079999999999
 20
133.6699999999999
 30
0.0
 11
104.97
 21
133.6699999999999
 31
0.0
  0
ARC
  5
5B
  8
0
 62
     7
 10
96.283912999999998
 20
138.27370500000001
 30
0.0
 40
9.8305699999999998
 50
332.07248599999991
 51
16.511084
  0
ARC
  5
5C
  8
0
 62
     7
 10
96.414113000000015
 20
138.264036
 30
0.0
 40
9.708596
 50
16.784167
 51
28.208866999999991
  0
LINE
  5
5D
  8
0
 62
     7
 10
104.97
 20
142.85299999999989
 30
0.0
 11
103.9079999999999
 21
142.85299999999989
 31
0.0
  0
LINE
  5
5E
  8
0
  6
AIGENLINE001
 62
     7
 10
82.385700000000014
 20
138.26199999999989
 30
0.0
 11
108.20399999999989
 21
138.26199999999989
 31
0.0
  0
LINE
  5
5F
  8
0
 62
     7
 10
93.063299999999998
 20
133.6699999999999
 30
0.0
 11
85.215500000000006
 21
133.6699999999999
 31
0.0
  0
LINE
  5
60
  8
0
 62
     7
 10
85.215500000000006
 20
133.6699999999999
 30
0.0
 11
85.215500000000006
 21
142.85299999999989
 31
0.0
  0
LINE
  5
61
  8
0
 62
     7
 10
85.215500000000006
 20
142.85299999999989
 30
0.0
 11
93.063299999999998
 21
142.85299999999989
 31
0.0
  0
LINE
  5
62
  8
0
 62
     7
 10
99.708800000000011
 20
144.423
 30
0.0
 11
96.570600000000013
 21
144.423
 31
0.0
  0
LINE
  5
63
  8
0
 62
     7
 10
99.182500000000005
 20
144.001
 30
0.0
 11
97.096800000000002
 21
144.001
 31
0.0
  0
ARC
  5
64
  8
0
 62
     7
 10
101.7987219999999
 20
151.77462199999999
 30
0.0
 40
3.167784999999999
 50
86.901314999999997
 51
114.334745
  0
ARC
  5
65
  8
0
 62
     7
 10
101.85688999999989
 20
156.7020949999999
 30
0.0
 40
4.1194040000000003
 50
250.67074099999999
 51
271.572856
  0
ARC
  5
66
  8
0
 62
     7
 10
94.422487999999987
 20
156.70296499999989
 30
0.0
 40
4.1202740000000002
 50
268.42717199999998
 51
289.32723199999992
  0
ARC
  5
67
  8
0
 62
     7
 10
94.480781000000007
 20
151.77459699999989
 30
0.0
 40
3.167818
 50
65.665012000000004
 51
93.101309000000001
  0
ARC
  5
68
  8
0
 62
     7
 10
98.139764000000014
 20
150.56380899999999
 30
0.0
 40
4.3710009999999997
 50
69.610913999999994
 51
110.3890659999999
  0
ARC
  5
69
  8
0
 62
     7
 10
98.139764000000014
 20
157.76635200000001
 30
0.0
 40
5.1803410000000003
 50
252.90465499999991
 51
287.09536500000002
  0
LINE
  5
6A
  8
0
 62
     7
 10
99.662599999999998
 20
154.661
 30
0.0
 11
99.662599999999998
 21
152.815
 31
0.0
  0
LINE
  5
6B
  8
0
 62
     7
 10
99.662599999999998
 20
152.815
 30
0.0
 11
100.4929999999999
 21
152.815
 31
0.0
  0
LINE
  5
6C
  8
0
 62
     7
 10
100.4929999999999
 20
152.815
 30
0.0
 11
100.4929999999999
 21
154.661
 31
0.0
  0
LINE
  5
6D
  8
0
 62
     7
 10
100.4929999999999
 20
154.661
 30
0.0
 11
99.662599999999998
 21
154.661
 31
0.0
  0
LINE
  5
6E
  8
0
 62
     7
 10
96.616900000000001
 20
154.661
 30
0.0
 11
96.616900000000001
 21
152.815
 31
0.0
  0
LINE
  5
6F
  8
0
 62
     7
 10
96.616900000000001
 20
152.815
 30
0.0
 11
95.786100000000005
 21
152.815
 31
0.0
  0
LINE
  5
70
  8
0
 62
     7
 10
95.786100000000005
 20
152.815
 30
0.0
 11
95.786100000000005
 21
154.661
 31
0.0
  0
LINE
  5
71
  8
0
 62
     7
 10
95.786100000000005
 20
154.661
 30
0.0
 11
96.616900000000001
 21
154.661
 31
0.0
  0
LINE
  5
72
  8
0
 62
     7
 10
94.309399999999997
 20
154.93799999999999
 30
0.0
 11
94.309399999999997
 21
152.584
 31
0.0
  0
LINE
  5
73
  8
0
 62
     7
 10
94.309399999999997
 20
152.584
 30
0.0
 11
101.97
 21
152.584
 31
0.0
  0
LINE
  5
74
  8
0
 62
     7
 10
101.97
 20
152.584
 30
0.0
 11
101.97
 21
154.93799999999999
 31
0.0
  0
LINE
  5
75
  8
0
 62
     7
 10
101.97
 20
154.93799999999999
 30
0.0
 11
94.309399999999997
 21
154.93799999999999
 31
0.0
  0
ARC
  5
76
  8
0
 62
     7
 10
98.149561000000006
 20
141.94504499999999
 30
0.0
 40
9.4873089999999998
 50
102.5879819999999
 51
122.4193689999999
  0
ARC
  5
77
  8
0
 62
     7
 10
98.118046000000007
 20
141.846203
 30
0.0
 40
9.5770490000000006
 50
57.839173000000002
 51
102.2750969999999
  0
LINE
  5
78
  8
0
 62
     7
 10
103.21599999999999
 20
149.95400000000001
 30
0.0
 11
103.21599999999999
 21
133.62399999999991
 31
0.0
  0
ARC
  5
79
  8
0
 62
     7
 10
98.137030000000024
 20
141.61658399999999
 30
0.0
 40
9.4701520000000006
 50
282.56632400000001
 51
302.43221599999998
  0
ARC
  5
7A
  8
0
 62
     7
 10
98.161017000000001
 20
141.73266299999989
 30
0.0
 40
9.5783550000000002
 50
237.84494799999999
 51
282.27520099999992
  0
LINE
  5
7B
  8
0
 62
     7
 10
93.063299999999998
 20
133.62399999999991
 30
0.0
 11
93.063299999999998
 21
149.95400000000001
 31
0.0
  0
ARC
  5
7C
  8
0
 62
     7
 10
89.107765999999998
 20
138.22410099999991
 30
0.0
 40
3.0338240000000001
 50
0.270629
 51
44.735629000000003
  0
ARC
  5
7D
  8
0
 62
     7
 10
89.124892000000017
 20
138.19785100000001
 30
0.0
 40
3.040289
 50
45.314205999999999
 51
89.686097000000004
  0
ARC
  5
7E
  8
0
 62
     7
 10
89.155878000000001
 20
138.20430500000001
 30
0.0
 40
3.0338240000000001
 50
90.270619000000011
 51
134.7356189999999
  0
ARC
  5
7F
  8
0
 62
     7
 10
89.178776999999997
 20
138.223062
 30
0.0
 40
3.0367589999999991
 50
135.29163299999999
 51
179.71001299999989
  0
ARC
  5
80
  8
0
 62
     7
 10
89.178729000000004
 20
138.25360599999999
 30
0.0
 40
3.0367099999999989
 50
180.28634199999991
 51
224.70872199999999
  0
ARC
  5
81
  8
0
 62
     7
 10
89.156109999999998
 20
138.272944
 30
0.0
 40
3.0343840000000002
 50
225.268708
 51
269.725054
  0
ARC
  5
82
  8
0
 62
     7
 10
89.127228000000002
 20
138.27319700000001
 30
0.0
 40
3.034635999999999
 50
270.27037200000001
 51
314.72932500000002
  0
ARC
  5
83
  8
0
 62
     7
 10
89.104243999999994
 20
138.2540459999999
 30
0.0
 40
3.0373519999999989
 50
315.2916009999999
 51
359.70543199999992
  0
ARC
  5
84
  8
0
 62
     7
 10
98.104664999999997
 20
145.77391399999991
 30
0.0
 40
3.0350549999999989
 50
0.2703250000000001
 51
44.726063000000003
  0
ARC
  5
85
  8
0
 62
     7
 10
98.124668000000014
 20
145.751552
 30
0.0
 40
3.0367269999999991
 50
45.291415000000001
 51
89.713541000000006
  0
ARC
  5
86
  8
0
 62
     7
 10
98.154165000000006
 20
145.75322700000001
 30
0.0
 40
3.0350479999999989
 50
90.270228000000003
 51
134.721486
  0
ARC
  5
87
  8
0
 62
     7
 10
98.174618999999993
 20
145.7737679999999
 30
0.0
 40
3.0349840000000001
 50
135.26872900000001
 51
179.72690199999991
  0
ARC
  5
88
  8
0
 62
     7
 10
98.173857999999996
 20
145.80255600000001
 30
0.0
 40
3.0342220000000002
 50
180.27048600000001
 51
224.73717300000001
  0
ARC
  5
89
  8
0
 62
     7
 10
98.153666999999999
 20
145.82220799999999
 30
0.0
 40
3.0338430000000001
 50
225.269215
 51
269.73907000000003
  0
ARC
  5
8A
  8
0
 62
     7
 10
98.125524999999996
 20
145.82301699999999
 30
0.0
 40
3.0346540000000002
 50
270.27047799999991
 51
314.72456599999998
  0
ARC
  5
8B
  8
0
 62
     7
 10
98.102405000000005
 20
145.803662
 30
0.0
 40
3.0373199999999998
 50
315.29137200000002
 51
359.70895000000002
  0
LINE
  5
8C
  8
_________2
 62
     7
 10
205.30099999999999
 20
127.41200000000001
 30
0.0
 11
183.55099999999999
 21
127.41200000000001
 31
0.0
  0
LINE
  5
8D
  8
_________2
 62
     7
 10
100.2999999999999
 20
-4.0909000000000004
 30
0.0
 11
100.2999999999999
 21
-21.070900000000002
 31
0.0
  0
LINE
  5
8E
  8
_________2
 62
     7
 10
100.2999999999999
 20
275.93099999999993
 30
0.0
 11
100.2999999999999
 21
258.911
 31
0.0
  0
LINE
  5
8F
  8
_________2
 62
     7
 10
17.049600000000002
 20
127.41200000000001
 30
0.0
 11
-4.70052
 21
127.41200000000001
 31
0.0
  0
LINE
  5
90
  8
_________2
 62
     7
 10
76.741200000000006
 20
28.740500000000001
 30
0.0
 11
74.554699999999997
 21
28.740500000000001
 31
0.0
  0
LINE
  5
91
  8
_________2
 62
     7
 10
77.233800000000002
 20
28.740500000000001
 30
0.0
 11
76.981700000000004
 21
28.740500000000001
 31
0.0
  0
LINE
  5
92
  8
_________2
 62
     7
 10
77.726299999999995
 20
28.740500000000001
 30
0.0
 11
80.651399999999995
 21
28.740500000000001
 31
0.0
  0
LINE
  5
93
  8
_________2
 62
     7
 10
77.233800000000002
 20
28.740500000000001
 30
0.0
 11
77.485699999999994
 21
28.740500000000001
 31
0.0
  0
LINE
  5
94
  8
_________2
 62
     7
 10
70.837299999999999
 20
28.740500000000001
 30
0.0
 11
68.650499999999994
 21
28.740500000000001
 31
0.0
  0
LINE
  5
95
  8
_________2
 62
     7
 10
71.329800000000006
 20
28.740500000000001
 30
0.0
 11
71.077799999999996
 21
28.740500000000001
 31
0.0
  0
LINE
  5
96
  8
_________2
 62
     7
 10
71.329800000000006
 20
29.233000000000001
 30
0.0
 11
71.329800000000006
 21
31.419599999999999
 31
0.0
  0
LINE
  5
97
  8
_________2
 62
     7
 10
71.329800000000006
 20
28.740500000000001
 30
0.0
 11
71.329800000000006
 21
28.992699999999989
 31
0.0
  0
LINE
  5
98
  8
_________2
 62
     7
 10
71.822400000000002
 20
28.740500000000001
 30
0.0
 11
74.009
 21
28.740500000000001
 31
0.0
  0
LINE
  5
99
  8
_________2
 62
     7
 10
71.329800000000006
 20
28.740500000000001
 30
0.0
 11
71.581999999999994
 21
28.740500000000001
 31
0.0
  0
LINE
  5
9A
  8
_________2
 62
     7
 10
71.329800000000006
 20
28.248100000000001
 30
0.0
 11
71.329800000000006
 21
26.061499999999992
 31
0.0
  0
LINE
  5
9B
  8
_________2
 62
     7
 10
71.329800000000006
 20
28.740500000000001
 30
0.0
 11
71.329800000000006
 21
28.488700000000001
 31
0.0
  0
LINE
  5
9C
  8
_________2
 62
     7
 10
75.040899999999993
 20
27.521000000000001
 30
0.0
 11
80.218500000000006
 21
26.6557
 31
0.0
  0
LINE
  5
9D
  8
_________2
 62
     7
 10
75.040899999999993
 20
29.960100000000001
 30
0.0
 11
80.218500000000006
 21
30.825399999999991
 31
0.0
  0
LINE
  5
9E
  8
_________2
 62
     7
 10
80.218500000000006
 20
26.6557
 30
0.0
 11
80.218500000000006
 21
30.825399999999991
 31
0.0
  0
LINE
  5
9F
  8
_________2
 62
     7
 10
75.040899999999993
 20
27.521000000000001
 30
0.0
 11
75.040899999999993
 21
29.960100000000001
 31
0.0
  0
ARC
  5
A0
  8
_________2
 62
     7
 10
71.329860999999994
 20
28.740459999999992
 30
0.0
 40
1.219657999999999
 50
0.004056
 51
90.004025999999996
  0
ARC
  5
A1
  8
_________2
 62
     7
 10
71.329689000000002
 20
28.740459999999992
 30
0.0
 40
1.219657999999999
 50
89.995953999999998
 51
179.99592399999989
  0
ARC
  5
A2
  8
_________2
 62
     7
 10
71.329689000000002
 20
28.740632000000002
 30
0.0
 40
1.2196569999999991
 50
180.00405599999999
 51
270.00406600000002
  0
ARC
  5
A3
  8
_________2
 62
     7
 10
71.329860999999994
 20
28.740632999999999
 30
0.0
 40
1.219657999999999
 50
269.99597399999999
 51
359.99594400000001
  0
ARC
  5
A4
  8
_________2
 62
     7
 10
71.329688000000004
 20
28.740632000000002
 30
0.0
 40
2.0847269999999991
 50
359.9976430000001
 51
89.997613000000015
  0
ARC
  5
A5
  8
_________2
 62
     7
 10
71.329774999999984
 20
28.740545999999998
 30
0.0
 40
2.084813
 50
90.0
 51
179.99996999999991
  0
ARC
  5
A6
  8
_________2
 62
     7
 10
71.329774999999984
 20
28.740545999999998
 30
0.0
 40
2.084811999999999
 50
179.99996999999991
 51
270.00002000000001
  0
ARC
  5
A7
  8
_________2
 62
     7
 10
71.329688000000004
 20
28.740461
 30
0.0
 40
2.0847269999999991
 50
270.00238699999989
 51
0.002357
  0
TEXT
  5
A8
  8
_________2
 62
     7
 10
32.7119
 20
18.486999999999998
 30
0.0
 40
2.5300899999999991
  1
福田
 41
0.5
  0
TEXT
  5
A9
  8
_________2
 62
     7
 10
22.456299999999992
 20
18.486999999999998
 30
0.0
 40
2.5300899999999991
  1
石原
 41
0.5
  0
TEXT
  5
AA
  8
_________2
 62
     7
 10
104.605
 20
11.6669
 30
0.0
 40
2.248969999999999
  1
図番
 41
0.5
  0
TEXT
  5
AB
  8
_________2
 62
     7
 10
104.605
 20
30.805199999999989
 30
0.0
 40
2.248969999999999
  1
名称
 41
0.5
  0
TEXT
  5
AC
  8
_________2
 62
     7
 10
90.890100000000004
 20
25.319700000000001
 30
0.0
 40
3.3734599999999988
  1
m m
 41
0.5
  0
TEXT
  5
AD
  8
_________2
 62
     7
 10
85.643199999999993
 20
30.805199999999989
 30
0.0
 40
2.248969999999999
  1
単位
 41
0.5
  0
TEXT
  5
AE
  8
_________2
 62
     7
 10
85.643199999999993
 20
20.398199999999999
 30
0.0
 40
2.248969999999999
  1
尺度
 41
0.5
  0
TEXT
  5
AF
  8
_________2
 62
     7
 10
88.186599999999984
 20
14.077999999999991
 30
0.0
 40
3.6545800000000002
  1
1 ： 1
 41
0.5
  0
TEXT
  5
B0
  8
_________2
 62
     7
 10
138.13841249999999
 20
1.64625
 30
0.0
 40
3.9357000000000002
  1
CET550
 41
0.5
 72
     1
 11
143.55000000000001
 21
1.64625
 31
0.0
  0
TEXT
  5
B1
  8
_________2
 62
     7
 10
24.587099999999989
 20
0.7074550000000001
 30
0.0
 40
3.9357000000000002
  1
引棒、キックレバー連結用
 41
0.5
  0
TEXT
  5
B2
  8
_________2
 62
     7
 10
109.179
 20
24.226099999999999
 30
0.0
 40
3.9357000000000002
  1
連結金具
 41
0.5
  0
TEXT
  5
B3
  8
_________2
 62
     7
 10
67.785600000000002
 20
14.077999999999991
 30
0.0
 40
3.6545800000000002
  1
02.01.25
 41
0.5
  0
TEXT
  5
B4
  8
_________2
 62
     7
 10
66.593100000000007
 20
20.398199999999999
 30
0.0
 40
2.248969999999999
  1
日付
 41
0.5
  0
TEXT
  5
B5
  8
_________2
 62
     7
 10
29.639399999999998
 20
20.398199999999999
 30
0.0
 40
2.248969999999999
  1
検図
 41
0.5
  0
TEXT
  5
B6
  8
_________2
 62
     7
 10
18.021399999999989
 20
6.1988000000000003
 30
0.0
 40
2.248969999999999
  1
備考
 41
0.5
  0
TEXT
  5
B7
  8
_________2
 62
     7
 10
18.021399999999989
 20
20.398199999999999
 30
0.0
 40
2.248969999999999
  1
製図
 41
0.5
  0
TEXT
  5
B8
  8
_________2
 62
     7
 10
23.788665333333341
 20
26.7179
 30
0.0
 40
4.4979399999999989
  1
セラトレーディング株式会社
 41
0.5
 72
     1
 11
41.180700000000002
 21
26.7179
 31
0.0
  0
LINE
  5
B9
  8
_________2
 62
     7
 10
183.55099999999999
 20
-4.0909000000000004
 30
0.0
 11
17.049600000000002
 21
-4.0909000000000004
 31
0.0
  0
LINE
  5
BA
  8
_________2
 62
     7
 10
17.049600000000002
 20
-4.0909000000000004
 30
0.0
 11
17.049600000000002
 21
258.911
 31
0.0
  0
LINE
  5
BB
  8
_________2
 62
     7
 10
17.049600000000002
 20
258.911
 30
0.0
 11
183.55099999999999
 21
258.911
 31
0.0
  0
LINE
  5
BC
  8
_________2
 62
     7
 10
183.55099999999999
 20
258.911
 30
0.0
 11
183.55099999999999
 21
-4.0909000000000004
 31
0.0
  0
LINE
  5
BD
  8
_________2
 62
     7
 10
65.549700000000001
 20
9.4091300000000011
 30
0.0
 11
65.549700000000001
 21
33.909300000000002
 31
0.0
  0
LINE
  5
BE
  8
_________2
 62
     7
 10
84.549899999999994
 20
9.4091300000000011
 30
0.0
 11
84.549899999999994
 21
33.909300000000002
 31
0.0
  0
LINE
  5
BF
  8
_________2
 62
     7
 10
103.55
 20
-4.0909000000000004
 30
0.0
 11
103.55
 21
33.909300000000002
 31
0.0
  0
LINE
  5
C0
  8
_________2
 62
     7
 10
28.549700000000001
 20
9.4091300000000011
 30
0.0
 11
28.549700000000001
 21
23.409199999999998
 31
0.0
  0
LINE
  5
C1
  8
_________2
 62
     7
 10
17.049600000000002
 20
9.4091300000000011
 30
0.0
 11
103.55
 21
9.4091300000000011
 31
0.0
  0
LINE
  5
C2
  8
_________2
 62
     7
 10
17.049600000000002
 20
23.409199999999998
 30
0.0
 11
103.55
 21
23.409199999999998
 31
0.0
  0
LINE
  5
C3
  8
_________2
 62
     7
 10
103.55
 20
14.9091
 30
0.0
 11
183.55099999999999
 21
14.9091
 31
0.0
  0
LINE
  5
C4
  8
_________2
 62
     7
 10
17.049600000000002
 20
33.909300000000002
 30
0.0
 11
183.55099999999999
 21
33.909300000000002
 31
0.0
  0
ENDSEC
  0
EOF
