  0
SECTION
  2
HEADER
  9
$ACADVER
  1
AC1009
  9
$INSBASE
 10
0.0
 20
0.0
 30
0.0
  9
$EXTMIN
 10
-4.7008599999999987
 20
-21.070999999999991
 30
0.0
  9
$EXTMAX
 10
205.30099999999999
 20
275.93099999999993
 30
0.0
  9
$LIMMIN
 10
0.0
 20
0.0
  9
$LIMMAX
 10
12.0
 20
9.0
  9
$ORTHOMODE
 70
     0
  9
$REGENMODE
 70
     1
  9
$FILLMODE
 70
     1
  9
$QTEXTMODE
 70
     0
  9
$MIRRTEXT
 70
     1
  9
$DRAGMODE
 70
     2
  9
$LTSCALE
 40
1.0
  9
$OSMODE
 70
    37
  9
$ATTMODE
 70
     1
  9
$TEXTSIZE
 40
0.0
  9
$TRACEWID
 40
0.05
  9
$TEXTSTYLE
  7
STANDARD
  9
$CLAYER
  8
0
  9
$CELTYPE
  6
CONTINUOUS
  9
$CECOLOR
 62
   256
  9
$DIMSCALE
 40
1.0
  9
$DIMASZ
 40
0.18
  9
$DIMEXO
 40
0.0625
  9
$DIMDLI
 40
0.38
  9
$DIMRND
 40
0.0
  9
$DIMDLE
 40
0.0
  9
$DIMEXE
 40
0.18
  9
$DIMTP
 40
0.0
  9
$DIMTM
 40
0.0
  9
$DIMTXT
 40
0.18
  9
$DIMCEN
 40
0.09
  9
$DIMTSZ
 40
0.0
  9
$DIMTOL
 70
     0
  9
$DIMLIM
 70
     0
  9
$DIMTIH
 70
     1
  9
$DIMTOH
 70
     1
  9
$DIMSE1
 70
     0
  9
$DIMSE2
 70
     0
  9
$DIMTAD
 70
     0
  9
$DIMZIN
 70
     0
  9
$DIMBLK
  1

  9
$DIMASO
 70
     1
  9
$DIMSHO
 70
     1
  9
$DIMPOST
  1

  9
$DIMAPOST
  1

  9
$DIMALT
 70
     0
  9
$DIMALTD
 70
     2
  9
$DIMALTF
 40
25.399999999999999
  9
$DIMLFAC
 40
1.0
  9
$DIMTOFL
 70
     0
  9
$DIMTVP
 40
0.0
  9
$DIMTIX
 70
     0
  9
$DIMSOXD
 70
     0
  9
$DIMSAH
 70
     0
  9
$DIMBLK1
  1

  9
$DIMBLK2
  1

  9
$DIMSTYLE
  2
STANDARD
  9
$DIMCLRD
 70
     0
  9
$DIMCLRE
 70
     0
  9
$DIMCLRT
 70
     0
  9
$DIMTFAC
 40
1.0
  9
$DIMGAP
 40
0.09
  9
$LUNITS
 70
     2
  9
$LUPREC
 70
     4
  9
$SKETCHINC
 40
0.1
  9
$FILLETRAD
 40
0.0
  9
$AUNITS
 70
     0
  9
$AUPREC
 70
     0
  9
$MENU
  1
.
  9
$ELEVATION
 40
0.0
  9
$PELEVATION
 40
0.0
  9
$THICKNESS
 40
0.0
  9
$LIMCHECK
 70
     0
  9
$BLIPMODE
 70
     0
  9
$CHAMFERA
 40
0.0
  9
$CHAMFERB
 40
0.0
  9
$SKPOLY
 70
     0
  9
$TDCREATE
 40
2444972.375
  9
$TDUPDATE
 40
2454458.2901519099
  9
$TDINDWG
 40
0.0000058796
  9
$TDUSRTIMER
 40
0.0000058796
  9
$USRTIMER
 70
     1
  9
$ANGBASE
 50
0.0
  9
$ANGDIR
 70
     0
  9
$PDMODE
 70
     0
  9
$PDSIZE
 40
0.0
  9
$PLINEWID
 40
0.0
  9
$COORDS
 70
     1
  9
$SPLFRAME
 70
     0
  9
$SPLINETYPE
 70
     6
  9
$SPLINESEGS
 70
     8
  9
$ATTDIA
 70
     0
  9
$ATTREQ
 70
     1
  9
$HANDLING
 70
     1
  9
$HANDSEED
  5
F4
  9
$SURFTAB1
 70
     6
  9
$SURFTAB2
 70
     6
  9
$SURFTYPE
 70
     6
  9
$SURFU
 70
     6
  9
$SURFV
 70
     6
  9
$UCSNAME
  2

  9
$UCSORG
 10
0.0
 20
0.0
 30
0.0
  9
$UCSXDIR
 10
1.0
 20
0.0
 30
0.0
  9
$UCSYDIR
 10
0.0
 20
1.0
 30
0.0
  9
$PUCSNAME
  2

  9
$PUCSORG
 10
0.0
 20
0.0
 30
0.0
  9
$PUCSXDIR
 10
1.0
 20
0.0
 30
0.0
  9
$PUCSYDIR
 10
0.0
 20
1.0
 30
0.0
  9
$USERI1
 70
     0
  9
$USERI2
 70
     0
  9
$USERI3
 70
     0
  9
$USERI4
 70
     0
  9
$USERI5
 70
     0
  9
$USERR1
 40
0.0
  9
$USERR2
 40
0.0
  9
$USERR3
 40
0.0
  9
$USERR4
 40
0.0
  9
$USERR5
 40
0.0
  9
$WORLDVIEW
 70
     1
  9
$SHADEDGE
 70
     3
  9
$SHADEDIF
 70
    70
  9
$TILEMODE
 70
     1
  9
$MAXACTVP
 70
    48
  9
$PLIMCHECK
 70
     0
  9
$PEXTMIN
 10
1.0000000000000000E+020
 20
1.0000000000000000E+020
 30
1.0000000000000000E+020
  9
$PEXTMAX
 10
-1.0000000000000000E+020
 20
-1.0000000000000000E+020
 30
-1.0000000000000000E+020
  9
$PLIMMIN
 10
0.0
 20
0.0
  9
$PLIMMAX
 10
12.0
 20
9.0
  9
$UNITMODE
 70
     0
  9
$VISRETAIN
 70
     1
  9
$PLINEGEN
 70
     0
  9
$PSLTSCALE
 70
     1
  0
ENDSEC
  0
SECTION
  2
TABLES
  0
TABLE
  2
VPORT
 70
     2
  0
VPORT
  2
*ACTIVE
 70
     0
 10
0.0
 20
0.0
 11
1.0
 21
1.0
 12
195.35142365652419
 22
127.42999999999989
 13
0.0
 23
0.0
 14
1.0
 24
1.0
 15
0.0
 25
0.0
 16
0.0
 26
0.0
 36
1.0
 17
0.0
 27
0.0
 37
0.0
 40
299.34059842519679
 41
2.2894736842105261
 42
50.0
 43
0.0
 44
0.0
 50
0.0
 51
0.0
 71
     0
 72
   100
 73
     1
 74
     1
 75
     0
 76
     0
 77
     0
 78
     0
  0
ENDTAB
  0
TABLE
  2
LTYPE
 70
     2
  0
LTYPE
  2
CONTINUOUS
 70
     0
  3
Solid line
 72
    65
 73
     0
 40
0.0
  0
LTYPE
  2
AIGENLINE001
 70
     0
  3
generate AI->DXF Converter
 72
    65
 73
     4
 40
5.8561449999999988
 49
3.5278
 49
-0.776115
 49
0.776115
 49
-0.776115
  0
ENDTAB
  0
TABLE
  2
LAYER
 70
     2
  0
LAYER
  2
0
 70
     0
 62
     7
  6
CONTINUOUS
  0
LAYER
  2
_________2
 70
     0
 62
     7
  6
CONTINUOUS
  0
ENDTAB
  0
TABLE
  2
STYLE
 70
     1
  0
STYLE
  2
STANDARD
 70
     0
 40
0.0
 41
0.0
 50
0.0
 71
     0
 42
0.0
  3
TXT
  4
EXTFONT.SHX
  0
ENDTAB
  0
TABLE
  2
VIEW
 70
     0
  0
ENDTAB
  0
TABLE
  2
UCS
 70
     0
  0
ENDTAB
  0
TABLE
  2
APPID
 70
     1
  0
APPID
  2
ACAD
 70
     0
  0
ENDTAB
  0
TABLE
  2
DIMSTYLE
 70
     1
  0
DIMSTYLE
  2
STANDARD
 70
     0
  3

  4

  5

  6

  7

 40
1.0
 41
0.18
 42
0.0625
 43
0.38
 44
0.18
 45
0.0
 46
0.0
 47
0.0
 48
0.0
140
0.18
141
0.09
142
0.0
143
25.399999999999999
144
1.0
145
0.0
146
1.0
147
0.09
 71
     0
 72
     0
 73
     1
 74
     1
 75
     0
 76
     0
 77
     0
 78
     0
170
     0
171
     2
172
     0
173
     0
174
     0
175
     0
176
     0
177
     0
178
     0
  0
ENDTAB
  0
ENDSEC
  0
SECTION
  2
BLOCKS
  0
BLOCK
  8
0
  2
$MODEL_SPACE
 70
     0
 10
0.0
 20
0.0
 30
0.0
  3
$MODEL_SPACE
  1

  0
ENDBLK
  5
1A
  8
0
  0
BLOCK
 67
     1
  8
0
  2
$PAPER_SPACE
 70
     0
 10
0.0
 20
0.0
 30
0.0
  3
$PAPER_SPACE
  1

  0
ENDBLK
  5
17
 67
     1
  8
0
  0
ENDSEC
  0
SECTION
  2
ENTITIES
  0
TEXT
  5
22
  8
0
 62
     7
 10
91.840108999999998
 20
77.895499999999998
 30
0.0
 40
3.0923400000000001
  1
G1 1/4
 41
0.5
 72
     1
 11
95.396299999999997
 21
77.895499999999998
 31
0.0
  0
TEXT
  5
23
  8
0
 62
     7
 10
87.511856944177055
 20
188.70225694417701
 30
0.0
 40
3.0923400000000001
  1
%%c72
 50
45.0
 41
0.5
 72
     1
 11
88.969599999999986
 21
190.16
 31
0.0
  0
TEXT
  5
24
  8
0
 62
     7
 10
123.818
 20
93.258267500000002
 30
0.0
 40
3.0923400000000001
  1
10
 50
90.0
 41
0.5
 72
     1
 11
123.818
 21
94.160200000000003
 31
0.0
  0
TEXT
  5
25
  8
0
 62
     7
 10
123.6429999999999
 20
102.030525
 30
0.0
 40
3.0923400000000001
  1
25
 50
90.0
 41
0.5
 72
     1
 11
123.6429999999999
 21
103.319
 31
0.0
  0
TEXT
  5
26
  8
0
 62
     7
 10
123.6429999999999
 20
138.32006749999999
 30
0.0
 40
3.0923400000000001
  1
10
 50
90.0
 41
0.5
 72
     1
 11
123.6429999999999
 21
139.22200000000001
 31
0.0
  0
TEXT
  5
27
  8
0
 62
     7
 10
123.6429999999999
 20
143.43206749999999
 30
0.0
 40
3.0923400000000001
  1
10
 50
90.0
 41
0.5
 72
     1
 11
123.6429999999999
 21
144.334
 31
0.0
  0
TEXT
  5
28
  8
0
 62
     7
 10
123.6429999999999
 20
119.26157499999999
 30
0.0
 40
3.0923400000000001
  1
max.55
 50
90.0
 41
0.5
 72
     1
 11
123.6429999999999
 21
123.127
 31
0.0
  0
ARC
  5
29
  8
0
 62
     7
 10
124.5570159999999
 20
141.8897189999999
 30
0.0
 40
0.455929
 50
182.09778499999999
 51
267.812228
  0
ARC
  5
2A
  8
0
 62
     7
 10
124.5232569999999
 20
141.88938400000001
 30
0.0
 40
0.455556
 50
272.05734200000001
 51
357.94266800000003
  0
ARC
  5
2B
  8
0
 62
     7
 10
124.52302899999999
 20
141.85626899999991
 30
0.0
 40
0.455798
 50
2.1073779999999989
 51
87.915103000000002
  0
ARC
  5
2C
  8
0
 62
     7
 10
124.556397
 20
141.85677899999999
 30
0.0
 40
0.455295
 50
92.112915000000015
 51
177.95458099999999
  0
LINE
  5
2D
  8
0
 62
     7
 10
84.896299999999997
 20
92.372600000000006
 30
0.0
 11
85.3964
 21
91.872699999999995
 31
0.0
  0
LINE
  5
2E
  8
0
 62
     7
 10
105.89699999999991
 20
92.372600000000006
 30
0.0
 11
105.39700000000001
 21
91.872699999999995
 31
0.0
  0
LINE
  5
2F
  8
0
 62
     7
 10
110.8959999999999
 20
136.87299999999999
 30
0.0
 11
107.68000000000001
 21
135.779
 31
0.0
  0
ARC
  5
30
  8
0
 62
     7
 10
108.727035
 20
132.880853
 30
0.0
 40
3.0813199999999998
 50
109.866775
 51
178.93830299999991
  0
LINE
  5
31
  8
0
 62
     7
 10
105.6459999999999
 20
130.87299999999991
 30
0.0
 11
105.6459999999999
 21
132.93799999999999
 31
0.0
  0
LINE
  5
32
  8
0
 62
     7
 10
79.896100000000004
 20
136.87299999999999
 30
0.0
 11
83.1126
 21
135.779
 31
0.0
  0
ARC
  5
33
  8
0
 62
     7
 10
82.065281999999996
 20
132.8809169999999
 30
0.0
 40
3.081318
 50
1.060486
 51
70.129801999999998
  0
ARC
  5
34
  8
0
 62
     7
 10
95.414520999999979
 20
99.45095000000002
 30
0.0
 40
47.422153999999999
 50
90.021968000000015
 51
104.193777
  0
ARC
  5
35
  8
0
 62
     7
 10
90.612502000000006
 20
119.5685909999999
 30
0.0
 40
26.742639
 50
104.7882619999999
 51
113.1647989999999
  0
ARC
  5
36
  8
0
 62
     7
 10
86.100735
 20
130.4413449999999
 30
0.0
 40
14.972206999999999
 50
113.6587669999999
 51
125.54885399999991
  0
ARC
  5
37
  8
0
 62
     7
 10
95.378140000000002
 20
99.45095000000002
 30
0.0
 40
47.422153999999999
 50
75.806202999999996
 51
89.978011999999993
  0
ARC
  5
38
  8
0
 62
     7
 10
100.180384
 20
119.56920100000001
 30
0.0
 40
26.741992
 50
66.835099999999997
 51
75.211850999999996
  0
ARC
  5
39
  8
0
 62
     7
 10
104.69128600000001
 20
130.4402409999999
 30
0.0
 40
14.973478
 50
54.451591999999998
 51
66.340648000000002
  0
LINE
  5
3A
  8
0
 62
     7
 10
83.813299999999998
 20
183.74000000000001
 30
0.0
 11
82.668300000000002
 21
181.75700000000001
 31
0.0
  0
LINE
  5
3B
  8
0
 62
     7
 10
82.668300000000002
 20
181.75700000000001
 30
0.0
 11
84.651399999999995
 21
182.90199999999999
 31
0.0
  0
LINE
  5
3C
  8
0
 62
     7
 10
84.651399999999995
 20
182.90199999999999
 30
0.0
 11
83.813299999999998
 21
183.74000000000001
 31
0.0
  0
LINE
  5
3D
  8
0
 62
     7
 10
106.979
 20
205.2299999999999
 30
0.0
 11
108.1239999999999
 21
207.21299999999999
 31
0.0
  0
LINE
  5
3E
  8
0
 62
     7
 10
108.1239999999999
 20
207.21299999999999
 30
0.0
 11
106.14099999999991
 21
206.06800000000001
 31
0.0
  0
LINE
  5
3F
  8
0
 62
     7
 10
106.14099999999991
 20
206.06800000000001
 30
0.0
 11
106.979
 21
205.2299999999999
 31
0.0
  0
LINE
  5
40
  8
0
 62
     7
 10
82.668300000000002
 20
181.75700000000001
 30
0.0
 11
108.1239999999999
 21
207.21299999999999
 31
0.0
  0
ARC
  5
41
  8
0
 62
     7
 10
95.396499999999989
 20
194.48479
 30
0.0
 40
18.000223999999989
 50
0.000558
 51
90.000528000000003
  0
ARC
  5
42
  8
0
 62
     7
 10
95.396333999999996
 20
194.484962
 30
0.0
 40
18.000052
 50
90.0
 51
179.99996999999991
  0
ARC
  5
43
  8
0
 62
     7
 10
95.396413999999993
 20
194.48487600000001
 30
0.0
 40
18.000132000000001
 50
179.999696
 51
269.99974600000002
  0
ARC
  5
44
  8
0
 62
     7
 10
95.396413999999993
 20
194.48505499999999
 30
0.0
 40
18.000309999999988
 50
269.99974600000002
 51
359.99971599999998
  0
LINE
  5
45
  8
0
 62
     7
 10
123.95399999999989
 20
111.584
 30
0.0
 11
124.547
 21
109.37299999999991
 31
0.0
  0
LINE
  5
46
  8
0
 62
     7
 10
124.547
 20
109.37299999999991
 30
0.0
 11
125.139
 21
111.584
 31
0.0
  0
LINE
  5
47
  8
0
 62
     7
 10
125.139
 20
111.584
 30
0.0
 11
123.95399999999989
 21
111.584
 31
0.0
  0
LINE
  5
48
  8
0
 62
     7
 10
123.95399999999989
 20
99.084000000000003
 30
0.0
 11
124.547
 21
96.872900000000001
 31
0.0
  0
LINE
  5
49
  8
0
 62
     7
 10
124.547
 20
96.872900000000001
 30
0.0
 11
125.139
 21
99.084000000000003
 31
0.0
  0
LINE
  5
4A
  8
0
 62
     7
 10
125.139
 20
99.084000000000003
 30
0.0
 11
123.95399999999989
 21
99.084000000000003
 31
0.0
  0
LINE
  5
4B
  8
0
 62
     7
 10
123.95399999999989
 20
149.084
 30
0.0
 11
124.547
 21
146.87299999999991
 31
0.0
  0
LINE
  5
4C
  8
0
 62
     7
 10
124.547
 20
146.87299999999991
 30
0.0
 11
125.139
 21
149.084
 31
0.0
  0
LINE
  5
4D
  8
0
 62
     7
 10
125.139
 20
149.084
 30
0.0
 11
123.95399999999989
 21
149.084
 31
0.0
  0
LINE
  5
4E
  8
0
 62
     7
 10
125.1249999999999
 20
89.661199999999994
 30
0.0
 11
124.532
 21
91.872699999999995
 31
0.0
  0
LINE
  5
4F
  8
0
 62
     7
 10
124.532
 20
91.872699999999995
 30
0.0
 11
123.93899999999989
 21
89.661199999999994
 31
0.0
  0
LINE
  5
50
  8
0
 62
     7
 10
123.93899999999989
 20
89.661199999999994
 30
0.0
 11
125.1249999999999
 21
89.661199999999994
 31
0.0
  0
LINE
  5
51
  8
0
 62
     7
 10
125.1249999999999
 20
134.661
 30
0.0
 11
124.532
 21
136.87299999999999
 31
0.0
  0
LINE
  5
52
  8
0
 62
     7
 10
124.532
 20
136.87299999999999
 30
0.0
 11
123.93899999999989
 21
134.661
 31
0.0
  0
LINE
  5
53
  8
0
 62
     7
 10
123.93899999999989
 20
134.661
 30
0.0
 11
125.1249999999999
 21
134.661
 31
0.0
  0
LINE
  5
54
  8
0
 62
     7
 10
125.1249999999999
 20
107.1609999999999
 30
0.0
 11
124.532
 21
109.37299999999991
 31
0.0
  0
LINE
  5
55
  8
0
 62
     7
 10
124.532
 20
109.37299999999991
 30
0.0
 11
123.93899999999989
 21
107.1609999999999
 31
0.0
  0
LINE
  5
56
  8
0
 62
     7
 10
123.93899999999989
 20
107.1609999999999
 30
0.0
 11
125.1249999999999
 21
107.1609999999999
 31
0.0
  0
LINE
  5
57
  8
0
 62
     7
 10
124.54000000000001
 20
88.253600000000006
 30
0.0
 11
124.54000000000001
 21
150.73099999999991
 31
0.0
  0
LINE
  5
58
  8
0
 62
     7
 10
103.68600000000001
 20
76.423699999999997
 30
0.0
 11
105.89699999999991
 21
77.016300000000001
 31
0.0
  0
LINE
  5
59
  8
0
 62
     7
 10
105.89699999999991
 20
77.016300000000001
 30
0.0
 11
103.68600000000001
 21
77.608800000000002
 31
0.0
  0
LINE
  5
5A
  8
0
 62
     7
 10
103.68600000000001
 20
77.608800000000002
 30
0.0
 11
103.68600000000001
 21
76.423699999999997
 31
0.0
  0
LINE
  5
5B
  8
0
 62
     7
 10
87.106999999999999
 20
77.594399999999993
 30
0.0
 11
84.895399999999995
 21
77.001800000000003
 31
0.0
  0
LINE
  5
5C
  8
0
 62
     7
 10
84.895399999999995
 20
77.001800000000003
 30
0.0
 11
87.106999999999999
 21
76.409300000000002
 31
0.0
  0
LINE
  5
5D
  8
0
 62
     7
 10
87.106999999999999
 20
76.409300000000002
 30
0.0
 11
87.106999999999999
 21
77.594399999999993
 31
0.0
  0
LINE
  5
5E
  8
0
 62
     7
 10
105.89699999999991
 20
77.009100000000004
 30
0.0
 11
84.896299999999997
 21
77.009100000000004
 31
0.0
  0
LINE
  5
5F
  8
0
 62
     7
 10
105.89699999999991
 20
76.308999999999997
 30
0.0
 11
105.89699999999991
 21
90.608300000000014
 31
0.0
  0
LINE
  5
60
  8
0
 62
     7
 10
84.896299999999997
 20
76.308999999999997
 30
0.0
 11
84.896299999999997
 21
90.608300000000014
 31
0.0
  0
LINE
  5
61
  8
0
 62
     7
 10
125.2399999999999
 20
91.872699999999995
 30
0.0
 11
107.1609999999999
 21
91.872699999999995
 31
0.0
  0
LINE
  5
62
  8
0
 62
     7
 10
125.2399999999999
 20
96.872900000000001
 30
0.0
 11
109.1609999999999
 21
96.872900000000001
 31
0.0
  0
LINE
  5
63
  8
0
 62
     7
 10
125.2399999999999
 20
109.37299999999991
 30
0.0
 11
110.46899999999989
 21
109.37299999999991
 31
0.0
  0
LINE
  5
64
  8
0
 62
     7
 10
111.76600000000001
 20
136.87299999999999
 30
0.0
 11
125.2399999999999
 21
136.87299999999999
 31
0.0
  0
LINE
  5
65
  8
0
 62
     7
 10
114.661
 20
141.87299999999991
 30
0.0
 11
125.2399999999999
 21
141.87299999999991
 31
0.0
  0
LINE
  5
66
  8
0
 62
     7
 10
102.36
 20
146.87299999999991
 30
0.0
 11
125.2399999999999
 21
146.87299999999991
 31
0.0
  0
LINE
  5
67
  8
0
  6
AIGENLINE001
 62
     7
 10
95.396299999999997
 20
171.67500000000001
 30
0.0
 11
95.396299999999997
 21
216.80500000000001
 31
0.0
  0
LINE
  5
68
  8
0
  6
AIGENLINE001
 62
     7
 10
118.3329999999999
 20
194.48500000000001
 30
0.0
 11
73.008600000000001
 21
194.48500000000001
 31
0.0
  0
LINE
  5
69
  8
0
  6
AIGENLINE001
 62
     7
 10
95.396299999999997
 20
149.36799999999991
 30
0.0
 11
95.396299999999997
 21
83.507900000000006
 31
0.0
  0
LINE
  5
6A
  8
0
 62
     7
 10
105.64700000000001
 20
126.87299999999991
 30
0.0
 11
105.64700000000001
 21
129.87299999999991
 31
0.0
  0
LINE
  5
6B
  8
0
 62
     7
 10
110.39700000000001
 20
130.87299999999991
 30
0.0
 11
110.39700000000001
 21
129.87299999999991
 31
0.0
  0
LINE
  5
6C
  8
0
 62
     7
 10
93.896299999999997
 20
87.372699999999995
 30
0.0
 11
94.396199999999993
 21
86.872799999999984
 31
0.0
  0
LINE
  5
6D
  8
0
 62
     7
 10
96.896300000000011
 20
87.372699999999995
 30
0.0
 11
96.396399999999986
 21
86.872799999999984
 31
0.0
  0
LINE
  5
6E
  8
0
 62
     7
 10
93.896299999999997
 20
87.372699999999995
 30
0.0
 11
96.896300000000011
 21
87.372699999999995
 31
0.0
  0
LINE
  5
6F
  8
0
 62
     7
 10
94.396199999999993
 20
86.872799999999984
 30
0.0
 11
94.396199999999993
 21
89.372900000000001
 31
0.0
  0
LINE
  5
70
  8
0
 62
     7
 10
96.396399999999986
 20
86.872799999999984
 30
0.0
 11
96.396399999999986
 21
89.372900000000001
 31
0.0
  0
LINE
  5
71
  8
0
 62
     7
 10
96.896300000000011
 20
87.372699999999995
 30
0.0
 11
96.896300000000011
 21
89.372900000000001
 31
0.0
  0
LINE
  5
72
  8
0
 62
     7
 10
93.896299999999997
 20
87.372699999999995
 30
0.0
 11
93.896299999999997
 21
89.372900000000001
 31
0.0
  0
LINE
  5
73
  8
0
 62
     7
 10
94.396199999999993
 20
86.872799999999984
 30
0.0
 11
96.396399999999986
 21
86.872799999999984
 31
0.0
  0
LINE
  5
74
  8
0
 62
     7
 10
97.646299999999997
 20
89.372900000000001
 30
0.0
 11
97.646299999999997
 21
91.872699999999995
 31
0.0
  0
LINE
  5
75
  8
0
 62
     7
 10
93.146299999999997
 20
89.372900000000001
 30
0.0
 11
93.146299999999997
 21
91.872699999999995
 31
0.0
  0
LINE
  5
76
  8
0
 62
     7
 10
93.146299999999997
 20
89.372900000000001
 30
0.0
 11
97.646299999999997
 21
89.372900000000001
 31
0.0
  0
LINE
  5
77
  8
0
 62
     7
 10
105.39700000000001
 20
91.872699999999995
 30
0.0
 11
105.39700000000001
 21
96.872900000000001
 31
0.0
  0
LINE
  5
78
  8
0
 62
     7
 10
105.89699999999991
 20
92.372600000000006
 30
0.0
 11
105.89699999999991
 21
96.872900000000001
 31
0.0
  0
LINE
  5
79
  8
0
 62
     7
 10
85.3964
 20
91.872699999999995
 30
0.0
 11
85.3964
 21
96.872900000000001
 31
0.0
  0
LINE
  5
7A
  8
0
 62
     7
 10
84.896299999999997
 20
92.372600000000006
 30
0.0
 11
84.896299999999997
 21
96.872900000000001
 31
0.0
  0
LINE
  5
7B
  8
0
 62
     7
 10
84.896299999999997
 20
92.372600000000006
 30
0.0
 11
105.89699999999991
 21
92.372600000000006
 31
0.0
  0
LINE
  5
7C
  8
0
 62
     7
 10
85.3964
 20
91.872699999999995
 30
0.0
 11
105.39700000000001
 21
91.872699999999995
 31
0.0
  0
LINE
  5
7D
  8
0
 62
     7
 10
107.896
 20
96.872900000000001
 30
0.0
 11
107.896
 21
104.87299999999991
 31
0.0
  0
LINE
  5
7E
  8
0
 62
     7
 10
82.896100000000004
 20
96.872900000000001
 30
0.0
 11
82.896100000000004
 21
104.87299999999991
 31
0.0
  0
LINE
  5
7F
  8
0
 62
     7
 10
82.896100000000004
 20
96.872900000000001
 30
0.0
 11
107.896
 21
96.872900000000001
 31
0.0
  0
LINE
  5
80
  8
0
 62
     7
 10
79.896100000000004
 20
107.87299999999991
 30
0.0
 11
79.896100000000004
 21
104.87299999999991
 31
0.0
  0
LINE
  5
81
  8
0
 62
     7
 10
110.8959999999999
 20
107.87299999999991
 30
0.0
 11
110.8959999999999
 21
104.87299999999991
 31
0.0
  0
LINE
  5
82
  8
0
 62
     7
 10
79.896100000000004
 20
104.87299999999991
 30
0.0
 11
110.8959999999999
 21
104.87299999999991
 31
0.0
  0
LINE
  5
83
  8
0
 62
     7
 10
110.39700000000001
 20
107.87299999999991
 30
0.0
 11
110.39700000000001
 21
108.623
 31
0.0
  0
LINE
  5
84
  8
0
 62
     7
 10
80.396299999999997
 20
107.87299999999991
 30
0.0
 11
80.396299999999997
 21
108.623
 31
0.0
  0
LINE
  5
85
  8
0
 62
     7
 10
79.896100000000004
 20
107.87299999999991
 30
0.0
 11
110.8959999999999
 21
107.87299999999991
 31
0.0
  0
LINE
  5
86
  8
0
 62
     7
 10
110.39700000000001
 20
108.623
 30
0.0
 11
108.396
 21
109.37299999999991
 31
0.0
  0
LINE
  5
87
  8
0
 62
     7
 10
80.396299999999997
 20
108.623
 30
0.0
 11
82.396199999999993
 21
109.37299999999991
 31
0.0
  0
LINE
  5
88
  8
0
 62
     7
 10
80.396299999999997
 20
108.623
 30
0.0
 11
110.39700000000001
 21
108.623
 31
0.0
  0
LINE
  5
89
  8
0
 62
     7
 10
82.396199999999993
 20
109.37299999999991
 30
0.0
 11
108.396
 21
109.37299999999991
 31
0.0
  0
LINE
  5
8A
  8
0
 62
     7
 10
94.396199999999993
 20
109.37299999999991
 30
0.0
 11
94.396199999999993
 21
123.37299999999991
 31
0.0
  0
LINE
  5
8B
  8
0
 62
     7
 10
96.396399999999986
 20
109.37299999999991
 30
0.0
 11
96.396399999999986
 21
123.37299999999991
 31
0.0
  0
LINE
  5
8C
  8
0
 62
     7
 10
96.896300000000011
 20
109.37299999999991
 30
0.0
 11
96.896300000000011
 21
123.37299999999991
 31
0.0
  0
LINE
  5
8D
  8
0
 62
     7
 10
93.896299999999997
 20
109.37299999999991
 30
0.0
 11
93.896299999999997
 21
123.37299999999991
 31
0.0
  0
LINE
  5
8E
  8
0
 62
     7
 10
99.146299999999997
 20
125.373
 30
0.0
 11
99.146299999999997
 21
126.87299999999991
 31
0.0
  0
LINE
  5
8F
  8
0
 62
     7
 10
99.146299999999997
 20
125.373
 30
0.0
 11
97.646299999999997
 21
123.37299999999991
 31
0.0
  0
LINE
  5
90
  8
0
 62
     7
 10
91.646299999999997
 20
126.87299999999991
 30
0.0
 11
91.646299999999997
 21
125.373
 31
0.0
  0
LINE
  5
91
  8
0
 62
     7
 10
93.146299999999997
 20
123.37299999999991
 30
0.0
 11
91.646299999999997
 21
125.373
 31
0.0
  0
LINE
  5
92
  8
0
 62
     7
 10
93.146299999999997
 20
123.37299999999991
 30
0.0
 11
97.646299999999997
 21
123.37299999999991
 31
0.0
  0
LINE
  5
93
  8
0
 62
     7
 10
91.646299999999997
 20
125.373
 30
0.0
 11
99.146299999999997
 21
125.373
 31
0.0
  0
LINE
  5
94
  8
0
 62
     7
 10
85.146100000000004
 20
130.87299999999991
 30
0.0
 11
85.146100000000004
 21
132.93799999999999
 31
0.0
  0
LINE
  5
95
  8
0
 62
     7
 10
85.146100000000004
 20
126.87299999999991
 30
0.0
 11
85.146100000000004
 21
129.87299999999991
 31
0.0
  0
LINE
  5
96
  8
0
 62
     7
 10
110.39700000000001
 20
129.87299999999991
 30
0.0
 11
110.39700000000001
 21
130.87299999999991
 31
0.0
  0
LINE
  5
97
  8
0
 62
     7
 10
80.396299999999997
 20
130.87299999999991
 30
0.0
 11
80.396299999999997
 21
129.87299999999991
 31
0.0
  0
LINE
  5
98
  8
0
 62
     7
 10
80.396299999999997
 20
130.87299999999991
 30
0.0
 11
110.39700000000001
 21
130.87299999999991
 31
0.0
  0
LINE
  5
99
  8
0
 62
     7
 10
80.396299999999997
 20
129.87299999999991
 30
0.0
 11
110.39700000000001
 21
129.87299999999991
 31
0.0
  0
LINE
  5
9A
  8
0
 62
     7
 10
85.146100000000004
 20
126.87299999999991
 30
0.0
 11
105.64700000000001
 21
126.87299999999991
 31
0.0
  0
LINE
  5
9B
  8
0
 62
     7
 10
110.8959999999999
 20
136.87299999999999
 30
0.0
 11
110.8959999999999
 21
137.37299999999991
 31
0.0
  0
LINE
  5
9C
  8
0
 62
     7
 10
79.896100000000004
 20
136.87299999999999
 30
0.0
 11
79.896100000000004
 21
137.37299999999991
 31
0.0
  0
LINE
  5
9D
  8
0
 62
     7
 10
79.896100000000004
 20
136.87299999999999
 30
0.0
 11
110.8959999999999
 21
136.87299999999999
 31
0.0
  0
LINE
  5
9E
  8
0
 62
     7
 10
99.146299999999997
 20
137.37299999999991
 30
0.0
 11
99.146299999999997
 21
141.87299999999991
 31
0.0
  0
LINE
  5
9F
  8
0
 62
     7
 10
91.646299999999997
 20
137.37299999999991
 30
0.0
 11
91.646299999999997
 21
141.87299999999991
 31
0.0
  0
LINE
  5
A0
  8
0
 62
     7
 10
79.896100000000004
 20
137.37299999999991
 30
0.0
 11
110.8959999999999
 21
137.37299999999991
 31
0.0
  0
LINE
  5
A1
  8
0
 62
     7
 10
113.39700000000001
 20
141.87299999999991
 30
0.0
 11
113.39700000000001
 21
142.62299999999991
 31
0.0
  0
LINE
  5
A2
  8
0
 62
     7
 10
77.396299999999997
 20
141.87299999999991
 30
0.0
 11
77.396299999999997
 21
142.62299999999991
 31
0.0
  0
LINE
  5
A3
  8
0
 62
     7
 10
77.396299999999997
 20
141.87299999999991
 30
0.0
 11
113.39700000000001
 21
141.87299999999991
 31
0.0
  0
LINE
  5
A4
  8
0
 62
     7
 10
77.396299999999997
 20
142.62299999999991
 30
0.0
 11
113.39700000000001
 21
142.62299999999991
 31
0.0
  0
LINE
  5
A5
  8
_________2
 62
     7
 10
205.30099999999999
 20
127.411
 30
0.0
 11
183.55000000000001
 21
127.411
 31
0.0
  0
LINE
  5
A6
  8
_________2
 62
     7
 10
100.2999999999999
 20
-4.0910799999999998
 30
0.0
 11
100.2999999999999
 21
-21.070999999999991
 31
0.0
  0
LINE
  5
A7
  8
_________2
 62
     7
 10
100.2999999999999
 20
275.93099999999993
 30
0.0
 11
100.2999999999999
 21
258.911
 31
0.0
  0
LINE
  5
A8
  8
_________2
 62
     7
 10
17.049499999999998
 20
127.411
 30
0.0
 11
-4.7008599999999987
 21
127.411
 31
0.0
  0
LINE
  5
A9
  8
_________2
 62
     7
 10
76.741
 20
29.8047
 30
0.0
 11
74.554699999999997
 21
29.8047
 31
0.0
  0
LINE
  5
AA
  8
_________2
 62
     7
 10
77.233699999999999
 20
29.8047
 30
0.0
 11
76.981499999999997
 21
29.8047
 31
0.0
  0
LINE
  5
AB
  8
_________2
 62
     7
 10
77.726299999999995
 20
29.8047
 30
0.0
 11
80.651200000000003
 21
29.8047
 31
0.0
  0
LINE
  5
AC
  8
_________2
 62
     7
 10
77.233699999999999
 20
29.8047
 30
0.0
 11
77.485200000000006
 21
29.8047
 31
0.0
  0
LINE
  5
AD
  8
_________2
 62
     7
 10
70.836799999999997
 20
29.8047
 30
0.0
 11
68.650499999999994
 21
29.8047
 31
0.0
  0
LINE
  5
AE
  8
_________2
 62
     7
 10
71.329400000000007
 20
29.8047
 30
0.0
 11
71.077200000000005
 21
29.8047
 31
0.0
  0
LINE
  5
AF
  8
_________2
 62
     7
 10
71.329400000000007
 20
30.2974
 30
0.0
 11
71.329400000000007
 21
32.484400000000001
 31
0.0
  0
LINE
  5
B0
  8
_________2
 62
     7
 10
71.329400000000007
 20
29.8047
 30
0.0
 11
71.329400000000007
 21
30.057300000000001
 31
0.0
  0
LINE
  5
B1
  8
_________2
 62
     7
 10
71.822100000000006
 20
29.8047
 30
0.0
 11
74.009
 21
29.8047
 31
0.0
  0
LINE
  5
B2
  8
_________2
 62
     7
 10
71.329400000000007
 20
29.8047
 30
0.0
 11
71.581599999999995
 21
29.8047
 31
0.0
  0
LINE
  5
B3
  8
_________2
 62
     7
 10
71.329400000000007
 20
29.312799999999999
 30
0.0
 11
71.329400000000007
 21
27.126200000000001
 31
0.0
  0
LINE
  5
B4
  8
_________2
 62
     7
 10
71.329400000000007
 20
29.8047
 30
0.0
 11
71.329400000000007
 21
29.5532
 31
0.0
  0
LINE
  5
B5
  8
_________2
 62
     7
 10
75.040499999999994
 20
28.5852
 30
0.0
 11
80.218500000000006
 21
27.720400000000001
 31
0.0
  0
LINE
  5
B6
  8
_________2
 62
     7
 10
75.040499999999994
 20
31.024699999999999
 30
0.0
 11
80.218500000000006
 21
31.8901
 31
0.0
  0
LINE
  5
B7
  8
_________2
 62
     7
 10
80.218500000000006
 20
27.720400000000001
 30
0.0
 11
80.218500000000006
 21
31.8901
 31
0.0
  0
LINE
  5
B8
  8
_________2
 62
     7
 10
75.040499999999994
 20
28.5852
 30
0.0
 11
75.040499999999994
 21
31.024699999999999
 31
0.0
  0
ARC
  5
B9
  8
_________2
 62
     7
 10
71.282178999999999
 20
29.757850000000001
 30
0.0
 40
1.2676899999999991
 50
2.1199219999999999
 51
87.863884999999996
  0
ARC
  5
BA
  8
_________2
 62
     7
 10
71.375985
 20
29.758545999999999
 30
0.0
 40
1.2669680000000001
 50
92.105782999999988
 51
177.91037
  0
ARC
  5
BB
  8
_________2
 62
     7
 10
71.376357999999996
 20
29.851671
 30
0.0
 40
1.2673680000000001
 50
182.12203600000001
 51
267.877993
  0
ARC
  5
BC
  8
_________2
 62
     7
 10
71.282522999999983
 20
29.851649999999999
 30
0.0
 40
1.267347
 50
272.12114300000002
 51
357.87886700000001
  0
ARC
  5
BD
  8
_________2
 62
     7
 10
71.249061999999995
 20
29.724731999999989
 30
0.0
 40
2.1668310000000002
 50
2.1161439999999989
 51
87.874379000000005
  0
ARC
  5
BE
  8
_________2
 62
     7
 10
71.409081999999998
 20
29.72544899999999
 30
0.0
 40
2.1660879999999998
 50
92.107349999999997
 51
177.90208699999999
  0
ARC
  5
BF
  8
_________2
 62
     7
 10
71.408771999999999
 20
29.884799999999998
 30
0.0
 40
2.165807
 50
182.1183979999999
 51
267.90056900000002
  0
ARC
  5
C0
  8
_________2
 62
     7
 10
71.249459000000002
 20
29.885429999999989
 30
0.0
 40
2.1664590000000001
 50
272.11546800000002
 51
357.86560400000002
  0
TEXT
  5
C1
  8
_________2
 62
     7
 10
104.604
 20
1.6794899999999999
 30
0.0
 40
3.0923400000000001
  1
図番
 41
0.5
  0
LINE
  5
C2
  8
_________2
 62
     7
 10
103.55
 20
5.9087199999999989
 30
0.0
 11
183.55099999999999
 21
5.9087199999999989
 31
0.0
  0
TEXT
  5
C3
  8
_________2
 62
     7
 10
104.604
 20
11.679299999999991
 30
0.0
 40
3.0923400000000001
  1
品番
 41
0.5
  0
TEXT
  5
C4
  8
_________2
 62
     7
 10
104.604
 20
31.8184
 30
0.0
 40
3.0923400000000001
  1
名称
 41
0.5
  0
TEXT
  5
C5
  8
_________2
 62
     7
 10
91.845058333333341
 20
26.822299999999998
 30
0.0
 40
3.6545800000000002
  1
mm
 41
0.5
 72
     1
 11
93.367800000000003
 21
26.822299999999998
 31
0.0
  0
TEXT
  5
C6
  8
_________2
 62
     7
 10
85.643199999999993
 20
31.8184
 30
0.0
 40
3.0923400000000001
  1
単位
 41
0.5
  0
TEXT
  5
C7
  8
_________2
 62
     7
 10
85.643199999999993
 20
19.410799999999991
 30
0.0
 40
3.0923400000000001
  1
尺度
 41
0.5
  0
TEXT
  5
C8
  8
_________2
 62
     7
 10
90.548758666666686
 20
13.218199999999991
 30
0.0
 40
3.6545800000000002
  1
1 ： 2
 41
0.5
 72
     1
 11
93.959699999999998
 21
13.218199999999991
 31
0.0
  0
TEXT
  5
C9
  8
_________2
 62
     7
 10
137.97442499999991
 20
9.1082000000000001
 30
0.0
 40
3.9357000000000002
  1
CET684
 41
0.5
 72
     1
 11
143.55000000000001
 21
9.1082000000000001
 31
0.0
  0
TEXT
  5
CA
  8
_________2
 62
     7
 10
137.97442499999991
 20
-0.8926299999999999
 30
0.0
 40
3.9357000000000002
  1
CET684
 41
0.5
 72
     1
 11
143.55000000000001
 21
-0.8926299999999999
 31
0.0
  0
TEXT
  5
CB
  8
_________2
 62
     7
 10
109.179
 20
24.226099999999999
 30
0.0
 40
3.9357000000000002
  1
排水目皿
 41
0.5
  0
TEXT
  5
CC
  8
_________2
 62
     7
 10
39.364390666666658
 20
13.603400000000001
 30
0.0
 40
3.6545800000000002
  1
高橋
 41
0.5
 72
     1
 11
41.313499999999998
 21
13.603400000000001
 31
0.0
  0
TEXT
  5
CD
  8
_________2
 62
     7
 10
20.789690666666662
 20
13.603400000000001
 30
0.0
 40
3.6545800000000002
  1
石原
 41
0.5
 72
     1
 11
22.738800000000001
 21
13.603400000000001
 31
0.0
  0
TEXT
  5
CE
  8
_________2
 62
     7
 10
67.7851
 20
13.218199999999991
 30
0.0
 40
3.6545800000000002
  1
07.10.30
 41
0.5
  0
TEXT
  5
CF
  8
_________2
 62
     7
 10
66.593100000000007
 20
19.410799999999991
 30
0.0
 40
3.0923400000000001
  1
日付
 41
0.5
  0
TEXT
  5
D0
  8
_________2
 62
     7
 10
29.639399999999998
 20
19.410799999999991
 30
0.0
 40
3.0923400000000001
  1
検図
 41
0.5
  0
TEXT
  5
D1
  8
_________2
 62
     7
 10
18.021100000000001
 20
5.21143
 30
0.0
 40
3.0923400000000001
  1
備考
 41
0.5
  0
TEXT
  5
D2
  8
_________2
 62
     7
 10
18.021100000000001
 20
19.410799999999991
 30
0.0
 40
3.0923400000000001
  1
製図
 41
0.5
  0
TEXT
  5
D3
  8
_________2
 62
     7
 10
23.788465333333338
 20
27.936800000000002
 30
0.0
 40
4.4979399999999989
  1
セラトレーディング株式会社
 41
0.5
 72
     1
 11
41.180500000000002
 21
27.936800000000002
 31
0.0
  0
LINE
  5
D4
  8
_________2
 62
     7
 10
183.55099999999999
 20
-4.0910799999999998
 30
0.0
 11
17.049499999999998
 21
-4.0910799999999998
 31
0.0
  0
LINE
  5
D5
  8
_________2
 62
     7
 10
17.049499999999998
 20
-4.0910799999999998
 30
0.0
 11
17.049499999999998
 21
258.911
 31
0.0
  0
LINE
  5
D6
  8
_________2
 62
     7
 10
17.049499999999998
 20
258.911
 30
0.0
 11
183.55099999999999
 21
258.911
 31
0.0
  0
LINE
  5
D7
  8
_________2
 62
     7
 10
183.55099999999999
 20
258.911
 30
0.0
 11
183.55099999999999
 21
-4.0910799999999998
 31
0.0
  0
LINE
  5
D8
  8
_________2
 62
     7
 10
65.549199999999999
 20
9.4092999999999982
 30
0.0
 11
65.549199999999999
 21
35.909100000000002
 31
0.0
  0
LINE
  5
D9
  8
_________2
 62
     7
 10
84.549700000000016
 20
9.4092999999999982
 30
0.0
 11
84.549700000000016
 21
35.909100000000002
 31
0.0
  0
LINE
  5
DA
  8
_________2
 62
     7
 10
103.55
 20
-4.0910799999999998
 30
0.0
 11
103.55
 21
35.909100000000002
 31
0.0
  0
LINE
  5
DB
  8
_________2
 62
     7
 10
28.549299999999992
 20
9.4092999999999982
 30
0.0
 11
28.549299999999992
 21
23.409199999999998
 31
0.0
  0
LINE
  5
DC
  8
_________2
 62
     7
 10
17.049499999999998
 20
9.4092999999999982
 30
0.0
 11
103.55
 21
9.4092999999999982
 31
0.0
  0
LINE
  5
DD
  8
_________2
 62
     7
 10
17.049499999999998
 20
23.409199999999998
 30
0.0
 11
103.55
 21
23.409199999999998
 31
0.0
  0
LINE
  5
DE
  8
_________2
 62
     7
 10
103.55
 20
15.9085
 30
0.0
 11
183.55099999999999
 21
15.9085
 31
0.0
  0
LINE
  5
DF
  8
_________2
 62
     7
 10
17.049499999999998
 20
35.909100000000002
 30
0.0
 11
183.55099999999999
 21
35.909100000000002
 31
0.0
  0
ENDSEC
  0
EOF
