  0
SECTION
  2
HEADER
  9
$ACADVER
  1
AC1009
  9
$INSBASE
 10
0.0
 20
0.0
 30
0.0
  9
$EXTMIN
 10
-4.70052
 20
-21.071400000000001
 30
0.0
  9
$EXTMAX
 10
205.30099999999999
 20
275.93099999999993
 30
0.0
  9
$LIMMIN
 10
0.0
 20
0.0
  9
$LIMMAX
 10
12.0
 20
9.0
  9
$ORTHOMODE
 70
     0
  9
$REGENMODE
 70
     1
  9
$FILLMODE
 70
     1
  9
$QTEXTMODE
 70
     0
  9
$MIRRTEXT
 70
     1
  9
$DRAGMODE
 70
     2
  9
$LTSCALE
 40
1.0
  9
$OSMODE
 70
    37
  9
$ATTMODE
 70
     1
  9
$TEXTSIZE
 40
0.0
  9
$TRACEWID
 40
0.05
  9
$TEXTSTYLE
  7
STANDARD
  9
$CLAYER
  8
0
  9
$CELTYPE
  6
CONTINUOUS
  9
$CECOLOR
 62
   256
  9
$DIMSCALE
 40
1.0
  9
$DIMASZ
 40
0.18
  9
$DIMEXO
 40
0.0625
  9
$DIMDLI
 40
0.38
  9
$DIMRND
 40
0.0
  9
$DIMDLE
 40
0.0
  9
$DIMEXE
 40
0.18
  9
$DIMTP
 40
0.0
  9
$DIMTM
 40
0.0
  9
$DIMTXT
 40
0.18
  9
$DIMCEN
 40
0.09
  9
$DIMTSZ
 40
0.0
  9
$DIMTOL
 70
     0
  9
$DIMLIM
 70
     0
  9
$DIMTIH
 70
     1
  9
$DIMTOH
 70
     1
  9
$DIMSE1
 70
     0
  9
$DIMSE2
 70
     0
  9
$DIMTAD
 70
     0
  9
$DIMZIN
 70
     0
  9
$DIMBLK
  1

  9
$DIMASO
 70
     1
  9
$DIMSHO
 70
     1
  9
$DIMPOST
  1

  9
$DIMAPOST
  1

  9
$DIMALT
 70
     0
  9
$DIMALTD
 70
     2
  9
$DIMALTF
 40
25.399999999999999
  9
$DIMLFAC
 40
1.0
  9
$DIMTOFL
 70
     0
  9
$DIMTVP
 40
0.0
  9
$DIMTIX
 70
     0
  9
$DIMSOXD
 70
     0
  9
$DIMSAH
 70
     0
  9
$DIMBLK1
  1

  9
$DIMBLK2
  1

  9
$DIMSTYLE
  2
STANDARD
  9
$DIMCLRD
 70
     0
  9
$DIMCLRE
 70
     0
  9
$DIMCLRT
 70
     0
  9
$DIMTFAC
 40
1.0
  9
$DIMGAP
 40
0.09
  9
$LUNITS
 70
     2
  9
$LUPREC
 70
     4
  9
$SKETCHINC
 40
0.1
  9
$FILLETRAD
 40
0.0
  9
$AUNITS
 70
     0
  9
$AUPREC
 70
     0
  9
$MENU
  1
.
  9
$ELEVATION
 40
0.0
  9
$PELEVATION
 40
0.0
  9
$THICKNESS
 40
0.0
  9
$LIMCHECK
 70
     0
  9
$BLIPMODE
 70
     0
  9
$CHAMFERA
 40
0.0
  9
$CHAMFERB
 40
0.0
  9
$SKPOLY
 70
     0
  9
$TDCREATE
 40
2444972.375
  9
$TDUPDATE
 40
2456015.2486129161
  9
$TDINDWG
 40
0.0000076273
  9
$TDUSRTIMER
 40
0.0000076273
  9
$USRTIMER
 70
     1
  9
$ANGBASE
 50
0.0
  9
$ANGDIR
 70
     0
  9
$PDMODE
 70
     0
  9
$PDSIZE
 40
0.0
  9
$PLINEWID
 40
0.0
  9
$COORDS
 70
     1
  9
$SPLFRAME
 70
     0
  9
$SPLINETYPE
 70
     6
  9
$SPLINESEGS
 70
     8
  9
$ATTDIA
 70
     0
  9
$ATTREQ
 70
     1
  9
$HANDLING
 70
     1
  9
$HANDSEED
  5
10E
  9
$SURFTAB1
 70
     6
  9
$SURFTAB2
 70
     6
  9
$SURFTYPE
 70
     6
  9
$SURFU
 70
     6
  9
$SURFV
 70
     6
  9
$UCSNAME
  2

  9
$UCSORG
 10
0.0
 20
0.0
 30
0.0
  9
$UCSXDIR
 10
1.0
 20
0.0
 30
0.0
  9
$UCSYDIR
 10
0.0
 20
1.0
 30
0.0
  9
$PUCSNAME
  2

  9
$PUCSORG
 10
0.0
 20
0.0
 30
0.0
  9
$PUCSXDIR
 10
1.0
 20
0.0
 30
0.0
  9
$PUCSYDIR
 10
0.0
 20
1.0
 30
0.0
  9
$USERI1
 70
     0
  9
$USERI2
 70
     0
  9
$USERI3
 70
     0
  9
$USERI4
 70
     0
  9
$USERI5
 70
     0
  9
$USERR1
 40
0.0
  9
$USERR2
 40
0.0
  9
$USERR3
 40
0.0
  9
$USERR4
 40
0.0
  9
$USERR5
 40
0.0
  9
$WORLDVIEW
 70
     1
  9
$SHADEDGE
 70
     3
  9
$SHADEDIF
 70
    70
  9
$TILEMODE
 70
     1
  9
$MAXACTVP
 70
    48
  9
$PLIMCHECK
 70
     0
  9
$PEXTMIN
 10
1.0000000000000000E+020
 20
1.0000000000000000E+020
 30
1.0000000000000000E+020
  9
$PEXTMAX
 10
-1.0000000000000000E+020
 20
-1.0000000000000000E+020
 30
-1.0000000000000000E+020
  9
$PLIMMIN
 10
0.0
 20
0.0
  9
$PLIMMAX
 10
12.0
 20
9.0
  9
$UNITMODE
 70
     0
  9
$VISRETAIN
 70
     1
  9
$PLINEGEN
 70
     0
  9
$PSLTSCALE
 70
     1
  0
ENDSEC
  0
SECTION
  2
TABLES
  0
TABLE
  2
VPORT
 70
     2
  0
VPORT
  2
*ACTIVE
 70
     0
 10
0.0
 20
0.0
 11
1.0
 21
1.0
 12
205.3106854945909
 22
127.4297999999999
 13
0.0
 23
0.0
 14
1.0
 24
1.0
 15
0.0
 25
0.0
 16
0.0
 26
0.0
 36
1.0
 17
0.0
 27
0.0
 37
0.0
 40
299.2467506297229
 41
2.2894736842105261
 42
50.0
 43
0.0
 44
0.0
 50
0.0
 51
0.0
 71
     0
 72
   100
 73
     1
 74
     1
 75
     0
 76
     0
 77
     0
 78
     0
  0
ENDTAB
  0
TABLE
  2
LTYPE
 70
     2
  0
LTYPE
  2
CONTINUOUS
 70
     0
  3
Solid line
 72
    65
 73
     0
 40
0.0
  0
LTYPE
  2
AIGENLINE001
 70
     0
  3
generate AI->DXF Converter
 72
    65
 73
     4
 40
5.8561449999999988
 49
3.5278
 49
-0.776115
 49
0.776115
 49
-0.776115
  0
ENDTAB
  0
TABLE
  2
LAYER
 70
     2
  0
LAYER
  2
0
 70
     0
 62
     7
  6
CONTINUOUS
  0
LAYER
  2
_________2
 70
     0
 62
     7
  6
CONTINUOUS
  0
ENDTAB
  0
TABLE
  2
STYLE
 70
     1
  0
STYLE
  2
STANDARD
 70
     0
 40
0.0
 41
0.0
 50
0.0
 71
     0
 42
0.0
  3
TXT
  4
EXTFONT.SHX
  0
ENDTAB
  0
TABLE
  2
VIEW
 70
     0
  0
ENDTAB
  0
TABLE
  2
UCS
 70
     0
  0
ENDTAB
  0
TABLE
  2
APPID
 70
     1
  0
APPID
  2
ACAD
 70
     0
  0
ENDTAB
  0
TABLE
  2
DIMSTYLE
 70
     1
  0
DIMSTYLE
  2
STANDARD
 70
     0
  3

  4

  5

  6

  7

 40
1.0
 41
0.18
 42
0.0625
 43
0.38
 44
0.18
 45
0.0
 46
0.0
 47
0.0
 48
0.0
140
0.18
141
0.09
142
0.0
143
25.399999999999999
144
1.0
145
0.0
146
1.0
147
0.09
 71
     0
 72
     0
 73
     1
 74
     1
 75
     0
 76
     0
 77
     0
 78
     0
170
     0
171
     2
172
     0
173
     0
174
     0
175
     0
176
     0
177
     0
178
     0
  0
ENDTAB
  0
ENDSEC
  0
SECTION
  2
BLOCKS
  0
BLOCK
  8
0
  2
$MODEL_SPACE
 70
     0
 10
0.0
 20
0.0
 30
0.0
  3
$MODEL_SPACE
  1

  0
ENDBLK
  5
1A
  8
0
  0
BLOCK
 67
     1
  8
0
  2
$PAPER_SPACE
 70
     0
 10
0.0
 20
0.0
 30
0.0
  3
$PAPER_SPACE
  1

  0
ENDBLK
  5
17
 67
     1
  8
0
  0
ENDSEC
  0
SECTION
  2
ENTITIES
  0
TEXT
  5
22
  8
0
 62
     7
 10
128.17104999999989
 20
183.86000000000001
 30
0.0
 40
3.0923400000000001
  1
取付穴
 41
0.5
 72
     1
 11
130.74799999999991
 21
183.86000000000001
 31
0.0
  0
TEXT
  5
23
  8
0
 62
     7
 10
65.624674999999996
 20
129.18199999999999
 30
0.0
 40
3.0923400000000001
  1
%%c30
 41
0.5
 72
     2
 11
69.490099999999998
 21
129.18199999999999
 31
0.0
  0
TEXT
  5
24
  8
0
 62
     7
 10
71.308087499999985
 20
162.80799999999991
 30
0.0
 40
3.0923400000000001
  1
%%c20
 41
0.5
 72
     1
 11
73.240799999999993
 21
162.80799999999991
 31
0.0
  0
TEXT
  5
25
  8
0
 62
     7
 10
143.91127
 20
214.619
 30
0.0
 40
3.0923400000000001
  1
%%c15
 41
0.5
 72
     2
 11
147.51900000000001
 21
214.619
 31
0.0
  0
TEXT
  5
26
  8
0
 62
     7
 10
95.149000000000001
 20
143.17321999999999
 30
0.0
 40
3.0923400000000001
  1
14
 50
90.0
 41
0.5
 72
     1
 11
95.149000000000001
 21
144.20400000000001
 31
0.0
  0
TEXT
  5
27
  8
0
 62
     7
 10
95.149000000000001
 20
109.98943300000001
 30
0.0
 40
3.0923400000000001
  1
9～16
 50
90.0
 41
0.5
 72
     1
 11
95.149000000000001
 21
112.721
 31
0.0
  0
ARC
  5
28
  8
0
 62
     7
 10
76.895526000000004
 20
99.160718000000003
 30
0.0
 40
1.0633589999999991
 50
311.368604
 51
322.64615800000001
  0
ARC
  5
29
  8
0
 62
     7
 10
76.384769999999989
 20
99.730580000000003
 30
0.0
 40
1.828595999999999
 50
300.87416100000002
 51
311.57811499999991
  0
ARC
  5
2A
  8
0
 62
     7
 10
75.693846999999991
 20
100.8650929999999
 30
0.0
 40
3.1569139999999991
 50
293.21279599999991
 51
301.07083599999987
  0
ARC
  5
2B
  8
0
 62
     7
 10
74.624573999999996
 20
103.388001
 30
0.0
 40
5.8970479999999998
 50
280.79315400000002
 51
293.09927399999998
  0
ARC
  5
2C
  8
0
 62
     7
 10
73.376091000000002
 20
109.000289
 30
0.0
 40
11.645168999999999
 50
269.33086400000002
 51
281.6562689999999
  0
ARC
  5
2D
  8
0
 62
     7
 10
73.237824000000003
 20
110.41486499999991
 30
0.0
 40
13.058952
 50
259.03518800000001
 51
270.00996400000002
  0
ARC
  5
2E
  8
0
 62
     7
 10
72.074982999999989
 20
104.0947569999999
 30
0.0
 40
6.6333199999999994
 50
247.05111600000001
 51
258.51250099999999
  0
ARC
  5
2F
  8
0
 62
     7
 10
70.375581000000011
 20
100.045643
 30
0.0
 40
2.2421099999999989
 50
223.17925600000001
 51
246.69615999999991
  0
ARC
  5
30
  8
0
 62
     7
 10
81.067306999999985
 20
98.963717000000017
 30
0.0
 40
1.2561690000000001
 50
316.1216379999999
 51
339.09738399999998
  0
ARC
  5
31
  8
0
 62
     7
 10
80.551045999999985
 20
99.424907000000005
 30
0.0
 40
1.948127999999999
 50
295.51322599999992
 51
316.86882700000001
  0
ARC
  5
32
  8
0
 62
     7
 10
80.052572999999995
 20
100.38299499999989
 30
0.0
 40
3.0277189999999989
 50
268.82442400000002
 51
296.21715599999987
  0
ARC
  5
33
  8
0
 62
     7
 10
79.993510999999998
 20
100.60020400000001
 30
0.0
 40
3.2442919999999988
 50
240.12635800000001
 51
269.94604700000002
  0
ARC
  5
34
  8
0
 62
     7
 10
79.267104000000003
 20
99.210988000000015
 30
0.0
 40
1.679
 50
204.624315
 51
238.007836
  0
ARC
  5
35
  8
0
 62
     7
 10
67.567144999999996
 20
98.963699000000005
 30
0.0
 40
1.2561189999999991
 50
316.120588
 51
339.09739400000001
  0
ARC
  5
36
  8
0
 62
     7
 10
67.050901999999994
 20
99.424895000000006
 30
0.0
 40
1.9480679999999999
 50
295.51035899999988
 51
316.86765800000001
  0
ARC
  5
37
  8
0
 62
     7
 10
66.552166999999997
 20
100.3836079999999
 30
0.0
 40
3.0283349999999989
 50
268.82188500000001
 51
296.21456599999999
  0
ARC
  5
38
  8
0
 62
     7
 10
66.492956000000007
 20
100.5997959999999
 30
0.0
 40
3.2438839999999991
 50
240.124438
 51
269.94605899999999
  0
ARC
  5
39
  8
0
 62
     7
 10
65.766681999999989
 20
99.210872999999992
 30
0.0
 40
1.6789139999999989
 50
204.62131999999991
 51
238.005067
  0
LINE
  5
3A
  8
0
 62
     7
 10
141.375
 20
213.34699999999989
 30
0.0
 11
147.51900000000001
 21
213.34699999999989
 31
0.0
  0
LINE
  5
3B
  8
0
 62
     7
 10
96.541500000000013
 20
139.5679999999999
 30
0.0
 11
95.948899999999995
 21
137.35699999999991
 31
0.0
  0
LINE
  5
3C
  8
0
 62
     7
 10
95.948899999999995
 20
137.35699999999991
 30
0.0
 11
95.356399999999994
 21
139.5679999999999
 31
0.0
  0
LINE
  5
3D
  8
0
 62
     7
 10
95.356399999999994
 20
139.5679999999999
 30
0.0
 11
96.541500000000013
 21
139.5679999999999
 31
0.0
  0
LINE
  5
3E
  8
0
 62
     7
 10
95.370800000000017
 20
149.14500000000001
 30
0.0
 11
95.963399999999993
 21
151.357
 31
0.0
  0
LINE
  5
3F
  8
0
 62
     7
 10
95.963399999999993
 20
151.357
 30
0.0
 11
96.555999999999983
 21
149.14500000000001
 31
0.0
  0
LINE
  5
40
  8
0
 62
     7
 10
96.555999999999983
 20
149.14500000000001
 30
0.0
 11
95.370800000000017
 21
149.14500000000001
 31
0.0
  0
LINE
  5
41
  8
0
 62
     7
 10
95.963399999999993
 20
137.35699999999991
 30
0.0
 11
95.963399999999993
 21
151.357
 31
0.0
  0
LINE
  5
42
  8
0
 62
     7
 10
80.940600000000003
 20
151.357
 30
0.0
 11
96.663399999999996
 21
151.357
 31
0.0
  0
LINE
  5
43
  8
0
 62
     7
 10
137.37100000000001
 20
210.1809999999999
 30
0.0
 11
136.226
 21
208.19799999999989
 31
0.0
  0
LINE
  5
44
  8
0
 62
     7
 10
136.226
 20
208.19799999999989
 30
0.0
 11
138.209
 21
209.34299999999999
 31
0.0
  0
LINE
  5
45
  8
0
 62
     7
 10
138.209
 20
209.34299999999999
 30
0.0
 11
137.37100000000001
 21
210.1809999999999
 31
0.0
  0
LINE
  5
46
  8
0
 62
     7
 10
124.3
 20
195.434
 30
0.0
 11
125.44499999999999
 21
197.41699999999989
 31
0.0
  0
LINE
  5
47
  8
0
 62
     7
 10
125.44499999999999
 20
197.41699999999989
 30
0.0
 11
123.462
 21
196.27199999999999
 31
0.0
  0
LINE
  5
48
  8
0
 62
     7
 10
123.462
 20
196.27199999999999
 30
0.0
 11
124.3
 21
195.434
 31
0.0
  0
LINE
  5
49
  8
0
 62
     7
 10
120.73
 20
192.703
 30
0.0
 11
141.375
 21
213.34699999999989
 31
0.0
  0
LINE
  5
4A
  8
0
 62
     7
 10
78.440799999999996
 20
137.35699999999991
 30
0.0
 11
96.663399999999996
 21
137.35699999999991
 31
0.0
  0
LINE
  5
4B
  8
0
 62
     7
 10
60.452199999999998
 20
128.68999999999991
 30
0.0
 11
58.24069999999999
 21
128.09700000000001
 31
0.0
  0
LINE
  5
4C
  8
0
 62
     7
 10
58.24069999999999
 20
128.09700000000001
 30
0.0
 11
60.452199999999998
 21
127.50399999999991
 31
0.0
  0
LINE
  5
4D
  8
0
 62
     7
 10
60.452199999999998
 20
127.50399999999991
 30
0.0
 11
60.452199999999998
 21
128.68999999999991
 31
0.0
  0
LINE
  5
4E
  8
0
 62
     7
 10
86.029399999999995
 20
127.51900000000001
 30
0.0
 11
88.240799999999993
 21
128.11199999999999
 31
0.0
  0
LINE
  5
4F
  8
0
 62
     7
 10
88.240799999999993
 20
128.11199999999999
 30
0.0
 11
86.029399999999995
 21
128.70400000000001
 31
0.0
  0
LINE
  5
50
  8
0
 62
     7
 10
86.029399999999995
 20
128.70400000000001
 30
0.0
 11
86.029399999999995
 21
127.51900000000001
 31
0.0
  0
LINE
  5
51
  8
0
 62
     7
 10
58.24069999999999
 20
128.11199999999999
 30
0.0
 11
88.240799999999993
 21
128.11199999999999
 31
0.0
  0
LINE
  5
52
  8
0
 62
     7
 10
88.240799999999993
 20
120.581
 30
0.0
 11
88.240799999999993
 21
128.81200000000001
 31
0.0
  0
LINE
  5
53
  8
0
 62
     7
 10
58.24069999999999
 20
120.581
 30
0.0
 11
58.24069999999999
 21
128.81200000000001
 31
0.0
  0
LINE
  5
54
  8
0
 62
     7
 10
65.452100000000002
 20
162.149
 30
0.0
 11
63.240600000000001
 21
161.55600000000001
 31
0.0
  0
LINE
  5
55
  8
0
 62
     7
 10
63.240600000000001
 20
161.55600000000001
 30
0.0
 11
65.452100000000002
 21
160.96399999999991
 31
0.0
  0
LINE
  5
56
  8
0
 62
     7
 10
65.452100000000002
 20
160.96399999999991
 30
0.0
 11
65.452100000000002
 21
162.149
 31
0.0
  0
LINE
  5
57
  8
0
 62
     7
 10
81.029499999999985
 20
160.97799999999989
 30
0.0
 11
83.240899999999996
 21
161.57099999999991
 31
0.0
  0
LINE
  5
58
  8
0
 62
     7
 10
83.240899999999996
 20
161.57099999999991
 30
0.0
 11
81.029499999999985
 21
162.1629999999999
 31
0.0
  0
LINE
  5
59
  8
0
 62
     7
 10
81.029499999999985
 20
162.1629999999999
 30
0.0
 11
81.029499999999985
 21
160.97799999999989
 31
0.0
  0
LINE
  5
5A
  8
0
 62
     7
 10
63.240600000000001
 20
161.57099999999991
 30
0.0
 11
83.240899999999996
 21
161.57099999999991
 31
0.0
  0
LINE
  5
5B
  8
0
 62
     7
 10
83.240899999999996
 20
150.83000000000001
 30
0.0
 11
83.240899999999996
 21
162.27099999999999
 31
0.0
  0
LINE
  5
5C
  8
0
 62
     7
 10
63.240600000000001
 20
150.83000000000001
 30
0.0
 11
63.240600000000001
 21
162.27099999999999
 31
0.0
  0
LINE
  5
5D
  8
0
 62
     7
 10
95.385299999999987
 20
109.56699999999999
 30
0.0
 11
95.977900000000005
 21
107.35599999999999
 31
0.0
  0
LINE
  5
5E
  8
0
 62
     7
 10
95.977900000000005
 20
107.35599999999999
 30
0.0
 11
96.570400000000021
 21
109.56699999999999
 31
0.0
  0
LINE
  5
5F
  8
0
 62
     7
 10
96.570400000000021
 20
109.56699999999999
 30
0.0
 11
95.385299999999987
 21
109.56699999999999
 31
0.0
  0
LINE
  5
60
  8
0
 62
     7
 10
96.555999999999983
 20
116.145
 30
0.0
 11
95.963399999999993
 21
118.357
 31
0.0
  0
LINE
  5
61
  8
0
 62
     7
 10
95.963399999999993
 20
118.357
 30
0.0
 11
95.370800000000017
 21
116.145
 31
0.0
  0
LINE
  5
62
  8
0
 62
     7
 10
95.370800000000017
 20
116.145
 30
0.0
 11
96.555999999999983
 21
116.145
 31
0.0
  0
LINE
  5
63
  8
0
 62
     7
 10
95.963399999999993
 20
107.35599999999999
 30
0.0
 11
95.963399999999993
 21
118.357
 31
0.0
  0
LINE
  5
64
  8
0
  6
AIGENLINE001
 62
     7
 10
119.94199999999999
 20
202.72
 30
0.0
 11
141.56200000000001
 21
202.72
 31
0.0
  0
LINE
  5
65
  8
0
  6
AIGENLINE001
 62
     7
 10
130.74799999999991
 20
192.02799999999991
 30
0.0
 11
130.74799999999991
 21
213.97399999999999
 31
0.0
  0
ARC
  5
66
  8
0
 62
     7
 10
130.7484
 20
202.7201729999999
 30
0.0
 40
7.5000220000000004
 50
0.00001
 51
89.999980000000008
  0
ARC
  5
67
  8
0
 62
     7
 10
130.74822999999989
 20
202.72
 30
0.0
 40
7.5001939999999996
 50
89.998683999999997
 51
179.99865399999999
  0
ARC
  5
68
  8
0
 62
     7
 10
130.74822800000001
 20
202.72034500000001
 30
0.0
 40
7.5001910000000001
 50
180.00132600000001
 51
270.00133599999992
  0
ARC
  5
69
  8
0
 62
     7
 10
130.7484
 20
202.72017500000001
 30
0.0
 40
7.5000220000000004
 50
270.00002000000001
 51
359.99998999999991
  0
LINE
  5
6A
  8
0
  6
AIGENLINE001
 62
     7
 10
54.349699999999991
 20
202.72
 30
0.0
 11
91.639799999999994
 21
202.72
 31
0.0
  0
LINE
  5
6B
  8
0
  6
AIGENLINE001
 62
     7
 10
73.240799999999993
 20
184.2109999999999
 30
0.0
 11
73.240799999999993
 21
221.154
 31
0.0
  0
ARC
  5
6C
  8
0
 62
     7
 10
73.240606999999997
 20
202.72034400000001
 30
0.0
 40
9.9999710000000004
 50
359.99902300000002
 51
89.998992999999999
  0
ARC
  5
6D
  8
0
 62
     7
 10
73.240696999999983
 20
202.72008600000001
 30
0.0
 40
10.00023
 50
89.999506999999994
 51
179.99947700000001
  0
ARC
  5
6E
  8
0
 62
     7
 10
73.240693999999991
 20
202.72025799999989
 30
0.0
 40
10.000226
 50
180.00050300000001
 51
270.00051300000001
  0
ARC
  5
6F
  8
0
 62
     7
 10
73.240606999999997
 20
202.72000299999991
 30
0.0
 40
9.9999710000000004
 50
270.0010069999999
 51
0.000977
  0
ARC
  5
70
  8
0
 62
     7
 10
73.240779000000003
 20
202.72017099999991
 30
0.0
 40
15.000043
 50
0.00001
 51
89.999980000000008
  0
ARC
  5
71
  8
0
 62
     7
 10
73.240697999999995
 20
202.72008500000001
 30
0.0
 40
15.000128999999999
 50
89.999670999999992
 51
179.999641
  0
ARC
  5
72
  8
0
 62
     7
 10
73.240693000000007
 20
202.720257
 30
0.0
 40
15.000124
 50
180.000339
 51
270.00034900000003
  0
ARC
  5
73
  8
0
 62
     7
 10
73.240779000000003
 20
202.72017700000001
 30
0.0
 40
15.000043
 50
270.00002000000001
 51
359.99998999999991
  0
LINE
  5
74
  8
0
 62
     7
 10
78.490499999999997
 20
75.856300000000005
 30
0.0
 11
78.240300000000005
 21
71.856499999999997
 31
0.0
  0
LINE
  5
75
  8
0
 62
     7
 10
67.990600000000001
 20
75.856300000000005
 30
0.0
 11
68.240399999999994
 21
71.856499999999997
 31
0.0
  0
LINE
  5
76
  8
0
 62
     7
 10
78.240300000000005
 20
71.856499999999997
 30
0.0
 11
68.240399999999994
 21
71.856499999999997
 31
0.0
  0
LINE
  5
77
  8
0
 62
     7
 10
77.240600000000001
 20
77.356300000000005
 30
0.0
 11
77.240600000000001
 21
75.856300000000005
 31
0.0
  0
LINE
  5
78
  8
0
 62
     7
 10
69.240499999999997
 20
77.356300000000005
 30
0.0
 11
69.240499999999997
 21
75.856300000000005
 31
0.0
  0
LINE
  5
79
  8
0
 62
     7
 10
78.490499999999997
 20
75.856300000000005
 30
0.0
 11
67.990600000000001
 21
75.856300000000005
 31
0.0
  0
LINE
  5
7A
  8
0
 62
     7
 10
67.990600000000001
 20
78.356099999999984
 30
0.0
 11
69.240499999999997
 21
77.356300000000005
 31
0.0
  0
LINE
  5
7B
  8
0
 62
     7
 10
77.240600000000001
 20
77.356300000000005
 30
0.0
 11
78.490499999999997
 21
78.356099999999984
 31
0.0
  0
LINE
  5
7C
  8
0
 62
     7
 10
77.240600000000001
 20
77.356300000000005
 30
0.0
 11
69.240499999999997
 21
77.356300000000005
 31
0.0
  0
LINE
  5
7D
  8
0
 62
     7
 10
78.490499999999997
 20
92.356399999999994
 30
0.0
 11
78.490499999999997
 21
78.356099999999984
 31
0.0
  0
LINE
  5
7E
  8
0
 62
     7
 10
67.990600000000001
 20
92.356399999999994
 30
0.0
 11
67.990600000000001
 21
78.356099999999984
 31
0.0
  0
LINE
  5
7F
  8
0
 62
     7
 10
78.490499999999997
 20
78.356099999999984
 30
0.0
 11
67.990600000000001
 21
78.356099999999984
 31
0.0
  0
LINE
  5
80
  8
0
 62
     7
 10
79.490200000000002
 20
114.35599999999999
 30
0.0
 11
78.490499999999997
 21
113.35599999999999
 31
0.0
  0
LINE
  5
81
  8
0
 62
     7
 10
78.490499999999997
 20
113.35599999999999
 30
0.0
 11
78.490499999999997
 21
107.35599999999999
 31
0.0
  0
LINE
  5
82
  8
0
 62
     7
 10
67.990600000000001
 20
113.35599999999999
 30
0.0
 11
66.990499999999983
 21
114.35599999999999
 31
0.0
  0
LINE
  5
83
  8
0
 62
     7
 10
67.990600000000001
 20
113.35599999999999
 30
0.0
 11
67.990600000000001
 21
107.35599999999999
 31
0.0
  0
LINE
  5
84
  8
0
 62
     7
 10
79.490200000000002
 20
113.35599999999999
 30
0.0
 11
66.990499999999983
 21
113.35599999999999
 31
0.0
  0
LINE
  5
85
  8
0
 62
     7
 10
79.490200000000002
 20
116.35599999999999
 30
0.0
 11
79.490200000000002
 21
107.35599999999999
 31
0.0
  0
LINE
  5
86
  8
0
 62
     7
 10
66.990499999999983
 20
116.35599999999999
 30
0.0
 11
66.990499999999983
 21
107.35599999999999
 31
0.0
  0
LINE
  5
87
  8
0
 62
     7
 10
73.240799999999993
 20
97.356600000000014
 30
0.0
 11
73.240799999999993
 21
104.35599999999999
 31
0.0
  0
LINE
  5
88
  8
0
 62
     7
 10
77.740799999999993
 20
98.515500000000003
 30
0.0
 11
77.740799999999993
 21
104.35599999999999
 31
0.0
  0
LINE
  5
89
  8
0
 62
     7
 10
68.740600000000001
 20
98.515500000000003
 30
0.0
 11
68.740600000000001
 21
104.35599999999999
 31
0.0
  0
LINE
  5
8A
  8
0
 62
     7
 10
82.240799999999979
 20
98.515500000000003
 30
0.0
 11
82.240799999999979
 21
104.35599999999999
 31
0.0
  0
LINE
  5
8B
  8
0
 62
     7
 10
64.240600000000001
 20
98.515500000000003
 30
0.0
 11
64.240600000000001
 21
104.35599999999999
 31
0.0
  0
LINE
  5
8C
  8
0
 62
     7
 10
79.990499999999997
 20
97.356600000000014
 30
0.0
 11
66.490600000000001
 21
97.356600000000014
 31
0.0
  0
LINE
  5
8D
  8
0
 62
     7
 10
85.740399999999994
 20
104.35599999999999
 30
0.0
 11
85.740399999999994
 21
107.35599999999999
 31
0.0
  0
LINE
  5
8E
  8
0
 62
     7
 10
60.740299999999998
 20
104.35599999999999
 30
0.0
 11
60.740299999999998
 21
107.35599999999999
 31
0.0
  0
LINE
  5
8F
  8
0
 62
     7
 10
89.137200000000007
 20
118.357
 30
0.0
 11
96.677899999999994
 21
118.357
 31
0.0
  0
LINE
  5
90
  8
0
 62
     7
 10
86.637500000000003
 20
107.35599999999999
 30
0.0
 11
96.677899999999994
 21
107.35599999999999
 31
0.0
  0
LINE
  5
91
  8
0
 62
     7
 10
85.740399999999994
 20
107.35599999999999
 30
0.0
 11
60.740299999999998
 21
107.35599999999999
 31
0.0
  0
LINE
  5
92
  8
0
 62
     7
 10
85.740399999999994
 20
105.35599999999999
 30
0.0
 11
60.740299999999998
 21
105.35599999999999
 31
0.0
  0
LINE
  5
93
  8
0
 62
     7
 10
85.740399999999994
 20
104.35599999999999
 30
0.0
 11
60.740299999999998
 21
104.35599999999999
 31
0.0
  0
LINE
  5
94
  8
0
 62
     7
 10
78.490499999999997
 20
92.356399999999994
 30
0.0
 11
79.490200000000002
 21
93.356099999999998
 31
0.0
  0
LINE
  5
95
  8
0
 62
     7
 10
66.990499999999983
 20
93.356099999999998
 30
0.0
 11
67.990600000000001
 21
92.356399999999994
 31
0.0
  0
LINE
  5
96
  8
0
 62
     7
 10
79.490200000000002
 20
93.356099999999998
 30
0.0
 11
66.990499999999983
 21
93.356099999999998
 31
0.0
  0
LINE
  5
97
  8
0
 62
     7
 10
67.990600000000001
 20
92.356399999999994
 30
0.0
 11
67.990600000000001
 21
97.356600000000014
 31
0.0
  0
LINE
  5
98
  8
0
 62
     7
 10
78.490499999999997
 20
92.356399999999994
 30
0.0
 11
78.490499999999997
 21
97.356600000000014
 31
0.0
  0
LINE
  5
99
  8
0
 62
     7
 10
79.490200000000002
 20
93.356099999999998
 30
0.0
 11
79.490200000000002
 21
97.356600000000014
 31
0.0
  0
LINE
  5
9A
  8
0
 62
     7
 10
66.990499999999983
 20
93.356099999999998
 30
0.0
 11
66.990499999999983
 21
97.356600000000014
 31
0.0
  0
LINE
  5
9B
  8
0
 62
     7
 10
78.490499999999997
 20
92.356399999999994
 30
0.0
 11
67.990600000000001
 21
92.356399999999994
 31
0.0
  0
LINE
  5
9C
  8
0
 62
     7
 10
87.240399999999994
 20
118.357
 30
0.0
 11
87.240399999999994
 21
116.35599999999999
 31
0.0
  0
LINE
  5
9D
  8
0
 62
     7
 10
59.240299999999998
 20
118.357
 30
0.0
 11
59.240299999999998
 21
116.35599999999999
 31
0.0
  0
LINE
  5
9E
  8
0
 62
     7
 10
87.240399999999994
 20
116.35599999999999
 30
0.0
 11
59.240299999999998
 21
116.35599999999999
 31
0.0
  0
LINE
  5
9F
  8
0
 62
     7
 10
78.240300000000005
 20
122.35599999999999
 30
0.0
 11
87.672399999999996
 21
119.9989999999999
 31
0.0
  0
LINE
  5
A0
  8
0
 62
     7
 10
88.240799999999993
 20
118.357
 30
0.0
 11
88.240799999999993
 21
119.2709999999999
 31
0.0
  0
ARC
  5
A1
  8
0
 62
     7
 10
87.468377000000004
 20
119.25337399999999
 30
0.0
 40
0.7726460000000001
 50
1.306697999999999
 51
74.690758999999986
  0
LINE
  5
A2
  8
0
 62
     7
 10
73.240799999999993
 20
119.857
 30
0.0
 11
87.012299999999996
 21
119.857
 31
0.0
  0
LINE
  5
A3
  8
0
 62
     7
 10
68.240399999999994
 20
122.35599999999999
 30
0.0
 11
58.808700000000002
 21
119.9989999999999
 31
0.0
  0
LINE
  5
A4
  8
0
 62
     7
 10
58.240600000000001
 20
118.357
 30
0.0
 11
58.240600000000001
 21
119.2709999999999
 31
0.0
  0
ARC
  5
A5
  8
0
 62
     7
 10
59.012580000000007
 20
119.253905
 30
0.0
 40
0.7722
 50
105.3379239999999
 51
178.73199700000001
  0
LINE
  5
A6
  8
0
 62
     7
 10
73.240799999999993
 20
119.857
 30
0.0
 11
59.46909999999999
 21
119.857
 31
0.0
  0
LINE
  5
A7
  8
0
 62
     7
 10
88.240799999999993
 20
118.357
 30
0.0
 11
58.240600000000001
 21
118.357
 31
0.0
  0
LINE
  5
A8
  8
0
 62
     7
 10
75.990700000000004
 20
122.35599999999999
 30
0.0
 11
75.990700000000004
 21
137.35599999999991
 31
0.0
  0
LINE
  5
A9
  8
0
 62
     7
 10
70.490399999999994
 20
122.35599999999999
 30
0.0
 11
70.490399999999994
 21
137.35599999999991
 31
0.0
  0
LINE
  5
AA
  8
0
 62
     7
 10
78.240300000000005
 20
122.35599999999999
 30
0.0
 11
68.240399999999994
 21
122.35599999999999
 31
0.0
  0
LINE
  5
AB
  8
0
 62
     7
 10
83.146900000000002
 20
148.934
 30
0.0
 11
77.740799999999993
 21
137.35699999999991
 31
0.0
  0
LINE
  5
AC
  8
0
 62
     7
 10
63.334499999999998
 20
148.934
 30
0.0
 11
68.740600000000001
 21
137.35699999999991
 31
0.0
  0
LINE
  5
AD
  8
0
 62
     7
 10
77.740799999999993
 20
137.35699999999991
 30
0.0
 11
68.740600000000001
 21
137.35699999999991
 31
0.0
  0
LINE
  5
AE
  8
0
  6
AIGENLINE001
 62
     7
 10
73.240799999999993
 20
69.179000000000002
 30
0.0
 11
73.240799999999993
 21
154.76400000000001
 31
0.0
  0
LINE
  5
AF
  8
0
 62
     7
 10
82.240799999999979
 20
150.357
 30
0.0
 11
64.240600000000001
 21
150.357
 31
0.0
  0
ARC
  5
B0
  8
0
 62
     7
 10
82.223656999999989
 20
149.36002400000001
 30
0.0
 40
1.0169269999999999
 50
335.20952699999992
 51
359.81191699999988
  0
ARC
  5
B1
  8
0
 62
     7
 10
82.202393999999998
 20
149.31845300000001
 30
0.0
 40
1.0388889999999991
 50
2.109067
 51
87.881051999999997
  0
ARC
  5
B2
  8
0
 62
     7
 10
73.223363000000006
 20
104.0648629999999
 30
0.0
 40
47.291888
 50
88.391302999999994
 51
89.978887
  0
ARC
  5
B3
  8
0
 62
     7
 10
73.033984000000004
 20
88.872100000000003
 30
0.0
 40
62.484431000000008
 50
84.840412999999984
 51
88.608811000000003
  0
ARC
  5
B4
  8
0
 62
     7
 10
76.331683999999996
 20
125.80132999999999
 30
0.0
 40
25.408297999999998
 50
78.900685999999993
 51
84.757642000000004
  0
ARC
  5
B5
  8
0
 62
     7
 10
79.407999000000004
 20
142.04935399999999
 30
0.0
 40
8.8726430000000001
 50
73.178933000000001
 51
78.195913000000004
  0
ARC
  5
B6
  8
0
 62
     7
 10
80.991127000000006
 20
147.150869
 30
0.0
 40
3.5314909999999999
 50
58.942043000000012
 51
73.813253000000003
  0
ARC
  5
B7
  8
0
 62
     7
 10
73.258199000000005
 20
104.065676
 30
0.0
 40
47.291075999999997
 50
90.021092999999979
 51
91.608689999999996
  0
ARC
  5
B8
  8
0
 62
     7
 10
73.447608000000002
 20
88.873204999999984
 30
0.0
 40
62.483325999999998
 50
91.391210000000015
 51
95.159621000000016
  0
ARC
  5
B9
  8
0
 62
     7
 10
70.150031999999996
 20
125.800749
 30
0.0
 40
25.408884
 50
95.242406000000017
 51
101.099226
  0
ARC
  5
BA
  8
0
 62
     7
 10
67.073920000000001
 20
142.04802000000001
 30
0.0
 40
8.8740079999999981
 50
101.8041079999999
 51
106.82041700000001
  0
ARC
  5
BB
  8
0
 62
     7
 10
65.490681000000009
 20
147.1501649999999
 30
0.0
 40
3.5322199999999988
 50
106.1865159999999
 51
121.05544399999999
  0
ARC
  5
BC
  8
0
 62
     7
 10
64.279207999999997
 20
149.31788399999999
 30
0.0
 40
1.039464999999999
 50
92.129384000000002
 51
177.86071699999991
  0
ARC
  5
BD
  8
0
 62
     7
 10
64.245908999999997
 20
149.35748100000001
 30
0.0
 40
1.0054419999999991
 50
180.0453479999999
 51
204.93324799999999
  0
TEXT
  5
BE
  8
_________2
 62
     7
 10
24.5868
 20
0.707283
 30
0.0
 40
3.9357000000000002
  1
CET680（ワンプッシュ式排水栓）専用
 41
0.5
  0
LINE
  5
BF
  8
_________2
 62
     7
 10
205.30099999999999
 20
127.411
 30
0.0
 11
183.55000000000001
 21
127.411
 31
0.0
  0
LINE
  5
C0
  8
_________2
 62
     7
 10
100.2999999999999
 20
-4.0910799999999998
 30
0.0
 11
100.2999999999999
 21
-21.071400000000001
 31
0.0
  0
LINE
  5
C1
  8
_________2
 62
     7
 10
100.2999999999999
 20
275.93099999999993
 30
0.0
 11
100.2999999999999
 21
258.911
 31
0.0
  0
LINE
  5
C2
  8
_________2
 62
     7
 10
17.049499999999998
 20
127.411
 30
0.0
 11
-4.70052
 21
127.411
 31
0.0
  0
LINE
  5
C3
  8
_________2
 62
     7
 10
76.741
 20
29.8047
 30
0.0
 11
74.554699999999997
 21
29.8047
 31
0.0
  0
LINE
  5
C4
  8
_________2
 62
     7
 10
77.233699999999999
 20
29.8047
 30
0.0
 11
76.981499999999997
 21
29.8047
 31
0.0
  0
LINE
  5
C5
  8
_________2
 62
     7
 10
77.726299999999995
 20
29.8047
 30
0.0
 11
80.651200000000003
 21
29.8047
 31
0.0
  0
LINE
  5
C6
  8
_________2
 62
     7
 10
77.233699999999999
 20
29.8047
 30
0.0
 11
77.485500000000002
 21
29.8047
 31
0.0
  0
LINE
  5
C7
  8
_________2
 62
     7
 10
70.837100000000007
 20
29.8047
 30
0.0
 11
68.650499999999994
 21
29.8047
 31
0.0
  0
LINE
  5
C8
  8
_________2
 62
     7
 10
71.329400000000007
 20
29.8047
 30
0.0
 11
71.077600000000004
 21
29.8047
 31
0.0
  0
LINE
  5
C9
  8
_________2
 62
     7
 10
71.329400000000007
 20
30.2974
 30
0.0
 11
71.329400000000007
 21
32.484400000000001
 31
0.0
  0
LINE
  5
CA
  8
_________2
 62
     7
 10
71.329400000000007
 20
29.8047
 30
0.0
 11
71.329400000000007
 21
30.056899999999992
 31
0.0
  0
LINE
  5
CB
  8
_________2
 62
     7
 10
71.822100000000006
 20
29.8047
 30
0.0
 11
74.009
 21
29.8047
 31
0.0
  0
LINE
  5
CC
  8
_________2
 62
     7
 10
71.329400000000007
 20
29.8047
 30
0.0
 11
71.581599999999995
 21
29.8047
 31
0.0
  0
LINE
  5
CD
  8
_________2
 62
     7
 10
71.329400000000007
 20
29.312799999999999
 30
0.0
 11
71.329400000000007
 21
27.125800000000002
 31
0.0
  0
LINE
  5
CE
  8
_________2
 62
     7
 10
71.329400000000007
 20
29.8047
 30
0.0
 11
71.329400000000007
 21
29.5532
 31
0.0
  0
LINE
  5
CF
  8
_________2
 62
     7
 10
75.040499999999994
 20
28.5852
 30
0.0
 11
80.218500000000006
 21
27.720400000000001
 31
0.0
  0
LINE
  5
D0
  8
_________2
 62
     7
 10
75.040499999999994
 20
31.0243
 30
0.0
 11
80.218500000000006
 21
31.889700000000001
 31
0.0
  0
LINE
  5
D1
  8
_________2
 62
     7
 10
80.218500000000006
 20
27.720400000000001
 30
0.0
 11
80.218500000000006
 21
31.889700000000001
 31
0.0
  0
LINE
  5
D2
  8
_________2
 62
     7
 10
75.040499999999994
 20
28.5852
 30
0.0
 11
75.040499999999994
 21
31.0243
 31
0.0
  0
ARC
  5
D3
  8
_________2
 62
     7
 10
71.28285600000001
 20
29.757811
 30
0.0
 40
1.2673589999999999
 50
2.122214
 51
87.893958999999995
  0
ARC
  5
D4
  8
_________2
 62
     7
 10
71.375959999999992
 20
29.758213000000001
 30
0.0
 40
1.2669559999999991
 50
92.104701000000006
 51
177.8952689999999
  0
ARC
  5
D5
  8
_________2
 62
     7
 10
71.376357999999996
 20
29.851671
 30
0.0
 40
1.2673680000000001
 50
182.12203600000001
 51
267.877993
  0
ARC
  5
D6
  8
_________2
 62
     7
 10
71.282531999999989
 20
29.851998999999989
 30
0.0
 40
1.267695999999999
 50
272.12015300000002
 51
357.863674
  0
ARC
  5
D7
  8
_________2
 62
     7
 10
71.329430000000002
 20
29.804742999999998
 30
0.0
 40
2.0849849999999992
 50
0.00001
 51
89.999980000000008
  0
ARC
  5
D8
  8
_________2
 62
     7
 10
71.329603000000006
 20
29.804915000000001
 30
0.0
 40
2.084813
 50
90.004733999999999
 51
180.00474399999999
  0
ARC
  5
D9
  8
_________2
 62
     7
 10
71.409106000000008
 20
29.884775999999999
 30
0.0
 40
2.1657950000000001
 50
182.11776599999999
 51
267.89173399999999
  0
ARC
  5
DA
  8
_________2
 62
     7
 10
71.249459000000002
 20
29.885429999999989
 30
0.0
 40
2.1664590000000001
 50
272.11546800000002
 51
357.86560400000002
  0
TEXT
  5
DB
  8
_________2
 62
     7
 10
104.605
 20
1.6794899999999999
 30
0.0
 40
3.0923400000000001
  1
図番
 41
0.5
  0
LINE
  5
DC
  8
_________2
 62
     7
 10
103.55
 20
5.9087199999999989
 30
0.0
 11
183.55099999999999
 21
5.9087199999999989
 31
0.0
  0
TEXT
  5
DD
  8
_________2
 62
     7
 10
104.605
 20
11.679299999999991
 30
0.0
 40
3.0923400000000001
  1
品番
 41
0.5
  0
TEXT
  5
DE
  8
_________2
 62
     7
 10
104.605
 20
31.818100000000001
 30
0.0
 40
3.0923400000000001
  1
名称
 41
0.5
  0
TEXT
  5
DF
  8
_________2
 62
     7
 10
91.845058333333341
 20
26.821999999999989
 30
0.0
 40
3.6545800000000002
  1
mm
 41
0.5
 72
     1
 11
93.367800000000003
 21
26.821999999999989
 31
0.0
  0
TEXT
  5
E0
  8
_________2
 62
     7
 10
85.643199999999993
 20
31.818100000000001
 30
0.0
 40
3.0923400000000001
  1
単位
 41
0.5
  0
TEXT
  5
E1
  8
_________2
 62
     7
 10
85.643199999999993
 20
19.410799999999991
 30
0.0
 40
3.0923400000000001
  1
尺度
 41
0.5
  0
TEXT
  5
E2
  8
_________2
 62
     7
 10
90.853307000000001
 20
13.2179
 30
0.0
 40
3.6545800000000002
  1
1 ： 1
 41
0.5
 72
     1
 11
93.959699999999998
 21
13.2179
 31
0.0
  0
TEXT
  5
E3
  8
_________2
 62
     7
 10
136.99049999999991
 20
9.1078600000000005
 30
0.0
 40
3.9357000000000002
  1
CET869R
 41
0.5
 72
     1
 11
143.55000000000001
 21
9.1078600000000005
 31
0.0
  0
TEXT
  5
E4
  8
_________2
 62
     7
 10
136.99049999999991
 20
-0.8926299999999999
 30
0.0
 40
3.9357000000000002
  1
CET869R
 41
0.5
 72
     1
 11
143.55000000000001
 21
-0.8926299999999999
 31
0.0
  0
TEXT
  5
E5
  8
_________2
 62
     7
 10
109.179
 20
24.2257
 30
0.0
 40
3.9357000000000002
  1
ワンプッシュ式引棒部
 41
0.5
  0
TEXT
  5
E6
  8
_________2
 62
     7
 10
39.303480999999991
 20
13.603
 30
0.0
 40
3.6545800000000002
  1
田尻
 41
0.5
 72
     1
 11
41.313499999999998
 21
13.603
 31
0.0
  0
TEXT
  5
E7
  8
_________2
 62
     7
 10
20.790090666666661
 20
13.603
 30
0.0
 40
3.6545800000000002
  1
菅原
 41
0.5
 72
     1
 11
22.73919999999999
 21
13.603
 31
0.0
  0
TEXT
  5
E8
  8
_________2
 62
     7
 10
67.785399999999996
 20
13.2179
 30
0.0
 40
3.6545800000000002
  1
12.03.23
 41
0.5
  0
TEXT
  5
E9
  8
_________2
 62
     7
 10
66.593100000000007
 20
19.410799999999991
 30
0.0
 40
3.0923400000000001
  1
日付
 41
0.5
  0
TEXT
  5
EA
  8
_________2
 62
     7
 10
29.639399999999998
 20
19.410799999999991
 30
0.0
 40
3.0923400000000001
  1
検図
 41
0.5
  0
TEXT
  5
EB
  8
_________2
 62
     7
 10
18.021100000000001
 20
5.21143
 30
0.0
 40
3.0923400000000001
  1
備考
 41
0.5
  0
TEXT
  5
EC
  8
_________2
 62
     7
 10
18.021100000000001
 20
19.410799999999991
 30
0.0
 40
3.0923400000000001
  1
製図
 41
0.5
  0
TEXT
  5
ED
  8
_________2
 62
     7
 10
23.788465333333338
 20
27.936800000000002
 30
0.0
 40
4.4979399999999989
  1
セラトレーディング株式会社
 41
0.5
 72
     1
 11
41.180500000000002
 21
27.936800000000002
 31
0.0
  0
LINE
  5
EE
  8
_________2
 62
     7
 10
183.55099999999999
 20
-4.0910799999999998
 30
0.0
 11
17.049499999999998
 21
-4.0910799999999998
 31
0.0
  0
LINE
  5
EF
  8
_________2
 62
     7
 10
17.049499999999998
 20
-4.0910799999999998
 30
0.0
 11
17.049499999999998
 21
258.911
 31
0.0
  0
LINE
  5
F0
  8
_________2
 62
     7
 10
17.049499999999998
 20
258.911
 30
0.0
 11
183.55099999999999
 21
258.911
 31
0.0
  0
LINE
  5
F1
  8
_________2
 62
     7
 10
183.55099999999999
 20
258.911
 30
0.0
 11
183.55099999999999
 21
-4.0910799999999998
 31
0.0
  0
LINE
  5
F2
  8
_________2
 62
     7
 10
65.549599999999998
 20
9.4089600000000004
 30
0.0
 11
65.549599999999998
 21
35.908799999999999
 31
0.0
  0
LINE
  5
F3
  8
_________2
 62
     7
 10
84.549700000000016
 20
9.4089600000000004
 30
0.0
 11
84.549700000000016
 21
35.908799999999999
 31
0.0
  0
LINE
  5
F4
  8
_________2
 62
     7
 10
103.55
 20
-4.0910799999999998
 30
0.0
 11
103.55
 21
35.908799999999999
 31
0.0
  0
LINE
  5
F5
  8
_________2
 62
     7
 10
28.549299999999992
 20
9.4089600000000004
 30
0.0
 11
28.549299999999992
 21
23.409199999999998
 31
0.0
  0
LINE
  5
F6
  8
_________2
 62
     7
 10
17.049499999999998
 20
9.4089600000000004
 30
0.0
 11
103.55
 21
9.4089600000000004
 31
0.0
  0
LINE
  5
F7
  8
_________2
 62
     7
 10
17.049499999999998
 20
23.409199999999998
 30
0.0
 11
103.55
 21
23.409199999999998
 31
0.0
  0
LINE
  5
F8
  8
_________2
 62
     7
 10
103.55
 20
15.9085
 30
0.0
 11
183.55099999999999
 21
15.9085
 31
0.0
  0
LINE
  5
F9
  8
_________2
 62
     7
 10
17.049499999999998
 20
35.908799999999999
 30
0.0
 11
183.55099999999999
 21
35.908799999999999
 31
0.0
  0
ENDSEC
  0
EOF
