  0
SECTION
  2
HEADER
  9
$ACADVER
  1
AC1015
  9
$ACADMAINTVER
 70
     6
  9
$DWGCODEPAGE
  3
ANSI_932
  9
$INSBASE
 10
0.0
 20
0.0
 30
0.0
  9
$EXTMIN
 10
-4.70052
 20
-21.0714
 30
0.0
  9
$EXTMAX
 10
205.301
 20
275.9309999999999
 30
0.0
  9
$LIMMIN
 10
0.0
 20
0.0
  9
$LIMMAX
 10
12.0
 20
9.0
  9
$ORTHOMODE
 70
     0
  9
$REGENMODE
 70
     1
  9
$FILLMODE
 70
     1
  9
$QTEXTMODE
 70
     0
  9
$MIRRTEXT
 70
     1
  9
$LTSCALE
 40
1.0
  9
$ATTMODE
 70
     1
  9
$TEXTSIZE
 40
0.0
  9
$TRACEWID
 40
0.05
  9
$TEXTSTYLE
  7
STANDARD
  9
$CLAYER
  8
0
  9
$CELTYPE
  6
CONTINUOUS
  9
$CECOLOR
 62
   256
  9
$CELTSCALE
 40
1.0
  9
$DISPSILH
 70
     0
  9
$DIMSCALE
 40
1.0
  9
$DIMASZ
 40
0.18
  9
$DIMEXO
 40
0.0625
  9
$DIMDLI
 40
0.38
  9
$DIMRND
 40
0.0
  9
$DIMDLE
 40
0.0
  9
$DIMEXE
 40
0.18
  9
$DIMTP
 40
0.0
  9
$DIMTM
 40
0.0
  9
$DIMTXT
 40
0.18
  9
$DIMCEN
 40
0.09
  9
$DIMTSZ
 40
0.0
  9
$DIMTOL
 70
     0
  9
$DIMLIM
 70
     0
  9
$DIMTIH
 70
     1
  9
$DIMTOH
 70
     1
  9
$DIMSE1
 70
     0
  9
$DIMSE2
 70
     0
  9
$DIMTAD
 70
     0
  9
$DIMZIN
 70
     0
  9
$DIMBLK
  1

  9
$DIMASO
 70
     1
  9
$DIMSHO
 70
     1
  9
$DIMPOST
  1

  9
$DIMAPOST
  1

  9
$DIMALT
 70
     0
  9
$DIMALTD
 70
     2
  9
$DIMALTF
 40
25.4
  9
$DIMLFAC
 40
1.0
  9
$DIMTOFL
 70
     0
  9
$DIMTVP
 40
0.0
  9
$DIMTIX
 70
     0
  9
$DIMSOXD
 70
     0
  9
$DIMSAH
 70
     0
  9
$DIMBLK1
  1

  9
$DIMBLK2
  1

  9
$DIMSTYLE
  2
STANDARD
  9
$DIMCLRD
 70
     0
  9
$DIMCLRE
 70
     0
  9
$DIMCLRT
 70
     0
  9
$DIMTFAC
 40
1.0
  9
$DIMGAP
 40
0.09
  9
$DIMJUST
 70
     0
  9
$DIMSD1
 70
     0
  9
$DIMSD2
 70
     0
  9
$DIMTOLJ
 70
     1
  9
$DIMTZIN
 70
     0
  9
$DIMALTZ
 70
     0
  9
$DIMALTTZ
 70
     0
  9
$DIMUPT
 70
     0
  9
$DIMDEC
 70
     4
  9
$DIMTDEC
 70
     4
  9
$DIMALTU
 70
     2
  9
$DIMALTTD
 70
     2
  9
$DIMTXSTY
  7
STANDARD
  9
$DIMAUNIT
 70
     0
  9
$DIMADEC
 70
     0
  9
$DIMALTRND
 40
0.0
  9
$DIMAZIN
 70
     0
  9
$DIMDSEP
 70
    46
  9
$DIMATFIT
 70
     3
  9
$DIMFRAC
 70
     0
  9
$DIMLDRBLK
  1

  9
$DIMLUNIT
 70
     2
  9
$DIMLWD
 70
    -2
  9
$DIMLWE
 70
    -2
  9
$DIMTMOVE
 70
     0
  9
$LUNITS
 70
     2
  9
$LUPREC
 70
     4
  9
$SKETCHINC
 40
0.1
  9
$FILLETRAD
 40
0.0
  9
$AUNITS
 70
     0
  9
$AUPREC
 70
     0
  9
$MENU
  1
.
  9
$ELEVATION
 40
0.0
  9
$PELEVATION
 40
0.0
  9
$THICKNESS
 40
0.0
  9
$LIMCHECK
 70
     0
  9
$CHAMFERA
 40
0.0
  9
$CHAMFERB
 40
0.0
  9
$CHAMFERC
 40
0.0
  9
$CHAMFERD
 40
0.0
  9
$SKPOLY
 70
     0
  9
$TDCREATE
 40
2444972.375000000
  9
$TDUCREATE
 40
2444972.000000000
  9
$TDUPDATE
 40
2454684.547160382
  9
$TDUUPDATE
 40
2454684.172160382
  9
$TDINDWG
 40
0.0001377315
  9
$TDUSRTIMER
 40
0.0001377315
  9
$USRTIMER
 70
     1
  9
$ANGBASE
 50
0.0
  9
$ANGDIR
 70
     0
  9
$PDMODE
 70
     0
  9
$PDSIZE
 40
0.0
  9
$PLINEWID
 40
0.0
  9
$SPLFRAME
 70
     0
  9
$SPLINETYPE
 70
     6
  9
$SPLINESEGS
 70
     8
  9
$HANDSEED
  5
19A
  9
$SURFTAB1
 70
     6
  9
$SURFTAB2
 70
     6
  9
$SURFTYPE
 70
     6
  9
$SURFU
 70
     6
  9
$SURFV
 70
     6
  9
$UCSBASE
  2

  9
$UCSNAME
  2

  9
$UCSORG
 10
0.0
 20
0.0
 30
0.0
  9
$UCSXDIR
 10
1.0
 20
0.0
 30
0.0
  9
$UCSYDIR
 10
0.0
 20
1.0
 30
0.0
  9
$UCSORTHOREF
  2

  9
$UCSORTHOVIEW
 70
     0
  9
$UCSORGTOP
 10
0.0
 20
0.0
 30
0.0
  9
$UCSORGBOTTOM
 10
0.0
 20
0.0
 30
0.0
  9
$UCSORGLEFT
 10
0.0
 20
0.0
 30
0.0
  9
$UCSORGRIGHT
 10
0.0
 20
0.0
 30
0.0
  9
$UCSORGFRONT
 10
0.0
 20
0.0
 30
0.0
  9
$UCSORGBACK
 10
0.0
 20
0.0
 30
0.0
  9
$PUCSBASE
  2

  9
$PUCSNAME
  2

  9
$PUCSORG
 10
0.0
 20
0.0
 30
0.0
  9
$PUCSXDIR
 10
1.0
 20
0.0
 30
0.0
  9
$PUCSYDIR
 10
0.0
 20
1.0
 30
0.0
  9
$PUCSORTHOREF
  2

  9
$PUCSORTHOVIEW
 70
     0
  9
$PUCSORGTOP
 10
0.0
 20
0.0
 30
0.0
  9
$PUCSORGBOTTOM
 10
0.0
 20
0.0
 30
0.0
  9
$PUCSORGLEFT
 10
0.0
 20
0.0
 30
0.0
  9
$PUCSORGRIGHT
 10
0.0
 20
0.0
 30
0.0
  9
$PUCSORGFRONT
 10
0.0
 20
0.0
 30
0.0
  9
$PUCSORGBACK
 10
0.0
 20
0.0
 30
0.0
  9
$USERI1
 70
     0
  9
$USERI2
 70
     0
  9
$USERI3
 70
     0
  9
$USERI4
 70
     0
  9
$USERI5
 70
     0
  9
$USERR1
 40
0.0
  9
$USERR2
 40
0.0
  9
$USERR3
 40
0.0
  9
$USERR4
 40
0.0
  9
$USERR5
 40
0.0
  9
$WORLDVIEW
 70
     1
  9
$SHADEDGE
 70
     3
  9
$SHADEDIF
 70
    70
  9
$TILEMODE
 70
     1
  9
$MAXACTVP
 70
    48
  9
$PINSBASE
 10
0.0
 20
0.0
 30
0.0
  9
$PLIMCHECK
 70
     0
  9
$PEXTMIN
 10
1.000000000000000E+20
 20
1.000000000000000E+20
 30
1.000000000000000E+20
  9
$PEXTMAX
 10
-1.000000000000000E+20
 20
-1.000000000000000E+20
 30
-1.000000000000000E+20
  9
$PLIMMIN
 10
0.0
 20
0.0
  9
$PLIMMAX
 10
12.0
 20
9.0
  9
$UNITMODE
 70
     0
  9
$VISRETAIN
 70
     1
  9
$PLINEGEN
 70
     0
  9
$PSLTSCALE
 70
     1
  9
$TREEDEPTH
 70
  3020
  9
$CMLSTYLE
  2
STANDARD
  9
$CMLJUST
 70
     0
  9
$CMLSCALE
 40
1.0
  9
$PROXYGRAPHICS
 70
     1
  9
$MEASUREMENT
 70
     0
  9
$CELWEIGHT
370
    -1
  9
$ENDCAPS
280
     0
  9
$JOINSTYLE
280
     0
  9
$LWDISPLAY
290
     0
  9
$INSUNITS
 70
     0
  9
$HYPERLINKBASE
  1

  9
$STYLESHEET
  1

  9
$XEDIT
290
     1
  9
$CEPSNTYPE
380
     0
  9
$PSTYLEMODE
290
     1
  9
$FINGERPRINTGUID
  2
{8FCB14F0-9440-4AD2-B41C-51D964D08CE8}
  9
$VERSIONGUID
  2
{5FA0714A-5291-4877-A96D-9BCA3DC69B59}
  9
$EXTNAMES
290
     1
  9
$PSVPSCALE
 40
0.0
  9
$OLESTARTUP
290
     0
  0
ENDSEC
  0
SECTION
  2
CLASSES
  0
CLASS
  1
ACDBDICTIONARYWDFLT
  2
AcDbDictionaryWithDefault
  3
AutoCAD 2000
 90
        0
280
     0
281
     0
  0
CLASS
  1
ACDBPLACEHOLDER
  2
AcDbPlaceHolder
  3
AutoCAD 2000
 90
        0
280
     0
281
     0
  0
CLASS
  1
LAYOUT
  2
AcDbLayout
  3
AutoCAD 2000
 90
        0
280
     0
281
     0
  0
ENDSEC
  0
SECTION
  2
TABLES
  0
TABLE
  2
VPORT
  5
8
330
0
100
AcDbSymbolTable
 70
     2
  0
VPORT
  5
199
330
8
100
AcDbSymbolTableRecord
100
AcDbViewportTableRecord
  2
*Active
 70
     0
 10
0.0
 20
0.0
 11
1.0
 21
1.0
 12
100.3002399999999
 22
168.4078053085731
 13
0.0
 23
0.0
 14
1.0
 24
1.0
 15
0.0
 25
0.0
 16
0.0
 26
0.0
 36
1.0
 17
0.0
 27
0.0
 37
0.0
 40
387.3613781910261
 41
1.919607843137255
 42
50.0
 43
0.0
 44
0.0
 50
0.0
 51
0.0
 71
     0
 72
   100
 73
     1
 74
     1
 75
     0
 76
     0
 77
     0
 78
     0
281
     0
 65
     1
110
0.0
120
0.0
130
0.0
111
1.0
121
0.0
131
0.0
112
0.0
122
1.0
132
0.0
 79
     0
146
0.0
  0
ENDTAB
  0
TABLE
  2
LTYPE
  5
5
330
0
100
AcDbSymbolTable
 70
     4
  0
LTYPE
  5
12
330
5
100
AcDbSymbolTableRecord
100
AcDbLinetypeTableRecord
  2
BYBLOCK
 70
     0
  3

 72
    65
 73
     0
 40
0.0
  0
LTYPE
  5
13
330
5
100
AcDbSymbolTableRecord
100
AcDbLinetypeTableRecord
  2
BYLAYER
 70
     0
  3

 72
    65
 73
     0
 40
0.0
  0
LTYPE
  5
14
330
5
100
AcDbSymbolTableRecord
100
AcDbLinetypeTableRecord
  2
CONTINUOUS
 70
     0
  3
Solid line
 72
    65
 73
     0
 40
0.0
  0
LTYPE
  5
1F
330
5
100
AcDbSymbolTableRecord
100
AcDbLinetypeTableRecord
  2
AIGENLINE001
 70
     0
  3
generate AI->DXF Converter
 72
    65
 73
     6
 40
7.408375
 49
3.5278
 74
     0
 49
-0.776115
 74
     0
 49
0.776115
 74
     0
 49
-0.776115
 74
     0
 49
0.776115
 74
     0
 49
-0.776115
 74
     0
  0
LTYPE
  5
20
330
5
100
AcDbSymbolTableRecord
100
AcDbLinetypeTableRecord
  2
AIGENLINE002
 70
     0
  3
generate AI->DXF Converter
 72
    65
 73
     4
 40
5.856144999999999
 49
3.5278
 74
     0
 49
-0.776115
 74
     0
 49
0.776115
 74
     0
 49
-0.776115
 74
     0
  0
LTYPE
  5
21
330
5
100
AcDbSymbolTableRecord
100
AcDbLinetypeTableRecord
  2
AIGENLINE003
 70
     0
  3
generate AI->DXF Converter
 72
    65
 73
     2
 40
1.552229999999999
 49
0.776115
 74
     0
 49
-0.776115
 74
     0
  0
ENDTAB
  0
TABLE
  2
LAYER
  5
2
330
0
100
AcDbSymbolTable
 70
     2
  0
LAYER
  5
E
330
2
100
AcDbSymbolTableRecord
100
AcDbLayerTableRecord
  2
0
 70
     0
 62
     7
  6
CONTINUOUS
370
    -3
390
191
  0
LAYER
  5
22
330
2
100
AcDbSymbolTableRecord
100
AcDbLayerTableRecord
  2
_________2
 70
     0
 62
     7
  6
CONTINUOUS
370
    -3
390
191
  0
ENDTAB
  0
TABLE
  2
STYLE
  5
3
330
0
100
AcDbSymbolTable
 70
     1
  0
STYLE
  5
F
330
3
100
AcDbSymbolTableRecord
100
AcDbTextStyleTableRecord
  2
STANDARD
 70
     0
 40
0.0
 41
0.0
 50
0.0
 71
     0
 42
0.0
  3
TXT
  4
BIGFONT
  0
ENDTAB
  0
TABLE
  2
VIEW
  5
6
330
0
100
AcDbSymbolTable
 70
     0
  0
ENDTAB
  0
TABLE
  2
UCS
  5
7
330
0
100
AcDbSymbolTable
 70
     0
  0
ENDTAB
  0
TABLE
  2
APPID
  5
9
330
0
100
AcDbSymbolTable
 70
     1
  0
APPID
  5
10
330
9
100
AcDbSymbolTableRecord
100
AcDbRegAppTableRecord
  2
ACAD
 70
     0
  0
ENDTAB
  0
TABLE
  2
DIMSTYLE
  5
A
330
0
100
AcDbSymbolTable
 70
     1
100
AcDbDimStyleTable
 71
     0
  0
DIMSTYLE
105
18D
330
A
100
AcDbSymbolTableRecord
100
AcDbDimStyleTableRecord
  2
STANDARD
 70
     0
340
F
  0
ENDTAB
  0
TABLE
  2
BLOCK_RECORD
  5
1
330
0
100
AcDbSymbolTable
 70
     0
  0
BLOCK_RECORD
  5
18
330
1
100
AcDbSymbolTableRecord
100
AcDbBlockTableRecord
  2
*MODEL_SPACE
340
194
  0
BLOCK_RECORD
  5
15
330
1
100
AcDbSymbolTableRecord
100
AcDbBlockTableRecord
  2
*PAPER_SPACE
340
195
  0
ENDTAB
  0
ENDSEC
  0
SECTION
  2
BLOCKS
  0
BLOCK
  5
19
330
18
100
AcDbEntity
  8
0
100
AcDbBlockBegin
  2
*MODEL_SPACE
 70
     0
 10
0.0
 20
0.0
 30
0.0
  3
*MODEL_SPACE
  1

  0
ENDBLK
  5
1A
330
18
100
AcDbEntity
  8
0
100
AcDbBlockEnd
  0
BLOCK
  5
16
330
15
100
AcDbEntity
 67
     1
  8
0
100
AcDbBlockBegin
  2
*PAPER_SPACE
 70
     0
 10
0.0
 20
0.0
 30
0.0
  3
*PAPER_SPACE
  1

  0
ENDBLK
  5
17
330
15
100
AcDbEntity
 67
     1
  8
0
100
AcDbBlockEnd
  0
ENDSEC
  0
SECTION
  2
ENTITIES
  0
ARC
  5
24
330
18
100
AcDbEntity
  8
0
  6
AIGENLINE001
100
AcDbCircle
 10
100.309068
 20
109.586424
 30
0.0
 40
1.500004
100
AcDbArc
 50
179.9999699999999
 51
270.00002
  0
TEXT
  5
25
330
18
100
AcDbEntity
  8
0
100
AcDbText
 10
86.7992
 20
116.1839999999999
 30
0.0
 40
3.09234
  1
パッキン
 41
0.5
100
AcDbText
  0
TEXT
  5
26
330
18
100
AcDbEntity
  8
0
100
AcDbText
 10
115.259809
 20
91.5712
 30
0.0
 40
3.09234
  1
G1 1/4
 41
0.5
 72
     1
 11
118.816
 21
91.5712
 31
0.0
100
AcDbText
  0
TEXT
  5
27
330
18
100
AcDbEntity
  8
0
100
AcDbText
 10
151.06
 20
115.5064225
 30
0.0
 40
3.09234
  1
max.50
 50
90.0
 41
0.5
 72
     1
 11
151.06
 21
119.2429999999999
 31
0.0
100
AcDbText
  0
TEXT
  5
28
330
18
100
AcDbEntity
  8
0
100
AcDbText
 10
116.54944
 20
206.4729999999999
 30
0.0
 40
3.09234
  1
%%c64
 41
0.5
 72
     1
 11
118.611
 21
206.4729999999999
 31
0.0
100
AcDbText
  0
LINE
  5
29
330
18
100
AcDbEntity
  8
0
100
AcDbLine
 10
120.316
 20
98.3364
 30
0.0
 11
117.3159999999999
 21
98.3364
 31
0.0
  0
LINE
  5
2A
330
18
100
AcDbEntity
  8
0
100
AcDbLine
 10
119.816
 20
97.83650000000001
 30
0.0
 11
117.816
 21
97.83650000000001
 31
0.0
  0
LINE
  5
2B
330
18
100
AcDbEntity
  8
0
100
AcDbLine
 10
117.3159999999999
 20
98.3364
 30
0.0
 11
117.816
 21
97.83650000000001
 31
0.0
  0
LINE
  5
2C
330
18
100
AcDbEntity
  8
0
100
AcDbLine
 10
120.316
 20
98.3364
 30
0.0
 11
119.816
 21
97.83650000000001
 31
0.0
  0
LINE
  5
2D
330
18
100
AcDbEntity
  8
0
100
AcDbLine
 10
120.816
 20
123.1749999999999
 30
0.0
 11
122.066
 21
124.1749999999999
 31
0.0
  0
LINE
  5
2E
330
18
100
AcDbEntity
  8
0
100
AcDbLine
 10
115.566
 20
124.1749999999999
 30
0.0
 11
116.816
 21
123.1749999999999
 31
0.0
  0
LINE
  5
2F
330
18
100
AcDbEntity
  8
0
100
AcDbLine
 10
116.816
 20
123.1749999999999
 30
0.0
 11
120.816
 21
123.1749999999999
 31
0.0
  0
LINE
  5
30
330
18
100
AcDbEntity
  8
0
100
AcDbLine
 10
126.74
 20
124.1749999999999
 30
0.0
 11
118.816
 21
124.1749999999999
 31
0.0
  0
LINE
  5
31
330
18
100
AcDbEntity
  8
0
100
AcDbLine
 10
128.673
 20
129.93
 30
0.0
 11
127.723
 21
124.9859999999999
 31
0.0
  0
ARC
  5
32
330
18
100
AcDbEntity
  8
0
100
AcDbCircle
 10
126.713453
 20
125.207985
 30
0.0
 40
1.033209
100
AcDbArc
 50
271.472733
 51
347.598834
  0
LINE
  5
33
330
18
100
AcDbEntity
  8
0
100
AcDbLine
 10
129.5719999999999
 20
130.7379999999999
 30
0.0
 11
134.816
 21
131.175
 31
0.0
  0
ARC
  5
34
330
18
100
AcDbEntity
  8
0
100
AcDbCircle
 10
129.679237
 20
129.714944
 30
0.0
 40
1.028567
100
AcDbArc
 50
95.990412
 51
167.930555
  0
LINE
  5
35
330
18
100
AcDbEntity
  8
0
100
AcDbLine
 10
110.892
 20
124.1749999999999
 30
0.0
 11
118.816
 21
124.1749999999999
 31
0.0
  0
LINE
  5
36
330
18
100
AcDbEntity
  8
0
100
AcDbLine
 10
108.959
 20
129.93
 30
0.0
 11
109.9099999999999
 21
124.9859999999999
 31
0.0
  0
ARC
  5
37
330
18
100
AcDbEntity
  8
0
100
AcDbCircle
 10
110.918257
 20
125.2070459999999
 30
0.0
 40
1.032259
100
AcDbArc
 50
192.359412
 51
268.5493319999999
  0
LINE
  5
38
330
18
100
AcDbEntity
  8
0
100
AcDbLine
 10
108.06
 20
130.7379999999999
 30
0.0
 11
102.8159999999999
 21
131.175
 31
0.0
  0
ARC
  5
39
330
18
100
AcDbEntity
  8
0
100
AcDbCircle
 10
107.9526889999999
 20
129.714287
 30
0.0
 40
1.029241
100
AcDbArc
 50
12.098784
 51
84.00204999999999
  0
LINE
  5
3A
330
18
100
AcDbEntity
  8
0
  6
AIGENLINE002
100
AcDbLine
 10
118.816
 20
96.8298
 30
0.0
 11
118.816
 21
135.441
 31
0.0
  0
LINE
  5
3B
330
18
100
AcDbEntity
  8
0
100
AcDbLine
 10
134.816
 20
131.175
 30
0.0
 11
134.816
 21
131.675
 31
0.0
  0
LINE
  5
3C
330
18
100
AcDbEntity
  8
0
100
AcDbLine
 10
102.8159999999999
 20
131.175
 30
0.0
 11
102.8159999999999
 21
131.675
 31
0.0
  0
LINE
  5
3D
330
18
100
AcDbEntity
  8
0
100
AcDbLine
 10
102.8159999999999
 20
131.175
 30
0.0
 11
134.816
 21
131.175
 31
0.0
  0
LINE
  5
3E
330
18
100
AcDbEntity
  8
0
100
AcDbLine
 10
102.8159999999999
 20
131.675
 30
0.0
 11
134.816
 21
131.675
 31
0.0
  0
ARC
  5
3F
330
18
100
AcDbEntity
  8
0
  6
AIGENLINE001
100
AcDbCircle
 10
137.266232
 20
109.6436
 30
0.0
 40
1.558229
100
AcDbArc
 50
272.102817
 51
357.897193
  0
LINE
  5
40
330
18
100
AcDbEntity
  8
0
100
AcDbLine
 10
108.566
 20
98.39809999999999
 30
0.0
 11
108.566
 21
89.9465
 31
0.0
  0
LINE
  5
41
330
18
100
AcDbEntity
  8
0
100
AcDbLine
 10
129.066
 20
98.39809999999999
 30
0.0
 11
129.066
 21
89.9465
 31
0.0
  0
LINE
  5
42
330
18
100
AcDbEntity
  8
0
100
AcDbLine
 10
110.7779999999999
 20
91.2391
 30
0.0
 11
108.566
 21
90.6465
 31
0.0
  0
LINE
  5
43
330
18
100
AcDbEntity
  8
0
100
AcDbLine
 10
108.566
 20
90.6465
 30
0.0
 11
110.7779999999999
 21
90.05399999999999
 31
0.0
  0
LINE
  5
44
330
18
100
AcDbEntity
  8
0
100
AcDbLine
 10
110.7779999999999
 20
90.05399999999999
 30
0.0
 11
110.7779999999999
 21
91.2391
 31
0.0
  0
LINE
  5
45
330
18
100
AcDbEntity
  8
0
100
AcDbLine
 10
126.855
 20
90.0685
 30
0.0
 11
129.066
 21
90.661
 31
0.0
  0
LINE
  5
46
330
18
100
AcDbEntity
  8
0
100
AcDbLine
 10
129.066
 20
90.661
 30
0.0
 11
126.855
 21
91.2536
 31
0.0
  0
LINE
  5
47
330
18
100
AcDbEntity
  8
0
100
AcDbLine
 10
126.855
 20
91.2536
 30
0.0
 11
126.855
 21
90.0685
 31
0.0
  0
LINE
  5
48
330
18
100
AcDbEntity
  8
0
100
AcDbLine
 10
108.566
 20
90.6465
 30
0.0
 11
129.066
 21
90.6465
 31
0.0
  0
LINE
  5
49
330
18
100
AcDbEntity
  8
0
100
AcDbLine
 10
129.066
 20
99.8367
 30
0.0
 11
128.567
 21
99.3365
 31
0.0
  0
LINE
  5
4A
330
18
100
AcDbEntity
  8
0
100
AcDbLine
 10
109.0659999999999
 20
99.3365
 30
0.0
 11
108.566
 21
99.8367
 31
0.0
  0
LINE
  5
4B
330
18
100
AcDbEntity
  8
0
100
AcDbLine
 10
109.0659999999999
 20
99.3365
 30
0.0
 11
109.0659999999999
 21
104.837
 31
0.0
  0
LINE
  5
4C
330
18
100
AcDbEntity
  8
0
100
AcDbLine
 10
108.566
 20
99.8367
 30
0.0
 11
129.066
 21
99.8367
 31
0.0
  0
LINE
  5
4D
330
18
100
AcDbEntity
  8
0
100
AcDbLine
 10
128.567
 20
99.3365
 30
0.0
 11
128.567
 21
104.837
 31
0.0
  0
LINE
  5
4E
330
18
100
AcDbEntity
  8
0
100
AcDbLine
 10
129.066
 20
99.8367
 30
0.0
 11
129.066
 21
104.837
 31
0.0
  0
LINE
  5
4F
330
18
100
AcDbEntity
  8
0
100
AcDbLine
 10
108.566
 20
99.8367
 30
0.0
 11
108.566
 21
104.837
 31
0.0
  0
LINE
  5
50
330
18
100
AcDbEntity
  8
0
100
AcDbLine
 10
109.0659999999999
 20
99.3365
 30
0.0
 11
128.567
 21
99.3365
 31
0.0
  0
ARC
  5
51
330
18
100
AcDbEntity
  8
0
100
AcDbCircle
 10
132.751278
 20
106.369375
 30
0.0
 40
1.530424999999999
100
AcDbArc
 50
270.662115
 51
329.2396939999999
  0
LINE
  5
52
330
18
100
AcDbEntity
  8
0
100
AcDbLine
 10
104.864
 20
104.837
 30
0.0
 11
132.769
 21
104.837
 31
0.0
  0
ARC
  5
53
330
18
100
AcDbEntity
  8
0
100
AcDbCircle
 10
104.882128
 20
106.3709889999999
 30
0.0
 40
1.532049999999999
100
AcDbArc
 50
210.794402
 51
269.3038279999999
  0
LINE
  5
54
330
18
100
AcDbEntity
  8
0
100
AcDbLine
 10
134.4429999999999
 20
107.1439999999999
 30
0.0
 11
135.0659999999999
 21
105.587
 31
0.0
  0
ARC
  5
55
330
18
100
AcDbEntity
  8
0
100
AcDbCircle
 10
133.0256789999999
 20
106.549446
 30
0.0
 40
1.537179
100
AcDbArc
 50
22.74781499999999
 51
89.06461
  0
LINE
  5
56
330
18
100
AcDbEntity
  8
0
100
AcDbLine
 10
104.582
 20
108.0859999999999
 30
0.0
 11
133.051
 21
108.0859999999999
 31
0.0
  0
LINE
  5
57
330
18
100
AcDbEntity
  8
0
100
AcDbLine
 10
103.1889999999999
 20
107.1439999999999
 30
0.0
 11
102.566
 21
105.587
 31
0.0
  0
ARC
  5
58
330
18
100
AcDbEntity
  8
0
100
AcDbCircle
 10
104.60692
 20
106.548745
 30
0.0
 40
1.537881
100
AcDbArc
 50
90.939545
 51
157.234833
  0
LINE
  5
59
330
18
100
AcDbEntity
  8
0
100
AcDbLine
 10
102.566
 20
105.587
 30
0.0
 11
135.0659999999999
 21
105.587
 31
0.0
  0
LINE
  5
5A
330
18
100
AcDbEntity
  8
0
  6
AIGENLINE001
100
AcDbLine
 10
137.3229999999999
 20
108.0859999999999
 30
0.0
 11
130.717
 21
108.0859999999999
 31
0.0
  0
LINE
  5
5B
330
18
100
AcDbEntity
  8
0
  6
AIGENLINE001
100
AcDbLine
 10
138.8229999999999
 20
124.3829999999999
 30
0.0
 11
138.8229999999999
 21
109.586
 31
0.0
  0
LINE
  5
5C
330
18
100
AcDbEntity
  8
0
  6
AIGENLINE001
100
AcDbLine
 10
130.717
 20
126.3649999999999
 30
0.0
 11
130.717
 21
108.0859999999999
 31
0.0
  0
ARC
  5
5D
330
18
100
AcDbEntity
  8
0
  6
AIGENLINE001
100
AcDbCircle
 10
118.091401
 20
225.024704
 30
0.0
 40
101.3080179999999
100
AcDbArc
 50
283.0448569999999
 51
284.429089
  0
ARC
  5
5E
330
18
100
AcDbEntity
  8
0
  6
AIGENLINE001
100
AcDbCircle
 10
141.65086
 20
123.4361419999999
 30
0.0
 40
2.981842999999999
100
AcDbArc
 50
117.0423879999999
 51
161.481577
  0
ARC
  5
5F
330
18
100
AcDbEntity
  8
0
  6
AIGENLINE001
100
AcDbCircle
 10
141.640019
 20
123.401953
 30
0.0
 40
3.007470999999999
100
AcDbArc
 50
103.10713
 51
116.56229
  0
ARC
  5
60
330
18
100
AcDbEntity
  8
0
  6
AIGENLINE001
100
AcDbCircle
 10
138.588906
 20
125.7210439999999
 30
0.0
 40
6.631910999999999
100
AcDbArc
 50
101.6927499999999
 51
131.3957819999999
  0
LINE
  5
61
330
18
100
AcDbEntity
  8
0
  6
AIGENLINE001
100
AcDbLine
 10
134.204
 20
130.6959999999999
 30
0.0
 11
131.656
 21
128.4489999999999
 31
0.0
  0
ARC
  5
62
330
18
100
AcDbEntity
  8
0
  6
AIGENLINE001
100
AcDbCircle
 10
134.6248699999999
 20
125.163836
 30
0.0
 40
4.427891
100
AcDbArc
 50
132.1018029999999
 51
134.328481
  0
ARC
  5
63
330
18
100
AcDbEntity
  8
0
  6
AIGENLINE001
100
AcDbCircle
 10
133.53753
 20
126.349306
 30
0.0
 40
2.820522
100
AcDbArc
 50
135.355376
 51
179.6845379999999
  0
ARC
  5
64
330
18
100
AcDbEntity
  8
0
  6
AIGENLINE001
100
AcDbCircle
 10
118.228687
 20
224.4618259999999
 30
0.0
 40
94.186148
100
AcDbArc
 50
281.6480899999999
 51
285.1988129999999
  0
LINE
  5
65
330
18
100
AcDbEntity
  8
0
  6
AIGENLINE001
100
AcDbLine
 10
100.309
 20
108.0859999999999
 30
0.0
 11
106.915
 21
108.0859999999999
 31
0.0
  0
LINE
  5
66
330
18
100
AcDbEntity
  8
0
  6
AIGENLINE001
100
AcDbLine
 10
98.8091
 20
124.3829999999999
 30
0.0
 11
98.8091
 21
109.586
 31
0.0
  0
LINE
  5
67
330
18
100
AcDbEntity
  8
0
  6
AIGENLINE001
100
AcDbLine
 10
106.915
 20
126.3649999999999
 30
0.0
 11
106.915
 21
108.0859999999999
 31
0.0
  0
ARC
  5
68
330
18
100
AcDbEntity
  8
0
  6
AIGENLINE001
100
AcDbCircle
 10
119.541074
 20
225.024704
 30
0.0
 40
101.3080179999999
100
AcDbArc
 50
255.570931
 51
256.9551629999999
  0
ARC
  5
69
330
18
100
AcDbEntity
  8
0
  6
AIGENLINE001
100
AcDbCircle
 10
95.98161500000001
 20
123.4361419999999
 30
0.0
 40
2.981842999999999
100
AcDbArc
 50
18.518403
 51
62.95759200000001
  0
ARC
  5
6A
330
18
100
AcDbEntity
  8
0
  6
AIGENLINE001
100
AcDbCircle
 10
95.99297099999999
 20
123.403378
 30
0.0
 40
3.005966999999999
100
AcDbArc
 50
63.434308
 51
76.896233
  0
ARC
  5
6B
330
18
100
AcDbEntity
  8
0
  6
AIGENLINE001
100
AcDbCircle
 10
99.04356999999999
 20
125.7210439999999
 30
0.0
 40
6.631910999999999
100
AcDbArc
 50
48.60419799999999
 51
78.30723
  0
LINE
  5
6C
330
18
100
AcDbEntity
  8
0
  6
AIGENLINE001
100
AcDbLine
 10
103.4289999999999
 20
130.6959999999999
 30
0.0
 11
105.976
 21
128.4489999999999
 31
0.0
  0
ARC
  5
6D
330
18
100
AcDbEntity
  8
0
  6
AIGENLINE001
100
AcDbCircle
 10
102.9900689999999
 20
125.1451709999999
 30
0.0
 40
4.453497
100
AcDbArc
 50
45.67790099999999
 51
47.891775
  0
ARC
  5
6E
330
18
100
AcDbEntity
  8
0
  6
AIGENLINE001
100
AcDbCircle
 10
104.094945
 20
126.349306
 30
0.0
 40
2.820522
100
AcDbArc
 50
0.315442
 51
44.644604
  0
ARC
  5
6F
330
18
100
AcDbEntity
  8
0
  6
AIGENLINE001
100
AcDbCircle
 10
119.4037889999999
 20
224.4618259999999
 30
0.0
 40
94.186148
100
AcDbArc
 50
254.8012069999999
 51
258.3519299999999
  0
LINE
  5
70
330
18
100
AcDbEntity
  8
0
100
AcDbLine
 10
108.548
 20
108.587
 30
0.0
 11
110.781
 21
108.0849999999999
 31
0.0
  0
LINE
  5
71
330
18
100
AcDbEntity
  8
0
100
AcDbLine
 10
110.781
 20
108.0849999999999
 30
0.0
 11
109.0989999999999
 21
109.637
 31
0.0
  0
LINE
  5
72
330
18
100
AcDbEntity
  8
0
100
AcDbLine
 10
109.0989999999999
 20
109.637
 30
0.0
 11
108.548
 21
108.587
 31
0.0
  0
LINE
  5
73
330
18
100
AcDbEntity
  8
0
100
AcDbLine
 10
96.7665
 20
115.436
 30
0.0
 11
110.781
 21
108.0849999999999
 31
0.0
  0
LINE
  5
74
330
18
100
AcDbEntity
  8
0
100
AcDbLine
 10
152.3229999999999
 20
129.6259999999999
 30
0.0
 11
151.7309999999999
 21
131.837
 31
0.0
  0
LINE
  5
75
330
18
100
AcDbEntity
  8
0
100
AcDbLine
 10
151.7309999999999
 20
131.837
 30
0.0
 11
151.139
 21
129.6259999999999
 31
0.0
  0
LINE
  5
76
330
18
100
AcDbEntity
  8
0
100
AcDbLine
 10
151.139
 20
129.6259999999999
 30
0.0
 11
152.3229999999999
 21
129.6259999999999
 31
0.0
  0
LINE
  5
77
330
18
100
AcDbEntity
  8
0
100
AcDbLine
 10
151.153
 20
110.297
 30
0.0
 11
151.7459999999999
 21
108.0859999999999
 31
0.0
  0
LINE
  5
78
330
18
100
AcDbEntity
  8
0
100
AcDbLine
 10
151.7459999999999
 20
108.0859999999999
 30
0.0
 11
152.3379999999999
 21
110.297
 31
0.0
  0
LINE
  5
79
330
18
100
AcDbEntity
  8
0
100
AcDbLine
 10
152.3379999999999
 20
110.297
 30
0.0
 11
151.153
 21
110.297
 31
0.0
  0
LINE
  5
7A
330
18
100
AcDbEntity
  8
0
100
AcDbLine
 10
151.7379999999999
 20
131.837
 30
0.0
 11
151.7379999999999
 21
108.0859999999999
 31
0.0
  0
LINE
  5
7B
330
18
100
AcDbEntity
  8
0
100
AcDbLine
 10
152.5949999999999
 20
131.837
 30
0.0
 11
138.46
 21
131.837
 31
0.0
  0
LINE
  5
7C
330
18
100
AcDbEntity
  8
0
100
AcDbLine
 10
86.65799999999999
 20
115.436
 30
0.0
 11
96.7665
 21
115.436
 31
0.0
  0
LINE
  5
7D
330
18
100
AcDbEntity
  8
0
100
AcDbLine
 10
140.15
 20
108.0859999999999
 30
0.0
 11
152.5949999999999
 21
108.0859999999999
 31
0.0
  0
LINE
  5
7E
330
18
100
AcDbEntity
  8
0
100
AcDbLine
 10
117.816
 20
97.83650000000001
 30
0.0
 11
117.816
 21
99.3365
 31
0.0
  0
LINE
  5
7F
330
18
100
AcDbEntity
  8
0
100
AcDbLine
 10
119.816
 20
97.83650000000001
 30
0.0
 11
119.816
 21
99.3365
 31
0.0
  0
LINE
  5
80
330
18
100
AcDbEntity
  8
0
100
AcDbLine
 10
117.3159999999999
 20
98.3364
 30
0.0
 11
117.3159999999999
 21
99.3365
 31
0.0
  0
LINE
  5
81
330
18
100
AcDbEntity
  8
0
100
AcDbLine
 10
120.316
 20
98.3364
 30
0.0
 11
120.316
 21
99.3365
 31
0.0
  0
LINE
  5
82
330
18
100
AcDbEntity
  8
0
100
AcDbLine
 10
117.816
 20
108.0859999999999
 30
0.0
 11
117.816
 21
123.1749999999999
 31
0.0
  0
LINE
  5
83
330
18
100
AcDbEntity
  8
0
100
AcDbLine
 10
119.816
 20
108.0859999999999
 30
0.0
 11
119.816
 21
123.1749999999999
 31
0.0
  0
LINE
  5
84
330
18
100
AcDbEntity
  8
0
100
AcDbLine
 10
117.3159999999999
 20
108.0859999999999
 30
0.0
 11
117.3159999999999
 21
123.1749999999999
 31
0.0
  0
LINE
  5
85
330
18
100
AcDbEntity
  8
0
100
AcDbLine
 10
120.316
 20
108.0859999999999
 30
0.0
 11
120.316
 21
123.1749999999999
 31
0.0
  0
LINE
  5
86
330
18
100
AcDbEntity
  8
0
100
AcDbLine
 10
105.026
 20
205.874
 30
0.0
 11
102.8159999999999
 21
205.282
 31
0.0
  0
LINE
  5
87
330
18
100
AcDbEntity
  8
0
100
AcDbLine
 10
102.8159999999999
 20
205.282
 30
0.0
 11
105.026
 21
204.689
 31
0.0
  0
LINE
  5
88
330
18
100
AcDbEntity
  8
0
100
AcDbLine
 10
105.026
 20
204.689
 30
0.0
 11
105.026
 21
205.874
 31
0.0
  0
LINE
  5
89
330
18
100
AcDbEntity
  8
0
100
AcDbLine
 10
132.6049999999999
 20
204.7039999999999
 30
0.0
 11
134.816
 21
205.296
 31
0.0
  0
LINE
  5
8A
330
18
100
AcDbEntity
  8
0
100
AcDbLine
 10
134.816
 20
205.296
 30
0.0
 11
132.6049999999999
 21
205.888
 31
0.0
  0
LINE
  5
8B
330
18
100
AcDbEntity
  8
0
100
AcDbLine
 10
132.6049999999999
 20
205.888
 30
0.0
 11
132.6049999999999
 21
204.7039999999999
 31
0.0
  0
LINE
  5
8C
330
18
100
AcDbEntity
  8
0
100
AcDbLine
 10
102.8159999999999
 20
205.289
 30
0.0
 11
134.816
 21
205.289
 31
0.0
  0
LINE
  5
8D
330
18
100
AcDbEntity
  8
0
100
AcDbLine
 10
134.816
 20
185.504
 30
0.0
 11
134.816
 21
206.002
 31
0.0
  0
LINE
  5
8E
330
18
100
AcDbEntity
  8
0
100
AcDbLine
 10
102.8159999999999
 20
186.5409999999999
 30
0.0
 11
102.8159999999999
 21
206.002
 31
0.0
  0
ARC
  5
8F
330
18
100
AcDbEntity
  8
0
100
AcDbCircle
 10
123.57937
 20
183.753511
 30
0.0
 40
1.999977
100
AcDbArc
 50
359.997543
 51
89.99751299999999
  0
ARC
  5
90
330
18
100
AcDbEntity
  8
0
100
AcDbCircle
 10
123.579371
 20
183.7533389999999
 30
0.0
 40
2.000148999999999
100
AcDbArc
 50
89.997533
 51
179.9975029999999
  0
ARC
  5
91
330
18
100
AcDbEntity
  8
0
100
AcDbCircle
 10
123.579284
 20
183.7535969999999
 30
0.0
 40
2.000061999999999
100
AcDbArc
 50
180.0049449999999
 51
270.004954
  0
ARC
  5
92
330
18
100
AcDbEntity
  8
0
100
AcDbCircle
 10
123.579457
 20
183.7534259999999
 30
0.0
 40
1.999891
100
AcDbArc
 50
270.00002
 51
359.9999899999999
  0
ARC
  5
93
330
18
100
AcDbEntity
  8
0
100
AcDbCircle
 10
123.57937
 20
178.253554
 30
0.0
 40
1.999977
100
AcDbArc
 50
359.997543
 51
89.99751299999999
  0
ARC
  5
94
330
18
100
AcDbEntity
  8
0
100
AcDbCircle
 10
123.579371
 20
178.253381
 30
0.0
 40
2.000148999999999
100
AcDbArc
 50
89.997533
 51
179.9975029999999
  0
ARC
  5
95
330
18
100
AcDbEntity
  8
0
100
AcDbCircle
 10
123.57937
 20
178.253554
 30
0.0
 40
2.000148999999999
100
AcDbArc
 50
180.002477
 51
270.002487
  0
ARC
  5
96
330
18
100
AcDbEntity
  8
0
100
AcDbCircle
 10
123.57937
 20
178.253382
 30
0.0
 40
1.999977
100
AcDbArc
 50
270.002487
 51
0.002457
  0
ARC
  5
97
330
18
100
AcDbEntity
  8
0
100
AcDbCircle
 10
118.816151
 20
175.503489
 30
0.0
 40
1.999977
100
AcDbArc
 50
359.997543
 51
89.99751299999999
  0
ARC
  5
98
330
18
100
AcDbEntity
  8
0
100
AcDbCircle
 10
118.8163239999999
 20
175.503489
 30
0.0
 40
1.999977
100
AcDbArc
 50
90.00246700000001
 51
180.002477
  0
ARC
  5
99
330
18
100
AcDbEntity
  8
0
100
AcDbCircle
 10
118.8163239999999
 20
175.5033169999999
 30
0.0
 40
1.999975999999999
100
AcDbArc
 50
179.9975029999999
 51
269.9975519999999
  0
ARC
  5
9A
330
18
100
AcDbEntity
  8
0
100
AcDbCircle
 10
118.816151
 20
175.5033169999999
 30
0.0
 40
1.999977
100
AcDbArc
 50
270.002487
 51
0.002457
  0
ARC
  5
9B
330
18
100
AcDbEntity
  8
0
100
AcDbCircle
 10
114.053018
 20
178.2534679999999
 30
0.0
 40
1.999891
100
AcDbArc
 50
0.00001
 51
89.99998000000001
  0
ARC
  5
9C
330
18
100
AcDbEntity
  8
0
100
AcDbCircle
 10
114.0530189999999
 20
178.2534679999999
 30
0.0
 40
1.999891
100
AcDbArc
 50
90.0
 51
179.9999699999999
  0
ARC
  5
9D
330
18
100
AcDbEntity
  8
0
100
AcDbCircle
 10
114.053104
 20
178.253381
 30
0.0
 40
1.999975999999999
100
AcDbArc
 50
179.9975029999999
 51
269.9975519999999
  0
ARC
  5
9E
330
18
100
AcDbEntity
  8
0
100
AcDbCircle
 10
114.052932
 20
178.253382
 30
0.0
 40
1.999977
100
AcDbArc
 50
270.002487
 51
0.002457
  0
ARC
  5
9F
330
18
100
AcDbEntity
  8
0
100
AcDbCircle
 10
114.052932
 20
183.753511
 30
0.0
 40
1.999977
100
AcDbArc
 50
359.997543
 51
89.99751299999999
  0
ARC
  5
A0
330
18
100
AcDbEntity
  8
0
100
AcDbCircle
 10
114.053105
 20
183.753511
 30
0.0
 40
1.999977
100
AcDbArc
 50
90.00246700000001
 51
180.002477
  0
ARC
  5
A1
330
18
100
AcDbEntity
  8
0
100
AcDbCircle
 10
114.053104
 20
183.7533389999999
 30
0.0
 40
1.999975999999999
100
AcDbArc
 50
179.9975029999999
 51
269.9975519999999
  0
ARC
  5
A2
330
18
100
AcDbEntity
  8
0
100
AcDbCircle
 10
114.052932
 20
183.7533399999999
 30
0.0
 40
1.999977
100
AcDbArc
 50
270.002487
 51
0.002457
  0
ARC
  5
A3
330
18
100
AcDbEntity
  8
0
100
AcDbCircle
 10
118.816151
 20
186.5035759999999
 30
0.0
 40
1.999977
100
AcDbArc
 50
359.997543
 51
89.99751299999999
  0
ARC
  5
A4
330
18
100
AcDbEntity
  8
0
100
AcDbCircle
 10
118.8161519999999
 20
186.503404
 30
0.0
 40
2.000148999999999
100
AcDbArc
 50
89.997533
 51
179.9975029999999
  0
ARC
  5
A5
330
18
100
AcDbEntity
  8
0
100
AcDbCircle
 10
118.816151
 20
186.5035759999999
 30
0.0
 40
2.000148999999999
100
AcDbArc
 50
180.002477
 51
270.002487
  0
ARC
  5
A6
330
18
100
AcDbEntity
  8
0
100
AcDbCircle
 10
118.816151
 20
186.503404
 30
0.0
 40
1.999977
100
AcDbArc
 50
270.002487
 51
0.002457
  0
LINE
  5
A7
330
18
100
AcDbEntity
  8
0
100
AcDbLine
 10
119.191
 20
183.7279999999999
 30
0.0
 11
119.191
 21
178.279
 31
0.0
  0
LINE
  5
A8
330
18
100
AcDbEntity
  8
0
100
AcDbLine
 10
118.4409999999999
 20
183.7279999999999
 30
0.0
 11
118.4409999999999
 21
178.279
 31
0.0
  0
ARC
  5
A9
330
18
100
AcDbEntity
  8
0
100
AcDbCircle
 10
118.816151
 20
181.0034459999999
 30
0.0
 40
2.749979
100
AcDbArc
 50
359.998215
 51
89.99818600000001
  0
ARC
  5
AA
330
18
100
AcDbEntity
  8
0
100
AcDbCircle
 10
118.8163239999999
 20
181.0034459999999
 30
0.0
 40
2.749979
100
AcDbArc
 50
90.00179399999998
 51
180.001804
  0
ARC
  5
AB
330
18
100
AcDbEntity
  8
0
100
AcDbCircle
 10
118.816237
 20
181.00336
 30
0.0
 40
2.749892
100
AcDbArc
 50
179.9999699999999
 51
270.00002
  0
ARC
  5
AC
330
18
100
AcDbEntity
  8
0
100
AcDbCircle
 10
118.816237
 20
181.0033609999999
 30
0.0
 40
2.749893
100
AcDbArc
 50
270.00002
 51
359.9999899999999
  0
ARC
  5
AD
330
18
100
AcDbEntity
  8
0
100
AcDbCircle
 10
118.8160629999999
 20
181.00353
 30
0.0
 40
15.999989
100
AcDbArc
 50
359.999393
 51
89.99936299999999
  0
ARC
  5
AE
330
18
100
AcDbEntity
  8
0
100
AcDbCircle
 10
118.8162409999999
 20
181.003358
 30
0.0
 40
16.00016099999999
100
AcDbArc
 50
90.0
 51
179.9999699999999
  0
ARC
  5
AF
330
18
100
AcDbEntity
  8
0
100
AcDbCircle
 10
118.816235
 20
181.003358
 30
0.0
 40
16.000155
100
AcDbArc
 50
179.9999699999999
 51
270.00002
  0
ARC
  5
B0
330
18
100
AcDbEntity
  8
0
100
AcDbCircle
 10
118.8160629999999
 20
181.003191
 30
0.0
 40
15.999989
100
AcDbArc
 50
270.000637
 51
0.000607
  0
LINE
  5
B1
330
18
100
AcDbEntity
  8
0
  6
AIGENLINE002
100
AcDbLine
 10
136.29
 20
181.0029999999999
 30
0.0
 11
101.6229999999999
 21
181.0029999999999
 31
0.0
  0
LINE
  5
B2
330
18
100
AcDbEntity
  8
0
  6
AIGENLINE002
100
AcDbLine
 10
118.816
 20
198.4759999999999
 30
0.0
 11
118.816
 21
163.8749999999999
 31
0.0
  0
ARC
  5
B3
330
18
100
AcDbEntity
  8
0
100
AcDbCircle
 10
118.8160639999999
 20
181.003531
 30
0.0
 40
9.999971
100
AcDbArc
 50
359.999023
 51
89.998993
  0
ARC
  5
B4
330
18
100
AcDbEntity
  8
0
100
AcDbCircle
 10
118.816239
 20
181.003359
 30
0.0
 40
10.000144
100
AcDbArc
 50
90.0
 51
179.9999699999999
  0
ARC
  5
B5
330
18
100
AcDbEntity
  8
0
100
AcDbCircle
 10
118.8161499999999
 20
181.003445
 30
0.0
 40
10.00005399999999
100
AcDbArc
 50
180.000503
 51
270.000513
  0
ARC
  5
B6
330
18
100
AcDbEntity
  8
0
100
AcDbCircle
 10
118.8161499999999
 20
181.003276
 30
0.0
 40
9.999885
100
AcDbArc
 50
270.000513
 51
0.000484
  0
LINE
  5
B7
330
18
100
AcDbEntity
  8
0
  6
AIGENLINE002
100
AcDbLine
 10
60.7498
 20
149.918
 30
0.0
 11
60.7498
 21
134.371
 31
0.0
  0
LINE
  5
B8
330
18
100
AcDbEntity
  8
0
  6
AIGENLINE002
100
AcDbLine
 10
73.5229
 20
181.0029999999999
 30
0.0
 11
48.4759
 21
181.0029999999999
 31
0.0
  0
LINE
  5
B9
330
18
100
AcDbEntity
  8
0
  6
AIGENLINE002
100
AcDbLine
 10
60.7498
 20
193.9799999999999
 30
0.0
 11
60.7498
 21
168.414
 31
0.0
  0
ARC
  5
BA
330
18
100
AcDbEntity
  8
0
100
AcDbCircle
 10
60.749818
 20
181.003359
 30
0.0
 40
9.750199999999999
100
AcDbArc
 50
0.00001
 51
89.99998000000001
  0
ARC
  5
BB
330
18
100
AcDbEntity
  8
0
100
AcDbCircle
 10
60.74999399999999
 20
181.003531
 30
0.0
 40
9.750028
100
AcDbArc
 50
90.00101199999999
 51
180.001022
  0
ARC
  5
BC
330
18
100
AcDbEntity
  8
0
100
AcDbCircle
 10
60.749904
 20
181.003273
 30
0.0
 40
9.749938999999999
100
AcDbArc
 50
179.9994639999999
 51
269.999514
  0
ARC
  5
BD
330
18
100
AcDbEntity
  8
0
100
AcDbCircle
 10
60.749904
 20
181.0034479999999
 30
0.0
 40
9.750113999999999
100
AcDbArc
 50
269.999514
 51
359.9994839999999
  0
LINE
  5
BE
330
18
100
AcDbEntity
  8
0
  6
AIGENLINE003
100
AcDbLine
 10
68.04179999999999
 20
137.7249999999999
 30
0.0
 11
68.04179999999999
 21
141.2579999999999
 31
0.0
  0
LINE
  5
BF
330
18
100
AcDbEntity
  8
0
  6
AIGENLINE003
100
AcDbLine
 10
68.04179999999999
 20
141.2579999999999
 30
0.0
 11
53.45819999999999
 21
141.2579999999999
 31
0.0
  0
LINE
  5
C0
330
18
100
AcDbEntity
  8
0
  6
AIGENLINE003
100
AcDbLine
 10
53.45819999999999
 20
141.2579999999999
 30
0.0
 11
53.45819999999999
 21
137.7249999999999
 31
0.0
  0
LINE
  5
C1
330
18
100
AcDbEntity
  8
0
100
AcDbLine
 10
50.9998
 20
142.7259999999999
 30
0.0
 11
51.49969999999999
 21
137.7249999999999
 31
0.0
  0
LINE
  5
C2
330
18
100
AcDbEntity
  8
0
100
AcDbLine
 10
70.49979999999999
 20
142.7259999999999
 30
0.0
 11
70.0
 21
137.7249999999999
 31
0.0
  0
LINE
  5
C3
330
18
100
AcDbEntity
  8
0
100
AcDbLine
 10
70.0
 20
137.7249999999999
 30
0.0
 11
51.49969999999999
 21
137.7249999999999
 31
0.0
  0
LINE
  5
C4
330
18
100
AcDbEntity
  8
0
100
AcDbLine
 10
70.49979999999999
 20
142.7259999999999
 30
0.0
 11
50.9998
 21
142.7259999999999
 31
0.0
  0
LINE
  5
C5
330
18
100
AcDbEntity
  8
0
100
AcDbLine
 10
64.4444
 20
142.7259999999999
 30
0.0
 11
63.79319999999999
 21
144.0329999999999
 31
0.0
  0
LINE
  5
C6
330
18
100
AcDbEntity
  8
0
100
AcDbLine
 10
63.79319999999999
 20
144.0329999999999
 30
0.0
 11
63.1421
 21
145.34
 31
0.0
  0
ARC
  5
C7
330
18
100
AcDbEntity
  8
0
100
AcDbCircle
 10
60.746697
 20
145.569837
 30
0.0
 40
0.548107
100
AcDbArc
 50
89.601555
 51
105.7905269999999
  0
ARC
  5
C8
330
18
100
AcDbEntity
  8
0
100
AcDbCircle
 10
60.70147399999999
 20
145.846708
 30
0.0
 40
0.271251
100
AcDbArc
 50
112.528638
 51
134.480453
  0
ARC
  5
C9
330
18
100
AcDbEntity
  8
0
100
AcDbCircle
 10
46.664228
 20
159.7820049999999
 30
0.0
 40
19.50847699999999
100
AcDbArc
 50
314.916668
 51
315.218953
  0
ARC
  5
CA
330
18
100
AcDbEntity
  8
0
100
AcDbCircle
 10
60.62689200000001
 20
145.7809649999999
 30
0.0
 40
0.264871
100
AcDbArc
 50
135.267983
 51
157.671045
  0
ARC
  5
CB
330
18
100
AcDbEntity
  8
0
100
AcDbCircle
 10
60.62501199999999
 20
145.77922
 30
0.0
 40
0.263806
100
AcDbArc
 50
157.165448
 51
179.68866
  0
LINE
  5
CC
330
18
100
AcDbEntity
  8
0
100
AcDbLine
 10
60.3612
 20
145.781
 30
0.0
 11
60.3612
 21
145.677
 31
0.0
  0
ARC
  5
CD
330
18
100
AcDbEntity
  8
0
100
AcDbCircle
 10
60.620124
 20
145.677732
 30
0.0
 40
0.258913
100
AcDbArc
 50
180.0574409999999
 51
203.0500819999999
  0
ARC
  5
CE
330
18
100
AcDbEntity
  8
0
100
AcDbCircle
 10
60.63265600000001
 20
145.680427
 30
0.0
 40
0.271511
100
AcDbArc
 50
202.5379379999999
 51
224.4172279999999
  0
ARC
  5
CF
330
18
100
AcDbEntity
  8
0
100
AcDbCircle
 10
52.047503
 20
137.046325
 30
0.0
 40
11.904413
100
AcDbArc
 50
44.68450299999999
 51
45.179876
  0
ARC
  5
D0
330
18
100
AcDbEntity
  8
0
100
AcDbCircle
 10
60.69699499999999
 20
145.6043069999999
 30
0.0
 40
0.26329
100
AcDbArc
 50
225.1833339999999
 51
247.807575
  0
ARC
  5
D1
330
18
100
AcDbEntity
  8
0
100
AcDbCircle
 10
60.699355
 20
145.603081
 30
0.0
 40
0.263059
100
AcDbArc
 50
247.230781
 51
269.811128
  0
LINE
  5
D2
330
18
100
AcDbEntity
  8
0
100
AcDbLine
 10
60.6985
 20
145.34
 30
0.0
 11
60.7502
 21
145.34
 31
0.0
  0
LINE
  5
D3
330
18
100
AcDbEntity
  8
0
100
AcDbLine
 10
60.7502
 20
145.34
 30
0.0
 11
60.7505
 21
145.34
 31
0.0
  0
LINE
  5
D4
330
18
100
AcDbEntity
  8
0
100
AcDbLine
 10
60.7505
 20
145.34
 30
0.0
 11
63.1066
 21
145.34
 31
0.0
  0
ARC
  5
D5
330
18
100
AcDbEntity
  8
0
100
AcDbCircle
 10
64.284855
 20
-28.437159
 30
0.0
 40
173.781177
100
AcDbArc
 50
89.61152400000001
 51
90.388456
  0
LINE
  5
D6
330
18
100
AcDbEntity
  8
0
100
AcDbLine
 10
65.4631
 20
145.34
 30
0.0
 11
65.51439999999999
 21
145.34
 31
0.0
  0
ARC
  5
D7
330
18
100
AcDbEntity
  8
0
100
AcDbCircle
 10
65.511931
 20
145.611052
 30
0.0
 40
0.27104
100
AcDbArc
 50
270.525531
 51
292.4325999999999
  0
ARC
  5
D8
330
18
100
AcDbEntity
  8
0
100
AcDbCircle
 10
65.51519300000001
 20
145.6053889999999
 30
0.0
 40
0.264562
100
AcDbArc
 50
292.2475449999999
 51
314.7615859999999
  0
ARC
  5
D9
330
18
100
AcDbEntity
  8
0
100
AcDbCircle
 10
75.103144
 20
136.0666919999999
 30
0.0
 40
13.260072
100
AcDbArc
 50
134.70945
 51
135.15523
  0
ARC
  5
DA
330
18
100
AcDbEntity
  8
0
100
AcDbCircle
 10
65.587168
 20
145.676079
 30
0.0
 40
0.263776
100
AcDbArc
 50
315.257891
 51
337.7869819999999
  0
ARC
  5
DB
330
18
100
AcDbEntity
  8
0
100
AcDbCircle
 10
65.58569300000001
 20
145.679252
 30
0.0
 40
0.266352
100
AcDbArc
 50
337.275195
 51
359.617322
  0
LINE
  5
DC
330
18
100
AcDbEntity
  8
0
100
AcDbLine
 10
65.852
 20
145.677
 30
0.0
 11
65.852
 21
145.781
 31
0.0
  0
ARC
  5
DD
330
18
100
AcDbEntity
  8
0
100
AcDbCircle
 10
65.59452799999999
 20
145.7805089999999
 30
0.0
 40
0.257511
100
AcDbArc
 50
0.032303
 51
23.11355
  0
ARC
  5
DE
330
18
100
AcDbEntity
  8
0
100
AcDbCircle
 10
65.58008599999999
 20
145.776809
 30
0.0
 40
0.272255
100
AcDbArc
 50
22.63648899999999
 51
44.424443
  0
ARC
  5
DF
330
18
100
AcDbEntity
  8
0
100
AcDbCircle
 10
78.370423
 20
158.6660929999999
 30
0.0
 40
17.88614
100
AcDbArc
 50
224.9024189999999
 51
225.2329019999999
  0
ARC
  5
E0
330
18
100
AcDbEntity
  8
0
100
AcDbCircle
 10
65.51500199999999
 20
145.8521039999999
 30
0.0
 40
0.264902
100
AcDbArc
 50
45.25304000000001
 51
67.737829
  0
ARC
  5
E1
330
18
100
AcDbEntity
  8
0
100
AcDbCircle
 10
65.512496
 20
145.8517469999999
 30
0.0
 40
0.26619
100
AcDbArc
 50
67.267649
 51
89.586479
  0
LINE
  5
E2
330
18
100
AcDbEntity
  8
0
100
AcDbLine
 10
65.51439999999999
 20
146.1179999999999
 30
0.0
 11
65.4631
 21
146.1179999999999
 31
0.0
  0
ARC
  5
E3
330
18
100
AcDbEntity
  8
0
100
AcDbCircle
 10
64.284855
 20
-28.285835
 30
0.0
 40
174.4077459999999
100
AcDbArc
 50
89.61291899999999
 51
90.387061
  0
ARC
  5
E4
330
18
100
AcDbEntity
  8
0
100
AcDbCircle
 10
61.928567
 20
-26.250525
 30
0.0
 40
172.372481
100
AcDbArc
 50
89.608406
 51
90.39157399999998
  0
ARC
  5
E5
330
18
100
AcDbEntity
  8
0
100
AcDbCircle
 10
-4313.601
 20
2321.46
 30
0.0
 40
4883.598
100
AcDbArc
 50
333.5041499999999
 51
333.5294559999999
  0
LINE
  5
E6
330
18
100
AcDbEntity
  8
0
100
AcDbLine
 10
58.0175
 20
144.656
 30
0.0
 11
58.9794
 21
146.587
 31
0.0
  0
ARC
  5
E7
330
18
100
AcDbEntity
  8
0
100
AcDbCircle
 10
-13.257716
 20
182.663721
 30
0.0
 40
80.74491100000001
100
AcDbArc
 50
333.461377
 51
333.613888
  0
ARC
  5
E8
330
18
100
AcDbEntity
  8
0
100
AcDbCircle
 10
60.264584
 20
146.184866
 30
0.0
 40
1.329668
100
AcDbArc
 50
134.8405999999999
 51
153.448912
  0
ARC
  5
E9
330
18
100
AcDbEntity
  8
0
100
AcDbCircle
 10
60.283913
 20
146.171005
 30
0.0
 40
1.353130999999999
100
AcDbArc
 50
116.730233
 51
135.0070959999999
  0
ARC
  5
EA
330
18
100
AcDbEntity
  8
0
100
AcDbCircle
 10
-78.875951
 20
425.9138139999999
 30
0.0
 40
311.091291
100
AcDbArc
 50
296.4471259999999
 51
296.5350349999999
  0
ARC
  5
EB
330
18
100
AcDbEntity
  8
0
100
AcDbCircle
 10
60.693391
 20
146.403539
 30
0.0
 40
1.327652
100
AcDbArc
 50
93.63319899999998
 51
116.428312
  0
ARC
  5
EC
330
18
100
AcDbEntity
  8
0
100
AcDbCircle
 10
60.709635
 20
146.4042669999999
 30
0.0
 40
1.328054999999999
100
AcDbArc
 50
71.555359
 51
94.33462000000002
  0
ARC
  5
ED
330
18
100
AcDbEntity
  8
0
100
AcDbCircle
 10
256.338491
 20
729.238061
 30
0.0
 40
613.4612449999999
100
AcDbArc
 50
251.445386
 51
251.494389
  0
ARC
  5
EE
330
18
100
AcDbEntity
  8
0
100
AcDbCircle
 10
61.204331
 20
146.240524
 30
0.0
 40
1.326092
100
AcDbArc
 50
48.59617100000001
 51
71.40040299999999
  0
ARC
  5
EF
330
18
100
AcDbEntity
  8
0
100
AcDbCircle
 10
61.185153
 20
146.203933
 30
0.0
 40
1.366257
100
AcDbArc
 50
26.87748599999999
 51
49.007819
  0
ARC
  5
F0
330
18
100
AcDbEntity
  8
0
100
AcDbCircle
 10
153.6911459999999
 20
192.218185
 30
0.0
 40
101.952078
100
AcDbArc
 50
206.440874
 51
206.58833
  0
ARC
  5
F1
330
18
100
AcDbEntity
  8
0
100
AcDbCircle
 10
644.377407
 20
436.299924
 30
0.0
 40
649.992783
100
AcDbArc
 50
206.4692659999999
 51
206.492354
  0
ARC
  5
F2
330
18
100
AcDbEntity
  8
0
100
AcDbCircle
 10
-337.651723
 20
-53.203387
 30
0.0
 40
447.274142
100
AcDbArc
 50
26.464014
 51
26.49756599999999
  0
LINE
  5
F3
330
18
100
AcDbEntity
  8
0
100
AcDbLine
 10
61.1388
 20
182.559
 30
0.0
 11
61.1388
 21
182.6309999999999
 31
0.0
  0
LINE
  5
F4
330
18
100
AcDbEntity
  8
0
100
AcDbLine
 10
61.1388
 20
182.6309999999999
 30
0.0
 11
61.1388
 21
182.703
 31
0.0
  0
LINE
  5
F5
330
18
100
AcDbEntity
  8
0
100
AcDbLine
 10
61.1388
 20
182.703
 30
0.0
 11
61.1388
 21
182.7379999999999
 31
0.0
  0
ARC
  5
F6
330
18
100
AcDbEntity
  8
0
100
AcDbCircle
 10
61.406702
 20
182.738522
 30
0.0
 40
0.267929
100
AcDbArc
 50
165.142432
 51
180.1166339999999
  0
ARC
  5
F7
330
18
100
AcDbEntity
  8
0
100
AcDbCircle
 10
61.41488599999999
 20
182.738539
 30
0.0
 40
0.275843
100
AcDbArc
 50
151.025233
 51
165.581692
  0
ARC
  5
F8
330
18
100
AcDbEntity
  8
0
100
AcDbCircle
 10
66.443685
 20
180.011001
 30
0.0
 40
5.996697
100
AcDbArc
 50
150.6448159999999
 51
151.502299
  0
ARC
  5
F9
330
18
100
AcDbEntity
  8
0
100
AcDbCircle
 10
61.46046099999999
 20
182.816954
 30
0.0
 40
0.277805
100
AcDbArc
 50
128.479102
 51
151.217477
  0
ARC
  5
FA
330
18
100
AcDbEntity
  8
0
100
AcDbCircle
 10
61.466128
 20
182.8113909999999
 30
0.0
 40
0.285688
100
AcDbArc
 50
106.548884
 51
128.6746909999999
  0
LINE
  5
FB
330
18
100
AcDbEntity
  8
0
100
AcDbLine
 10
61.3848
 20
183.085
 30
0.0
 11
61.49049999999999
 21
183.1159999999999
 31
0.0
  0
LINE
  5
FC
330
18
100
AcDbEntity
  8
0
100
AcDbLine
 10
61.49049999999999
 20
183.1159999999999
 30
0.0
 11
61.5997
 21
183.125
 31
0.0
  0
ARC
  5
FD
330
18
100
AcDbEntity
  8
0
100
AcDbCircle
 10
61.56951199999999
 20
182.845303
 30
0.0
 40
0.280846
100
AcDbArc
 50
61.361211
 51
83.82308499999998
  0
ARC
  5
FE
330
18
100
AcDbEntity
  8
0
100
AcDbCircle
 10
73.08460500000001
 20
203.8615159999999
 30
0.0
 40
23.683264
100
AcDbArc
 50
241.280076
 51
241.413044
  0
ARC
  5
FF
330
18
100
AcDbEntity
  8
0
100
AcDbCircle
 10
1687.566
 20
3130.973
 30
0.0
 40
3366.516029999999
100
AcDbArc
 50
241.1226459999999
 51
241.1530009999999
  0
LINE
  5
100
330
18
100
AcDbEntity
  8
0
100
AcDbLine
 10
63.3144
 20
182.205
 30
0.0
 11
64.8767
 21
181.344
 31
0.0
  0
ARC
  5
101
330
18
100
AcDbEntity
  8
0
100
AcDbCircle
 10
68.526179
 20
187.89604
 30
0.0
 40
7.500227999999999
100
AcDbArc
 50
240.884042
 51
241.1638219999999
  0
ARC
  5
102
330
18
100
AcDbEntity
  8
0
100
AcDbCircle
 10
64.77549999999999
 20
181.08639
 30
0.0
 40
0.274022
100
AcDbArc
 50
45.467131
 51
60.90035699999999
  0
ARC
  5
103
330
18
100
AcDbEntity
  8
0
100
AcDbCircle
 10
64.78406899999999
 20
181.0975949999999
 30
0.0
 40
0.260031
100
AcDbArc
 50
28.873721
 51
45.081464
  0
ARC
  5
104
330
18
100
AcDbEntity
  8
0
100
AcDbCircle
 10
74.117746
 20
186.202269
 30
0.0
 40
10.378355
100
AcDbArc
 50
208.669683
 51
209.1574739999999
  0
ARC
  5
105
330
18
100
AcDbEntity
  8
0
100
AcDbCircle
 10
64.824236
 20
181.020079
 30
0.0
 40
0.262352
100
AcDbArc
 50
5.990331999999999
 51
28.637707
  0
ARC
  5
106
330
18
100
AcDbEntity
  8
0
100
AcDbCircle
 10
64.81743
 20
181.018225
 30
0.0
 40
0.269316
100
AcDbArc
 50
344.1775279999999
 51
6.231544999999998
  0
ARC
  5
107
330
18
100
AcDbEntity
  8
0
100
AcDbCircle
 10
129.467486
 20
162.2370309999999
 30
0.0
 40
67.053515
100
AcDbArc
 50
163.7996009999999
 51
163.8874079999999
  0
ARC
  5
108
330
18
100
AcDbEntity
  8
0
100
AcDbCircle
 10
64.793459
 20
180.9213709999999
 30
0.0
 40
0.26539
100
AcDbArc
 50
321.122089
 51
343.5213529999999
  0
ARC
  5
109
330
18
100
AcDbEntity
  8
0
100
AcDbCircle
 10
64.794607
 20
180.916616
 30
0.0
 40
0.261528
100
AcDbArc
 50
299.11486
 51
321.775218
  0
LINE
  5
10A
330
18
100
AcDbEntity
  8
0
100
AcDbLine
 10
64.92189999999999
 20
180.6879999999999
 30
0.0
 11
64.8767
 21
180.663
 31
0.0
  0
ARC
  5
10B
330
18
100
AcDbEntity
  8
0
100
AcDbCircle
 10
-162.1815389999999
 20
590.8639159999999
 30
0.0
 40
468.849483
100
AcDbArc
 50
298.7478559999999
 51
298.9658529999999
  0
LINE
  5
10C
330
18
100
AcDbEntity
  8
0
100
AcDbLine
 10
63.3144
 20
179.8029999999999
 30
0.0
 11
61.75229999999999
 21
178.9419999999999
 31
0.0
  0
ARC
  5
10D
330
18
100
AcDbEntity
  8
0
100
AcDbCircle
 10
58.33366999999999
 20
185.1785959999999
 30
0.0
 40
7.112461999999999
100
AcDbArc
 50
298.447262
 51
298.728556
  0
ARC
  5
10E
330
18
100
AcDbEntity
  8
0
100
AcDbCircle
 10
61.590593
 20
179.1629509999999
 30
0.0
 40
0.271742
100
AcDbArc
 50
284.1272589999999
 51
298.843643
  0
ARC
  5
10F
330
18
100
AcDbEntity
  8
0
100
AcDbCircle
 10
61.586789
 20
179.1749379999999
 30
0.0
 40
0.284296
100
AcDbArc
 50
270.1085529999999
 51
284.281116
  0
LINE
  5
110
330
18
100
AcDbEntity
  8
0
100
AcDbLine
 10
61.5873
 20
178.891
 30
0.0
 11
61.49779999999999
 21
178.891
 31
0.0
  0
ARC
  5
111
330
18
100
AcDbEntity
  8
0
100
AcDbCircle
 10
61.49795799999999
 20
179.168662
 30
0.0
 40
0.27802
100
AcDbArc
 50
247.2102819999999
 51
269.9580609999999
  0
ARC
  5
112
330
18
100
AcDbEntity
  8
0
100
AcDbCircle
 10
61.496156
 20
179.170829
 30
0.0
 40
0.279331
100
AcDbArc
 50
225.0963669999999
 51
247.7233359999999
  0
ARC
  5
113
330
18
100
AcDbEntity
  8
0
100
AcDbCircle
 10
70.525481
 20
188.318357
 30
0.0
 40
13.13257499999999
100
AcDbArc
 50
224.887388
 51
225.3667249999999
  0
ARC
  5
114
330
18
100
AcDbEntity
  8
0
100
AcDbCircle
 10
61.414732
 20
179.2452629999999
 30
0.0
 40
0.274633
100
AcDbArc
 50
202.210987
 51
225.1691799999999
  0
ARC
  5
115
330
18
100
AcDbEntity
  8
0
100
AcDbCircle
 10
61.425052
 20
179.250803
 30
0.0
 40
0.286283
100
AcDbArc
 50
180.3394349999999
 51
202.456707
  0
LINE
  5
116
330
18
100
AcDbEntity
  8
0
100
AcDbLine
 10
61.1388
 20
179.249
 30
0.0
 11
61.1388
 21
179.3039999999999
 31
0.0
  0
LINE
  5
117
330
18
100
AcDbEntity
  8
0
100
AcDbLine
 10
61.1388
 20
179.3039999999999
 30
0.0
 11
61.1388
 21
179.3759999999999
 31
0.0
  0
LINE
  5
118
330
18
100
AcDbEntity
  8
0
100
AcDbLine
 10
61.1388
 20
179.3759999999999
 30
0.0
 11
61.1388
 21
179.4479999999999
 31
0.0
  0
LINE
  5
119
330
18
100
AcDbEntity
  8
0
100
AcDbLine
 10
60.3612
 20
182.559
 30
0.0
 11
60.3612
 21
182.6309999999999
 31
0.0
  0
LINE
  5
11A
330
18
100
AcDbEntity
  8
0
100
AcDbLine
 10
60.3612
 20
182.6309999999999
 30
0.0
 11
60.3612
 21
182.703
 31
0.0
  0
LINE
  5
11B
330
18
100
AcDbEntity
  8
0
100
AcDbLine
 10
60.3612
 20
182.703
 30
0.0
 11
60.3612
 21
182.803
 31
0.0
  0
ARC
  5
11C
330
18
100
AcDbEntity
  8
0
100
AcDbCircle
 10
61.15516899999999
 20
182.8033259999999
 30
0.0
 40
0.793958
100
AcDbArc
 50
165.441179
 51
179.9922
  0
ARC
  5
11D
330
18
100
AcDbEntity
  8
0
100
AcDbCircle
 10
61.159418
 20
182.8051509999999
 30
0.0
 40
0.7976180000000001
100
AcDbArc
 50
151.153205
 51
165.644737
  0
ARC
  5
11E
330
18
100
AcDbEntity
  8
0
100
AcDbCircle
 10
-11.433643
 20
222.950564
 30
0.0
 40
82.15662900000001
100
AcDbArc
 50
331.0555939999999
 51
331.2358209999999
  0
ARC
  5
11F
330
18
100
AcDbEntity
  8
0
100
AcDbCircle
 10
61.27985999999999
 20
183.0338649999999
 30
0.0
 40
0.7927330000000001
100
AcDbArc
 50
128.185666
 51
151.154315
  0
ARC
  5
120
330
18
100
AcDbEntity
  8
0
100
AcDbCircle
 10
61.30481999999999
 20
183.0143139999999
 30
0.0
 40
0.8235649999999999
100
AcDbArc
 50
106.6007209999999
 51
128.709659
  0
ARC
  5
121
330
18
100
AcDbEntity
  8
0
100
AcDbCircle
 10
90.102884
 20
84.064381
 30
0.0
 40
103.8789589999999
100
AcDbArc
 50
106.055608
 51
106.229887
  0
ARC
  5
122
330
18
100
AcDbEntity
  8
0
100
AcDbCircle
 10
61.59375999999999
 20
183.126666
 30
0.0
 40
0.7959510000000001
100
AcDbArc
 50
83.23066999999999
 51
106.0992089999999
  0
ARC
  5
123
330
18
100
AcDbEntity
  8
0
100
AcDbCircle
 10
61.59893499999999
 20
183.10546
 30
0.0
 40
0.816435
100
AcDbArc
 50
61.45811499999999
 51
83.76671999999999
  0
ARC
  5
124
330
18
100
AcDbEntity
  8
0
100
AcDbCircle
 10
133.7191569999999
 20
314.136071
 30
0.0
 40
148.7507759999999
100
AcDbArc
 50
241.1697259999999
 51
241.2306
  0
ARC
  5
125
330
18
100
AcDbEntity
  8
0
100
AcDbCircle
 10
380.578509
 20
759.6728839999999
 30
0.0
 40
658.104999
100
AcDbArc
 50
241.0601839999999
 51
241.215464
  0
LINE
  5
126
330
18
100
AcDbEntity
  8
0
100
AcDbLine
 10
63.6895
 20
182.8859999999999
 30
0.0
 11
65.25190000000001
 21
182.025
 31
0.0
  0
ARC
  5
127
330
18
100
AcDbEntity
  8
0
100
AcDbCircle
 10
96.28233600000001
 20
238.147204
 30
0.0
 40
64.12961899999999
100
AcDbArc
 50
241.0615099999999
 51
241.159943
  0
ARC
  5
128
330
18
100
AcDbEntity
  8
0
100
AcDbCircle
 10
64.971288
 20
181.2865439999999
 30
0.0
 40
0.7819850000000001
100
AcDbArc
 50
44.94637199999999
 51
61.170716
  0
ARC
  5
129
330
18
100
AcDbEntity
  8
0
100
AcDbCircle
 10
64.97240600000001
 20
181.284834
 30
0.0
 40
0.782404
100
AcDbArc
 50
28.897649
 51
45.09288499999999
  0
ARC
  5
12A
330
18
100
AcDbEntity
  8
0
100
AcDbCircle
 10
100.1555289999999
 20
200.500983
 30
0.0
 40
39.30641099999999
100
AcDbArc
 50
208.6372049999999
 51
209.023567
  0
ARC
  5
12B
330
18
100
AcDbEntity
  8
0
100
AcDbCircle
 10
65.09860999999999
 20
181.0538129999999
 30
0.0
 40
0.7832460000000001
100
AcDbArc
 50
6.022987
 51
28.765123
  0
ARC
  5
12C
330
18
100
AcDbEntity
  8
0
100
AcDbCircle
 10
65.071111
 20
181.0468229999999
 30
0.0
 40
0.8113369999999999
100
AcDbArc
 50
344.3535
 51
6.310184999999999
  0
ARC
  5
12D
330
18
100
AcDbEntity
  8
0
100
AcDbCircle
 10
158.231469
 20
153.9058389999999
 30
0.0
 40
96.22213100000001
100
AcDbArc
 50
163.752202
 51
163.9365169999999
  0
ARC
  5
12E
330
18
100
AcDbEntity
  8
0
100
AcDbCircle
 10
65.016727
 20
180.748002
 30
0.0
 40
0.780395
100
AcDbArc
 50
321.0087169999999
 51
343.831459
  0
ARC
  5
12F
330
18
100
AcDbEntity
  8
0
100
AcDbCircle
 10
64.997258
 20
180.7564649999999
 30
0.0
 40
0.8008729999999999
100
AcDbArc
 50
299.144379
 51
321.414533
  0
ARC
  5
130
330
18
100
AcDbEntity
  8
0
100
AcDbCircle
 10
1.301574999999999
 20
296.227925
 30
0.0
 40
132.6750389999999
100
AcDbArc
 50
298.8165839999999
 51
298.883339
  0
LINE
  5
131
330
18
100
AcDbEntity
  8
0
100
AcDbLine
 10
65.25190000000001
 20
179.9819999999999
 30
0.0
 11
63.6895
 21
179.1209999999999
 31
0.0
  0
LINE
  5
132
330
18
100
AcDbEntity
  8
0
100
AcDbLine
 10
63.6895
 20
179.1209999999999
 30
0.0
 11
62.12749999999999
 21
178.2599999999999
 31
0.0
  0
ARC
  5
133
330
18
100
AcDbEntity
  8
0
100
AcDbCircle
 10
67.82521
 20
167.774256
 30
0.0
 40
11.93406799999999
100
AcDbArc
 50
118.517702
 51
119.0007089999999
  0
ARC
  5
134
330
18
100
AcDbEntity
  8
0
100
AcDbCircle
 10
61.65102
 20
178.918452
 30
0.0
 40
0.806177
100
AcDbArc
 50
284.480237
 51
298.794151
  0
ARC
  5
135
330
18
100
AcDbEntity
  8
0
100
AcDbCircle
 10
61.65192
 20
178.914972
 30
0.0
 40
0.802583
100
AcDbArc
 50
270.086384
 51
284.4802169999999
  0
LINE
  5
136
330
18
100
AcDbEntity
  8
0
100
AcDbLine
 10
61.6531
 20
178.112
 30
0.0
 11
61.3947
 21
178.112
 31
0.0
  0
ARC
  5
137
330
18
100
AcDbEntity
  8
0
100
AcDbCircle
 10
61.395037
 20
178.9080949999999
 30
0.0
 40
0.795705
100
AcDbArc
 50
247.070366
 51
269.9790629999999
  0
ARC
  5
138
330
18
100
AcDbEntity
  8
0
100
AcDbCircle
 10
61.4035
 20
178.940232
 30
0.0
 40
0.8286129999999999
100
AcDbArc
 50
225.413279
 51
247.397195
  0
LINE
  5
139
330
18
100
AcDbEntity
  8
0
100
AcDbLine
 10
60.82180000000001
 20
178.35
 30
0.0
 11
60.5986
 21
178.5729999999999
 31
0.0
  0
ARC
  5
13A
330
18
100
AcDbEntity
  8
0
100
AcDbCircle
 10
61.1649
 20
179.138922
 30
0.0
 40
0.8003709999999999
100
AcDbArc
 50
202.209845
 51
224.962258
  0
ARC
  5
13B
330
18
100
AcDbEntity
  8
0
100
AcDbCircle
 10
61.19121299999999
 20
179.1529279999999
 30
0.0
 40
0.8300319999999999
100
AcDbArc
 50
180.483428
 51
202.418387
  0
LINE
  5
13C
330
18
100
AcDbEntity
  8
0
100
AcDbLine
 10
60.3612
 20
179.1459999999999
 30
0.0
 11
60.3612
 21
179.3039999999999
 31
0.0
  0
LINE
  5
13D
330
18
100
AcDbEntity
  8
0
100
AcDbLine
 10
60.3612
 20
179.3039999999999
 30
0.0
 11
60.3612
 21
179.3759999999999
 31
0.0
  0
LINE
  5
13E
330
18
100
AcDbEntity
  8
0
100
AcDbLine
 10
60.3612
 20
179.3759999999999
 30
0.0
 11
60.3612
 21
179.4479999999999
 31
0.0
  0
ARC
  5
13F
330
18
100
AcDbEntity
  8
0
100
AcDbCircle
 10
61.65588599999999
 20
-21.190846
 30
0.0
 40
200.6411309999999
100
AcDbArc
 50
89.71016099999999
 51
90.28981899999999
  0
ARC
  5
140
330
18
100
AcDbEntity
  8
0
100
AcDbCircle
 10
59.626023
 20
-19.818884
 30
0.0
 40
199.269186
100
AcDbArc
 50
89.708166
 51
90.29181400000002
  0
ARC
  5
141
330
18
100
AcDbEntity
  8
0
100
AcDbCircle
 10
58.50791
 20
-19.142351
 30
0.0
 40
198.590096
100
AcDbArc
 50
89.970221
 51
90.029759
  0
ARC
  5
142
330
18
100
AcDbEntity
  8
0
100
AcDbCircle
 10
58.405691
 20
180.4872939999999
 30
0.0
 40
1.039576999999999
100
AcDbArc
 50
247.0670809999999
 51
269.94697
  0
ARC
  5
143
330
18
100
AcDbEntity
  8
0
100
AcDbCircle
 10
58.412845
 20
180.5233979999999
 30
0.0
 40
1.075639999999999
100
AcDbArc
 50
225.366876
 51
247.4654689999999
  0
ARC
  5
144
330
18
100
AcDbEntity
  8
0
100
AcDbCircle
 10
-206.1588219999999
 20
-83.92203499999999
 30
0.0
 40
372.995972
100
AcDbArc
 50
44.985226
 51
45.04859699999999
  0
ARC
  5
145
330
18
100
AcDbEntity
  8
0
100
AcDbCircle
 10
58.101452
 20
180.784647
 30
0.0
 40
1.040283999999999
100
AcDbArc
 50
202.102233
 51
224.9592189999999
  0
ARC
  5
146
330
18
100
AcDbEntity
  8
0
100
AcDbCircle
 10
58.128698
 20
180.804697
 30
0.0
 40
1.073104
100
AcDbArc
 50
180.401909
 51
202.546711
  0
LINE
  5
147
330
18
100
AcDbEntity
  8
0
100
AcDbLine
 10
57.0556
 20
180.797
 30
0.0
 11
57.0556
 21
181.21
 31
0.0
  0
ARC
  5
148
330
18
100
AcDbEntity
  8
0
100
AcDbCircle
 10
58.09633
 20
181.2089389999999
 30
0.0
 40
1.040709
100
AcDbArc
 50
157.104103
 51
179.9663139999999
  0
ARC
  5
149
330
18
100
AcDbEntity
  8
0
100
AcDbCircle
 10
58.13872700000001
 20
181.1980979999999
 30
0.0
 40
1.084004
100
AcDbArc
 50
135.516901
 51
157.448086
  0
ARC
  5
14A
330
18
100
AcDbEntity
  8
0
100
AcDbCircle
 10
-16.858797
 20
256.4735929999999
 30
0.0
 40
105.1753139999999
100
AcDbArc
 50
314.8876009999999
 51
315.1124089999999
  0
ARC
  5
14B
330
18
100
AcDbEntity
  8
0
100
AcDbCircle
 10
58.393588
 20
181.511556
 30
0.0
 40
1.042526
100
AcDbArc
 50
112.144368
 51
134.943482
  0
ARC
  5
14C
330
18
100
AcDbEntity
  8
0
100
AcDbCircle
 10
58.412788
 20
181.4803419999999
 30
0.0
 40
1.078691999999999
100
AcDbArc
 50
90.428089
 51
112.4640309999999
  0
LINE
  5
14D
330
18
100
AcDbEntity
  8
0
100
AcDbLine
 10
58.40469999999999
 20
182.559
 30
0.0
 11
58.6111
 21
182.559
 31
0.0
  0
LINE
  5
14E
330
18
100
AcDbEntity
  8
0
100
AcDbLine
 10
58.6111
 20
182.559
 30
0.0
 11
60.641
 21
182.559
 31
0.0
  0
ARC
  5
14F
330
18
100
AcDbEntity
  8
0
100
AcDbCircle
 10
61.65588599999999
 20
-20.830025
 30
0.0
 40
203.3915599999999
100
AcDbArc
 50
89.71408100000001
 51
90.28589899999998
  0
TEXT
  5
150
330
18
100
AcDbEntity
  8
_________2
100
AcDbText
 10
167.0304299999999
 20
39.0683
 30
0.0
 40
3.9357
  1
仕上：クロム
 41
0.5
 72
     2
 11
180.543
 21
39.0683
 31
0.0
100
AcDbText
  0
LINE
  5
151
330
18
100
AcDbEntity
  8
_________2
100
AcDbLine
 10
205.301
 20
127.411
 30
0.0
 11
183.55
 21
127.411
 31
0.0
  0
LINE
  5
152
330
18
100
AcDbEntity
  8
_________2
100
AcDbLine
 10
100.2999999999999
 20
-4.09108
 30
0.0
 11
100.2999999999999
 21
-21.0714
 31
0.0
  0
LINE
  5
153
330
18
100
AcDbEntity
  8
_________2
100
AcDbLine
 10
100.2999999999999
 20
275.9309999999999
 30
0.0
 11
100.2999999999999
 21
258.911
 31
0.0
  0
LINE
  5
154
330
18
100
AcDbEntity
  8
_________2
100
AcDbLine
 10
17.0495
 20
127.411
 30
0.0
 11
-4.70052
 21
127.411
 31
0.0
  0
LINE
  5
155
330
18
100
AcDbEntity
  8
_________2
100
AcDbLine
 10
76.741
 20
29.8047
 30
0.0
 11
74.5547
 21
29.8047
 31
0.0
  0
LINE
  5
156
330
18
100
AcDbEntity
  8
_________2
100
AcDbLine
 10
77.2337
 20
29.8047
 30
0.0
 11
76.9815
 21
29.8047
 31
0.0
  0
LINE
  5
157
330
18
100
AcDbEntity
  8
_________2
100
AcDbLine
 10
77.72629999999999
 20
29.8047
 30
0.0
 11
80.6512
 21
29.8047
 31
0.0
  0
LINE
  5
158
330
18
100
AcDbEntity
  8
_________2
100
AcDbLine
 10
77.2337
 20
29.8047
 30
0.0
 11
77.4855
 21
29.8047
 31
0.0
  0
LINE
  5
159
330
18
100
AcDbEntity
  8
_________2
100
AcDbLine
 10
70.8371
 20
29.8047
 30
0.0
 11
68.6505
 21
29.8047
 31
0.0
  0
LINE
  5
15A
330
18
100
AcDbEntity
  8
_________2
100
AcDbLine
 10
71.32940000000001
 20
29.8047
 30
0.0
 11
71.0776
 21
29.8047
 31
0.0
  0
LINE
  5
15B
330
18
100
AcDbEntity
  8
_________2
100
AcDbLine
 10
71.32940000000001
 20
30.2974
 30
0.0
 11
71.32940000000001
 21
32.4844
 31
0.0
  0
LINE
  5
15C
330
18
100
AcDbEntity
  8
_________2
100
AcDbLine
 10
71.32940000000001
 20
29.8047
 30
0.0
 11
71.32940000000001
 21
30.05689999999999
 31
0.0
  0
LINE
  5
15D
330
18
100
AcDbEntity
  8
_________2
100
AcDbLine
 10
71.82210000000001
 20
29.8047
 30
0.0
 11
74.009
 21
29.8047
 31
0.0
  0
LINE
  5
15E
330
18
100
AcDbEntity
  8
_________2
100
AcDbLine
 10
71.32940000000001
 20
29.8047
 30
0.0
 11
71.58159999999999
 21
29.8047
 31
0.0
  0
LINE
  5
15F
330
18
100
AcDbEntity
  8
_________2
100
AcDbLine
 10
71.32940000000001
 20
29.3128
 30
0.0
 11
71.32940000000001
 21
27.1258
 31
0.0
  0
LINE
  5
160
330
18
100
AcDbEntity
  8
_________2
100
AcDbLine
 10
71.32940000000001
 20
29.8047
 30
0.0
 11
71.32940000000001
 21
29.5532
 31
0.0
  0
LINE
  5
161
330
18
100
AcDbEntity
  8
_________2
100
AcDbLine
 10
75.04049999999999
 20
28.5852
 30
0.0
 11
80.2185
 21
27.7204
 31
0.0
  0
LINE
  5
162
330
18
100
AcDbEntity
  8
_________2
100
AcDbLine
 10
75.04049999999999
 20
31.0243
 30
0.0
 11
80.2185
 21
31.8897
 31
0.0
  0
LINE
  5
163
330
18
100
AcDbEntity
  8
_________2
100
AcDbLine
 10
80.2185
 20
27.7204
 30
0.0
 11
80.2185
 21
31.8897
 31
0.0
  0
LINE
  5
164
330
18
100
AcDbEntity
  8
_________2
100
AcDbLine
 10
75.04049999999999
 20
28.5852
 30
0.0
 11
75.04049999999999
 21
31.0243
 31
0.0
  0
ARC
  5
165
330
18
100
AcDbEntity
  8
_________2
100
AcDbCircle
 10
71.28285600000001
 20
29.757811
 30
0.0
 40
1.267359
100
AcDbArc
 50
2.122214
 51
87.893959
  0
ARC
  5
166
330
18
100
AcDbEntity
  8
_________2
100
AcDbCircle
 10
71.37595999999999
 20
29.758213
 30
0.0
 40
1.266955999999999
100
AcDbArc
 50
92.104701
 51
177.8952689999999
  0
ARC
  5
167
330
18
100
AcDbEntity
  8
_________2
100
AcDbCircle
 10
71.37635799999999
 20
29.851671
 30
0.0
 40
1.267368
100
AcDbArc
 50
182.122036
 51
267.877993
  0
ARC
  5
168
330
18
100
AcDbEntity
  8
_________2
100
AcDbCircle
 10
71.28253199999999
 20
29.85199899999999
 30
0.0
 40
1.267695999999999
100
AcDbArc
 50
272.120153
 51
357.863674
  0
ARC
  5
169
330
18
100
AcDbEntity
  8
_________2
100
AcDbCircle
 10
71.32943
 20
29.804743
 30
0.0
 40
2.084984999999999
100
AcDbArc
 50
0.00001
 51
89.99998000000001
  0
ARC
  5
16A
330
18
100
AcDbEntity
  8
_________2
100
AcDbCircle
 10
71.329603
 20
29.804915
 30
0.0
 40
2.084813
100
AcDbArc
 50
90.004734
 51
180.004744
  0
ARC
  5
16B
330
18
100
AcDbEntity
  8
_________2
100
AcDbCircle
 10
71.40910600000001
 20
29.884776
 30
0.0
 40
2.165795
100
AcDbArc
 50
182.117766
 51
267.891734
  0
ARC
  5
16C
330
18
100
AcDbEntity
  8
_________2
100
AcDbCircle
 10
71.249459
 20
29.88542999999999
 30
0.0
 40
2.166459
100
AcDbArc
 50
272.115468
 51
357.865604
  0
TEXT
  5
16D
330
18
100
AcDbEntity
  8
_________2
100
AcDbText
 10
104.605
 20
1.67949
 30
0.0
 40
3.09234
  1
図番
 41
0.5
100
AcDbText
  0
LINE
  5
16E
330
18
100
AcDbEntity
  8
_________2
100
AcDbLine
 10
103.55
 20
5.908719999999999
 30
0.0
 11
183.551
 21
5.908719999999999
 31
0.0
  0
TEXT
  5
16F
330
18
100
AcDbEntity
  8
_________2
100
AcDbText
 10
104.605
 20
11.67929999999999
 30
0.0
 40
3.09234
  1
品番
 41
0.5
100
AcDbText
  0
TEXT
  5
170
330
18
100
AcDbEntity
  8
_________2
100
AcDbText
 10
104.605
 20
31.8181
 30
0.0
 40
3.09234
  1
名称
 41
0.5
100
AcDbText
  0
TEXT
  5
171
330
18
100
AcDbEntity
  8
_________2
100
AcDbText
 10
91.84505833333334
 20
26.82199999999999
 30
0.0
 40
3.65458
  1
mm
 41
0.5
 72
     1
 11
93.3678
 21
26.82199999999999
 31
0.0
100
AcDbText
  0
TEXT
  5
172
330
18
100
AcDbEntity
  8
_________2
100
AcDbText
 10
85.6432
 20
31.8181
 30
0.0
 40
3.09234
  1
単位
 41
0.5
100
AcDbText
  0
TEXT
  5
173
330
18
100
AcDbEntity
  8
_________2
100
AcDbText
 10
85.6432
 20
19.41079999999999
 30
0.0
 40
3.09234
  1
尺度
 41
0.5
100
AcDbText
  0
TEXT
  5
174
330
18
100
AcDbEntity
  8
_________2
100
AcDbText
 10
90.54875866666666
 20
13.2179
 30
0.0
 40
3.65458
  1
1 ： 2
 41
0.5
 72
     1
 11
93.9597
 21
13.2179
 31
0.0
100
AcDbText
  0
TEXT
  5
175
330
18
100
AcDbEntity
  8
_________2
100
AcDbText
 10
137.4824625
 20
9.10786
 30
0.0
 40
3.9357
  1
CET901R
 41
0.5
 72
     1
 11
143.55
 21
9.10786
 31
0.0
100
AcDbText
  0
TEXT
  5
176
330
18
100
AcDbEntity
  8
_________2
100
AcDbText
 10
137.4824625
 20
-0.8926299999999999
 30
0.0
 40
3.9357
  1
CET901R
 41
0.5
 72
     1
 11
143.55
 21
-0.8926299999999999
 31
0.0
100
AcDbText
  0
TEXT
  5
177
330
18
100
AcDbEntity
  8
_________2
100
AcDbText
 10
24.5868
 20
0.707283
 30
0.0
 40
3.9357
  1
ヨーロッパ製洗面器用
 41
0.5
100
AcDbText
  0
TEXT
  5
178
330
18
100
AcDbEntity
  8
_________2
100
AcDbText
 10
109.179
 20
24.2257
 30
0.0
 40
3.9357
  1
排水目皿
 41
0.5
100
AcDbText
  0
TEXT
  5
179
330
18
100
AcDbEntity
  8
_________2
100
AcDbText
 10
39.36439066666666
 20
13.603
 30
0.0
 40
3.65458
  1
高橋
 41
0.5
 72
     1
 11
41.3135
 21
13.603
 31
0.0
100
AcDbText
  0
TEXT
  5
17A
330
18
100
AcDbEntity
  8
_________2
100
AcDbText
 10
20.79009066666666
 20
13.603
 30
0.0
 40
3.65458
  1
石原
 41
0.5
 72
     1
 11
22.73919999999999
 21
13.603
 31
0.0
100
AcDbText
  0
TEXT
  5
17B
330
18
100
AcDbEntity
  8
_________2
100
AcDbText
 10
67.78539999999999
 20
13.2179
 30
0.0
 40
3.65458
  1
08.06.30
 41
0.5
100
AcDbText
  0
TEXT
  5
17C
330
18
100
AcDbEntity
  8
_________2
100
AcDbText
 10
66.59310000000001
 20
19.41079999999999
 30
0.0
 40
3.09234
  1
日付
 41
0.5
100
AcDbText
  0
TEXT
  5
17D
330
18
100
AcDbEntity
  8
_________2
100
AcDbText
 10
29.6394
 20
19.41079999999999
 30
0.0
 40
3.09234
  1
検図
 41
0.5
100
AcDbText
  0
TEXT
  5
17E
330
18
100
AcDbEntity
  8
_________2
100
AcDbText
 10
18.0211
 20
5.21143
 30
0.0
 40
3.09234
  1
備考
 41
0.5
100
AcDbText
  0
TEXT
  5
17F
330
18
100
AcDbEntity
  8
_________2
100
AcDbText
 10
18.0211
 20
19.41079999999999
 30
0.0
 40
3.09234
  1
製図
 41
0.5
100
AcDbText
  0
TEXT
  5
180
330
18
100
AcDbEntity
  8
_________2
100
AcDbText
 10
23.863431
 20
27.9368
 30
0.0
 40
4.497939999999999
  1
セラトレーディング株式会社
 41
0.5
 72
     1
 11
41.1805
 21
27.9368
 31
0.0
100
AcDbText
  0
LINE
  5
181
330
18
100
AcDbEntity
  8
_________2
100
AcDbLine
 10
183.551
 20
-4.09108
 30
0.0
 11
17.0495
 21
-4.09108
 31
0.0
  0
LINE
  5
182
330
18
100
AcDbEntity
  8
_________2
100
AcDbLine
 10
17.0495
 20
-4.09108
 30
0.0
 11
17.0495
 21
258.911
 31
0.0
  0
LINE
  5
183
330
18
100
AcDbEntity
  8
_________2
100
AcDbLine
 10
17.0495
 20
258.911
 30
0.0
 11
183.551
 21
258.911
 31
0.0
  0
LINE
  5
184
330
18
100
AcDbEntity
  8
_________2
100
AcDbLine
 10
183.551
 20
258.911
 30
0.0
 11
183.551
 21
-4.09108
 31
0.0
  0
LINE
  5
185
330
18
100
AcDbEntity
  8
_________2
100
AcDbLine
 10
65.5496
 20
9.40896
 30
0.0
 11
65.5496
 21
35.9088
 31
0.0
  0
LINE
  5
186
330
18
100
AcDbEntity
  8
_________2
100
AcDbLine
 10
84.54970000000001
 20
9.40896
 30
0.0
 11
84.54970000000001
 21
35.9088
 31
0.0
  0
LINE
  5
187
330
18
100
AcDbEntity
  8
_________2
100
AcDbLine
 10
103.55
 20
-4.09108
 30
0.0
 11
103.55
 21
35.9088
 31
0.0
  0
LINE
  5
188
330
18
100
AcDbEntity
  8
_________2
100
AcDbLine
 10
28.54929999999999
 20
9.40896
 30
0.0
 11
28.54929999999999
 21
23.4092
 31
0.0
  0
LINE
  5
189
330
18
100
AcDbEntity
  8
_________2
100
AcDbLine
 10
17.0495
 20
9.40896
 30
0.0
 11
103.55
 21
9.40896
 31
0.0
  0
LINE
  5
18A
330
18
100
AcDbEntity
  8
_________2
100
AcDbLine
 10
17.0495
 20
23.4092
 30
0.0
 11
103.55
 21
23.4092
 31
0.0
  0
LINE
  5
18B
330
18
100
AcDbEntity
  8
_________2
100
AcDbLine
 10
103.55
 20
15.9085
 30
0.0
 11
183.551
 21
15.9085
 31
0.0
  0
LINE
  5
18C
330
18
100
AcDbEntity
  8
_________2
100
AcDbLine
 10
17.0495
 20
35.9088
 30
0.0
 11
183.551
 21
35.9088
 31
0.0
  0
ENDSEC
  0
SECTION
  2
OBJECTS
  0
DICTIONARY
  5
C
330
0
100
AcDbDictionary
281
     1
  3
ACAD_GROUP
350
D
  3
ACAD_MLINESTYLE
350
1B
  3
ACAD_PLOTSTYLENAME
350
190
  3
ACAD_LAYOUT
350
192
  3
ACAD_PLOTSETTINGS
350
193
  0
DICTIONARY
  5
D
102
{ACAD_REACTORS
330
C
102
}
330
C
100
AcDbDictionary
281
     1
  0
DICTIONARY
  5
1B
102
{ACAD_REACTORS
330
C
102
}
330
C
100
AcDbDictionary
281
     1
  3
STANDARD
350
1C
  0
ACDBDICTIONARYWDFLT
  5
190
102
{ACAD_REACTORS
330
C
102
}
330
C
100
AcDbDictionary
281
     1
  3
Normal
350
191
100
AcDbDictionaryWithDefault
340
191
  0
DICTIONARY
  5
192
102
{ACAD_REACTORS
330
C
102
}
330
C
100
AcDbDictionary
281
     1
  3
Model
350
194
  3
ﾚｲｱｳﾄ1
350
195
  0
DICTIONARY
  5
193
102
{ACAD_REACTORS
330
C
102
}
330
C
100
AcDbDictionary
281
     1
  0
MLINESTYLE
  5
1C
102
{ACAD_REACTORS
330
1B
102
}
330
1B
100
AcDbMlineStyle
  2
STANDARD
 70
     0
  3

 62
   256
 51
90.0
 52
90.0
 71
     2
 49
0.5
 62
   256
  6
BYLAYER
 49
-0.5
 62
   256
  6
BYLAYER
  0
ACDBPLACEHOLDER
  5
191
102
{ACAD_REACTORS
330
190
102
}
330
190
  0
LAYOUT
  5
194
102
{ACAD_REACTORS
330
192
102
}
330
192
100
AcDbPlotSettings
  1

  2
Canon LASER SHOT LBP-880
  4

  6

 40
0.0
 41
0.0
 42
0.0
 43
0.0
 44
0.0
 45
0.0
 46
0.0
 47
0.0
 48
0.0
 49
0.0
140
0.0
141
0.0
142
1.0
143
1.0
 70
  1712
 72
     0
 73
     0
 74
     0
  7

 75
     0
147
1.0
148
0.0
149
0.0
100
AcDbLayout
  1
Model
 70
     1
 71
     0
 10
0.0
 20
0.0
 11
12.0
 21
9.0
 12
0.0
 22
0.0
 32
0.0
 14
0.0
 24
0.0
 34
0.0
 15
0.0
 25
0.0
 35
0.0
146
0.0
 13
0.0
 23
0.0
 33
0.0
 16
1.0
 26
0.0
 36
0.0
 17
0.0
 27
1.0
 37
0.0
 76
     0
330
18
  0
LAYOUT
  5
195
102
{ACAD_REACTORS
330
192
102
}
330
192
100
AcDbPlotSettings
  1

  2
Canon LASER SHOT LBP-880
  4

  6

 40
0.0
 41
0.0
 42
0.0
 43
0.0
 44
0.0
 45
0.0
 46
0.0
 47
0.0
 48
0.0
 49
0.0
140
0.0
141
0.0
142
1.0
143
1.0
 70
   688
 72
     0
 73
     0
 74
     5
  7

 75
    16
147
1.0
148
0.0
149
0.0
100
AcDbLayout
  1
ﾚｲｱｳﾄ1
 70
     1
 71
     1
 10
0.0
 20
0.0
 11
12.0
 21
9.0
 12
0.0
 22
0.0
 32
0.0
 14
1.000000000000000E+20
 24
1.000000000000000E+20
 34
1.000000000000000E+20
 15
-1.000000000000000E+20
 25
-1.000000000000000E+20
 35
-1.000000000000000E+20
146
0.0
 13
0.0
 23
0.0
 33
0.0
 16
1.0
 26
0.0
 36
0.0
 17
0.0
 27
1.0
 37
0.0
 76
     0
330
15
  0
ENDSEC
  0
EOF
