  0
SECTION
  2
HEADER
  9
$ACADVER
  1
AC1009
  9
$LUNITS
 70
2
  9
$LUPREC
 70
4
  9
$LTSCALE
 40
1.0
  9
$EXTMIN
 10
33.7873
 20
-259.334
 30
0
  9
$EXTMAX
 10
230.7955
 20
22.6587
 30
0
  0
ENDSEC
  0
SECTION
  2
TABLES
  0
TABLE
  2
LTYPE
 70
256
  0
ENDTAB
  0
TABLE
  2
LAYER
 70
4
  0
LAYER
  2
LAYER_1
 70
64
 62
7
  6
CONTINUOUS
  0
LAYER
  2
LAYER_2
 70
64
 62
7
  6
CONTINUOUS
  0
LAYER
  2
LAYER_3
 70
64
 62
7
  6
CONTINUOUS
  0
LAYER
  2
LAYER_4
 70
64
 62
7
  6
CONTINUOUS
  0
ENDTAB
  0
TABLE
  2
STYLE
 70
6
  0
STYLE
  2
STANDARD
 70
0
 40
0
 50
0
 71
0
 41
0
 42
0
  3
TXT
  4
BIGFONT
  0
ENDTAB
  0
ENDSEC
  0
SECTION
  2
BLOCKS
  0
BLOCK
  8
LAYER_1
  2
AIGNBL01040029
 70
64
 10
0
 20
0
 30
0
  3
AIGNBL01040029
  0
POLYLINE
  8
LAYER_1
 40
0.05
 41
0.05
 66
1
 10
0
 20
0
 30
0
 70
1
  0
VERTEX
  8
LAYER_1
 10
123.9869
 20
-204.9115
  0
VERTEX
  8
LAYER_1
 10
122.8397
 20
-204.6042
  0
VERTEX
  8
LAYER_1
 10
123.9869
 20
-204.2969
  0
SEQEND
  0
ENDBLK
  0
BLOCK
  8
LAYER_1
  2
AIGNBL0104002A
 70
64
 10
0
 20
0
 30
0
  3
AIGNBL0104002A
  0
POLYLINE
  8
LAYER_1
 40
0.05
 41
0.05
 66
1
 10
0
 20
0
 30
0
 70
1
  0
VERTEX
  8
LAYER_1
 10
162.9926
 20
-204.9115
  0
VERTEX
  8
LAYER_1
 10
164.1398
 20
-204.6042
  0
VERTEX
  8
LAYER_1
 10
162.9926
 20
-204.2969
  0
SEQEND
  0
ENDBLK
  0
BLOCK
  8
LAYER_4
  2
AIGNBL0404000F
 70
64
 10
0
 20
0
 30
0
  3
AIGNBL0404000F
  0
POLYLINE
  8
LAYER_4
 40
0.05
 41
0.05
 66
1
 10
0
 20
0
 30
0
 70
1
  0
VERTEX
  8
LAYER_4
 10
136.4762
 20
-249.6209
  0
VERTEX
  8
LAYER_4
 10
135.9873
 20
-250.8059
  0
VERTEX
  8
LAYER_4
 10
135.3593
 20
-250.8059
  0
VERTEX
  8
LAYER_4
 10
136.9588
 20
-247.0401
  0
VERTEX
  8
LAYER_4
 10
137.692
 20
-247.0401
  0
VERTEX
  8
LAYER_4
 10
139.2984
 20
-250.8059
  0
VERTEX
  8
LAYER_4
 10
138.6483
 20
-250.8059
  0
VERTEX
  8
LAYER_4
 10
138.1457
 20
-249.6209
  0
SEQEND
  0
POLYLINE
  8
LAYER_4
 40
0.05
 41
0.05
 66
1
 10
0
 20
0
 30
0
 70
1
  0
VERTEX
  8
LAYER_4
 10
138.0199
 20
-249.2419
  0
VERTEX
  8
LAYER_4
 10
137.559
 20
-248.157
  0
VERTEX
  8
LAYER_4
 10
137.3144
 20
-247.4701
  0
VERTEX
  8
LAYER_4
 10
137.3006
 20
-247.4701
  0
VERTEX
  8
LAYER_4
 10
137.0629
 20
-248.1526
  0
VERTEX
  8
LAYER_4
 10
136.6023
 20
-249.2419
  0
SEQEND
  0
ENDBLK
  0
BLOCK
  8
LAYER_4
  2
AIGNBL04040010
 70
64
 10
0
 20
0
 30
0
  3
AIGNBL04040010
  0
POLYLINE
  8
LAYER_4
 40
0.05
 41
0.05
 66
1
 10
0
 20
0
 30
0
 70
1
  0
VERTEX
  8
LAYER_4
 10
143.6637
 20
-251.3592
 42
-0.01559967508
  0
VERTEX
  8
LAYER_4
 10
141.8616
 20
-250.9231
  0
VERTEX
  8
LAYER_4
 10
141.5749
 20
-250.8676
 42
-0.08358905353
  0
VERTEX
  8
LAYER_4
 10
140.7109
 20
-250.7015
 42
-0.09751246673
  0
VERTEX
  8
LAYER_4
 10
140.0497
 20
-250.2955
 42
-0.2129005167
  0
VERTEX
  8
LAYER_4
 10
139.501
 20
-248.9628
 42
-0.09685143224
  0
VERTEX
  8
LAYER_4
 10
139.6456
 20
-248.1894
 42
-0.2046325641
  0
VERTEX
  8
LAYER_4
 10
140.6931
 20
-247.1652
 42
-0.09825434011
  0
VERTEX
  8
LAYER_4
 10
141.6941
 20
-246.9788
 42
-0.08554836282
  0
VERTEX
  8
LAYER_4
 10
142.5627
 20
-247.1201
 42
-0.1004347897
  0
VERTEX
  8
LAYER_4
 10
143.2278
 20
-247.5144
 42
-0.2140895568
  0
VERTEX
  8
LAYER_4
 10
143.8032
 20
-248.8843
 42
-0.09540200113
  0
VERTEX
  8
LAYER_4
 10
143.6643
 20
-249.652
 42
-0.2143255494
  0
VERTEX
  8
LAYER_4
 10
142.6415
 20
-250.6305
 42
-0.02339086401
  0
VERTEX
  8
LAYER_4
 10
142.4624
 20
-250.6888
  0
VERTEX
  8
LAYER_4
 10
142.4624
 20
-250.7112
 42
0.01724000573
  0
VERTEX
  8
LAYER_4
 10
143.8387
 20
-250.9513
  0
SEQEND
  0
POLYLINE
  8
LAYER_4
 40
0.05
 41
0.05
 66
1
 10
0
 20
0
 30
0
 70
1
  0
VERTEX
  8
LAYER_4
 10
143.1611
 20
-248.9056
 42
0.1071638435
  0
VERTEX
  8
LAYER_4
 10
143.0098
 20
-248.2009
 42
0.2976166227
  0
VERTEX
  8
LAYER_4
 10
141.6728
 20
-247.3753
 42
0.1072356843
  0
VERTEX
  8
LAYER_4
 10
140.983
 20
-247.5148
 42
0.2385874916
  0
VERTEX
  8
LAYER_4
 10
140.196
 20
-248.5204
 42
0.05751786987
  0
VERTEX
  8
LAYER_4
 10
140.1504
 20
-248.9504
 42
0.218058121
  0
VERTEX
  8
LAYER_4
 10
140.681
 20
-250.1458
 42
0.1772828752
  0
VERTEX
  8
LAYER_4
 10
141.6449
 20
-250.4714
 42
0.1075205619
  0
VERTEX
  8
LAYER_4
 10
142.3262
 20
-250.3324
 42
0.2370768657
  0
VERTEX
  8
LAYER_4
 10
143.1134
 20
-249.3328
 42
0.05602139055
  0
SEQEND
  0
ENDBLK
  0
BLOCK
  8
LAYER_4
  2
AIGNBL04040011
 70
64
 10
0
 20
0
 30
0
  3
AIGNBL04040011
  0
POLYLINE
  8
LAYER_4
 40
0.05
 41
0.05
 66
1
 10
0
 20
0
 30
0
 70
1
  0
VERTEX
  8
LAYER_4
 10
145.1306
 20
-247.0401
  0
VERTEX
  8
LAYER_4
 10
145.1306
 20
-249.2695
 42
0.1145419645
  0
VERTEX
  8
LAYER_4
 10
145.2645
 20
-249.9353
 42
0.146474021
  0
VERTEX
  8
LAYER_4
 10
145.6149
 20
-250.3204
 42
0.136249447
  0
VERTEX
  8
LAYER_4
 10
146.2272
 20
-250.4714
 42
0.1219252591
  0
VERTEX
  8
LAYER_4
 10
146.8503
 20
-250.3367
 42
0.1502970876
  0
VERTEX
  8
LAYER_4
 10
147.2221
 20
-249.9677
 42
0.1256330146
  0
VERTEX
  8
LAYER_4
 10
147.3727
 20
-249.2695
  0
VERTEX
  8
LAYER_4
 10
147.3727
 20
-247.0401
  0
VERTEX
  8
LAYER_4
 10
147.9873
 20
-247.0401
  0
VERTEX
  8
LAYER_4
 10
147.9873
 20
-249.236
 42
-0.09997505101
  0
VERTEX
  8
LAYER_4
 10
147.8524
 20
-249.9787
 42
-0.1214984503
  0
VERTEX
  8
LAYER_4
 10
147.4791
 20
-250.4854
 42
-0.1106235892
  0
VERTEX
  8
LAYER_4
 10
146.8537
 20
-250.792
 42
-0.06128954947
  0
VERTEX
  8
LAYER_4
 10
146.2062
 20
-250.8676
 42
-0.09418225932
  0
VERTEX
  8
LAYER_4
 10
145.387
 20
-250.7295
 42
-0.2431666463
  0
VERTEX
  8
LAYER_4
 10
144.5835
 20
-249.8188
 42
-0.06320556818
  0
VERTEX
  8
LAYER_4
 10
144.516
 20
-249.2581
  0
VERTEX
  8
LAYER_4
 10
144.516
 20
-247.0401
  0
SEQEND
  0
ENDBLK
  0
BLOCK
  8
LAYER_4
  2
AIGNBL04040012
 70
64
 10
0
 20
0
 30
0
  3
AIGNBL04040012
  0
POLYLINE
  8
LAYER_4
 40
0.05
 41
0.05
 66
1
 10
0
 20
0
 30
0
 70
1
  0
VERTEX
  8
LAYER_4
 10
149.7336
 20
-249.6209
  0
VERTEX
  8
LAYER_4
 10
149.2444
 20
-250.8059
  0
VERTEX
  8
LAYER_4
 10
148.6163
 20
-250.8059
  0
VERTEX
  8
LAYER_4
 10
150.2156
 20
-247.0401
  0
VERTEX
  8
LAYER_4
 10
150.9487
 20
-247.0401
  0
VERTEX
  8
LAYER_4
 10
152.5551
 20
-250.8059
  0
VERTEX
  8
LAYER_4
 10
151.9058
 20
-250.8059
  0
VERTEX
  8
LAYER_4
 10
151.4031
 20
-249.6209
  0
SEQEND
  0
POLYLINE
  8
LAYER_4
 40
0.05
 41
0.05
 66
1
 10
0
 20
0
 30
0
 70
1
  0
VERTEX
  8
LAYER_4
 10
151.277
 20
-249.2419
  0
VERTEX
  8
LAYER_4
 10
150.8157
 20
-248.157
  0
VERTEX
  8
LAYER_4
 10
150.5711
 20
-247.4701
  0
VERTEX
  8
LAYER_4
 10
150.5573
 20
-247.4701
  0
VERTEX
  8
LAYER_4
 10
150.3199
 20
-248.1526
  0
VERTEX
  8
LAYER_4
 10
149.859
 20
-249.2419
  0
SEQEND
  0
ENDBLK
  0
BLOCK
  8
LAYER_4
  2
AIGNBL04040013
 70
64
 10
0
 20
0
 30
0
  3
AIGNBL04040013
  0
POLYLINE
  8
LAYER_4
 40
0.05
 41
0.05
 66
1
 10
0
 20
0
 30
0
 70
1
  0
VERTEX
  8
LAYER_4
 10
153.5959
 20
-247.0849
 42
-0.03240126776
  0
VERTEX
  8
LAYER_4
 10
154.7628
 20
-247.0119
 42
-0.0808140334
  0
VERTEX
  8
LAYER_4
 10
155.7192
 20
-247.1437
 42
-0.07818660191
  0
VERTEX
  8
LAYER_4
 10
156.0826
 20
-247.3247
 42
-0.2484404511
  0
VERTEX
  8
LAYER_4
 10
156.4943
 20
-248.1129
 42
-0.226189009
  0
VERTEX
  8
LAYER_4
 10
156.1312
 20
-248.917
 42
-0.1097249832
  0
VERTEX
  8
LAYER_4
 10
155.5029
 20
-249.2303
 42
-0.06566606719
  0
VERTEX
  8
LAYER_4
 10
154.6925
 20
-249.3308
 42
-0.06238309955
  0
VERTEX
  8
LAYER_4
 10
154.204
 20
-249.2974
  0
VERTEX
  8
LAYER_4
 10
154.204
 20
-250.8059
  0
VERTEX
  8
LAYER_4
 10
153.5959
 20
-250.8059
  0
SEQEND
  0
POLYLINE
  8
LAYER_4
 40
0.05
 41
0.05
 66
1
 10
0
 20
0
 30
0
 70
1
  0
VERTEX
  8
LAYER_4
 10
154.204
 20
-248.9005
 42
0.04203971266
  0
VERTEX
  8
LAYER_4
 10
154.7062
 20
-248.9398
 42
0.1032343961
  0
VERTEX
  8
LAYER_4
 10
155.4254
 20
-248.8125
 42
0.1555994232
  0
VERTEX
  8
LAYER_4
 10
155.7902
 20
-248.508
 42
0.135239093
  0
VERTEX
  8
LAYER_4
 10
155.8872
 20
-248.1353
 42
0.173699201
  0
VERTEX
  8
LAYER_4
 10
155.7524
 20
-247.728
 42
0.1517035581
  0
VERTEX
  8
LAYER_4
 10
155.3313
 20
-247.4685
 42
0.06880454264
  0
VERTEX
  8
LAYER_4
 10
154.7769
 20
-247.3977
 42
0.06324318977
  0
VERTEX
  8
LAYER_4
 10
154.204
 20
-247.437
  0
SEQEND
  0
ENDBLK
  0
BLOCK
  8
LAYER_4
  2
AIGNBL04040014
 70
64
 10
0
 20
0
 30
0
  3
AIGNBL04040014
  0
POLYLINE
  8
LAYER_4
 40
0.05
 41
0.05
 66
1
 10
0
 20
0
 30
0
 70
1
  0
VERTEX
  8
LAYER_4
 10
158.0463
 20
-247.3419
 42
-0.2766304867
  0
VERTEX
  8
LAYER_4
 10
157.9067
 20
-247.582
 42
-0.1265008719
  0
VERTEX
  8
LAYER_4
 10
157.6546
 20
-247.6437
 42
-0.2236735454
  0
VERTEX
  8
LAYER_4
 10
157.3443
 20
-247.5113
 42
-0.1708923331
  0
VERTEX
  8
LAYER_4
 10
157.2842
 20
-247.3419
 42
-0.2644657541
  0
VERTEX
  8
LAYER_4
 10
157.4336
 20
-247.0949
 42
-0.1289461134
  0
VERTEX
  8
LAYER_4
 10
157.6683
 20
-247.035
 42
-0.2252711891
  0
VERTEX
  8
LAYER_4
 10
157.9852
 20
-247.1656
 42
-0.1691711204
  0
SEQEND
  0
POLYLINE
  8
LAYER_4
 40
0.05
 41
0.05
 66
1
 10
0
 20
0
 30
0
 70
1
  0
VERTEX
  8
LAYER_4
 10
157.3607
 20
-250.8059
  0
VERTEX
  8
LAYER_4
 10
157.3607
 20
-248.1019
  0
VERTEX
  8
LAYER_4
 10
157.9753
 20
-248.1019
  0
VERTEX
  8
LAYER_4
 10
157.9753
 20
-250.8059
  0
SEQEND
  0
ENDBLK
  0
BLOCK
  8
LAYER_4
  2
AIGNBL04040015
 70
64
 10
0
 20
0
 30
0
  3
AIGNBL04040015
  0
POLYLINE
  8
LAYER_4
 40
0.05
 41
0.05
 66
1
 10
0
 20
0
 30
0
 70
1
  0
VERTEX
  8
LAYER_4
 10
159.847
 20
-249.6209
  0
VERTEX
  8
LAYER_4
 10
159.3589
 20
-250.8059
  0
VERTEX
  8
LAYER_4
 10
158.7298
 20
-250.8059
  0
VERTEX
  8
LAYER_4
 10
160.3293
 20
-247.0401
  0
VERTEX
  8
LAYER_4
 10
161.0632
 20
-247.0401
  0
VERTEX
  8
LAYER_4
 10
162.6696
 20
-250.8059
  0
VERTEX
  8
LAYER_4
 10
162.0199
 20
-250.8059
  0
VERTEX
  8
LAYER_4
 10
161.5172
 20
-249.6209
  0
SEQEND
  0
POLYLINE
  8
LAYER_4
 40
0.05
 41
0.05
 66
1
 10
0
 20
0
 30
0
 70
1
  0
VERTEX
  8
LAYER_4
 10
161.3911
 20
-249.2419
  0
VERTEX
  8
LAYER_4
 10
160.9302
 20
-248.157
  0
VERTEX
  8
LAYER_4
 10
160.6863
 20
-247.4701
  0
VERTEX
  8
LAYER_4
 10
160.6714
 20
-247.4701
  0
VERTEX
  8
LAYER_4
 10
160.4344
 20
-248.1526
  0
VERTEX
  8
LAYER_4
 10
159.9735
 20
-249.2419
  0
SEQEND
  0
ENDBLK
  0
BLOCK
  8
LAYER_1
  2
AIGNBL01030005
 70
64
 10
0
 20
0
 30
0
  3
AIGNBL01030005
  0
POLYLINE
  8
LAYER_1
 40
0.05
 41
0.05
 66
1
 10
0
 20
0
 30
0
 70
1
  0
VERTEX
  8
LAYER_1
 10
108.7944
 20
5.6747
  0
VERTEX
  8
LAYER_1
 10
107.6472
 20
5.9821
  0
VERTEX
  8
LAYER_1
 10
108.7944
 20
6.2897
  0
SEQEND
  0
ENDBLK
  0
BLOCK
  8
LAYER_1
  2
AIGNBL01030006
 70
64
 10
0
 20
0
 30
0
  3
AIGNBL01030006
  0
POLYLINE
  8
LAYER_1
 40
0.05
 41
0.05
 66
1
 10
0
 20
0
 30
0
 70
1
  0
VERTEX
  8
LAYER_1
 10
178.2444
 20
5.6747
  0
VERTEX
  8
LAYER_1
 10
179.3916
 20
5.9821
  0
VERTEX
  8
LAYER_1
 10
178.2444
 20
6.2897
  0
SEQEND
  0
ENDBLK
  0
BLOCK
  8
LAYER_1
  2
AIGNBL0103000B
 70
64
 10
0
 20
0
 30
0
  3
AIGNBL0103000B
  0
POLYLINE
  8
LAYER_1
 40
0.05
 41
0.05
 66
1
 10
0
 20
0
 30
0
 70
1
  0
VERTEX
  8
LAYER_1
 10
105.155
 20
-145.9347
  0
VERTEX
  8
LAYER_1
 10
104.8477
 20
-147.0822
  0
VERTEX
  8
LAYER_1
 10
104.54
 20
-145.9347
  0
SEQEND
  0
ENDBLK
  0
BLOCK
  8
LAYER_1
  2
AIGNBL0103000C
 70
64
 10
0
 20
0
 30
0
  3
AIGNBL0103000C
  0
POLYLINE
  8
LAYER_1
 40
0.05
 41
0.05
 66
1
 10
0
 20
0
 30
0
 70
1
  0
VERTEX
  8
LAYER_1
 10
105.155
 20
-68.2296
  0
VERTEX
  8
LAYER_1
 10
104.8477
 20
-67.0822
  0
VERTEX
  8
LAYER_1
 10
104.54
 20
-68.2296
  0
SEQEND
  0
ENDBLK
  0
BLOCK
  8
LAYER_1
  2
AIGNBL01030011
 70
64
 10
0
 20
0
 30
0
  3
AIGNBL01030011
  0
POLYLINE
  8
LAYER_1
 40
0.05
 41
0.05
 66
1
 10
0
 20
0
 30
0
 70
1
  0
VERTEX
  8
LAYER_1
 10
114.6666
 20
-153.5582
  0
VERTEX
  8
LAYER_1
 10
113.5193
 20
-153.2509
  0
VERTEX
  8
LAYER_1
 10
114.6666
 20
-152.9436
  0
SEQEND
  0
ENDBLK
  0
BLOCK
  8
LAYER_1
  2
AIGNBL01030012
 70
64
 10
0
 20
0
 30
0
  3
AIGNBL01030012
  0
POLYLINE
  8
LAYER_1
 40
0.05
 41
0.05
 66
1
 10
0
 20
0
 30
0
 70
1
  0
VERTEX
  8
LAYER_1
 10
172.3723
 20
-153.5582
  0
VERTEX
  8
LAYER_1
 10
173.5195
 20
-153.2509
  0
VERTEX
  8
LAYER_1
 10
172.3723
 20
-152.9436
  0
SEQEND
  0
ENDBLK
  0
BLOCK
  8
LAYER_1
  2
AIGNBL01030019
 70
64
 10
0
 20
0
 30
0
  3
AIGNBL01030019
  0
POLYLINE
  8
LAYER_1
 40
0.05
 41
0.05
 66
1
 10
0
 20
0
 30
0
 70
1
  0
VERTEX
  8
LAYER_1
 10
182.2769
 20
-190.9361
  0
VERTEX
  8
LAYER_1
 10
182.5842
 20
-189.7889
  0
VERTEX
  8
LAYER_1
 10
182.8918
 20
-190.9361
  0
SEQEND
  0
ENDBLK
  0
BLOCK
  8
LAYER_1
  2
AIGNBL0103001A
 70
64
 10
0
 20
0
 30
0
  3
AIGNBL0103001A
  0
POLYLINE
  8
LAYER_1
 40
0.05
 41
0.05
 66
1
 10
0
 20
0
 30
0
 70
1
  0
VERTEX
  8
LAYER_1
 10
182.2769
 20
-198.6414
  0
VERTEX
  8
LAYER_1
 10
182.5842
 20
-199.7887
  0
VERTEX
  8
LAYER_1
 10
182.8918
 20
-198.6414
  0
SEQEND
  0
ENDBLK
  0
BLOCK
  8
LAYER_1
  2
AIGNBL0103001D
 70
64
 10
0
 20
0
 30
0
  3
AIGNBL0103001D
  0
POLYLINE
  8
LAYER_1
 40
0.05
 41
0.05
 66
1
 10
0
 20
0
 30
0
 70
1
  0
VERTEX
  8
LAYER_1
 10
182.2772
 20
-168.9358
  0
VERTEX
  8
LAYER_1
 10
182.5845
 20
-167.7886
  0
VERTEX
  8
LAYER_1
 10
182.8922
 20
-168.9358
  0
SEQEND
  0
ENDBLK
  0
BLOCK
  8
LAYER_1
  2
AIGNBL0103001E
 70
64
 10
0
 20
0
 30
0
  3
AIGNBL0103001E
  0
POLYLINE
  8
LAYER_1
 40
0.05
 41
0.05
 66
1
 10
0
 20
0
 30
0
 70
1
  0
VERTEX
  8
LAYER_1
 10
182.2772
 20
-188.6417
  0
VERTEX
  8
LAYER_1
 10
182.5845
 20
-189.7889
  0
VERTEX
  8
LAYER_1
 10
182.8922
 20
-188.6417
  0
SEQEND
  0
ENDBLK
  0
BLOCK
  8
LAYER_1
  2
AIGNBL01030023
 70
64
 10
0
 20
0
 30
0
  3
AIGNBL01030023
  0
POLYLINE
  8
LAYER_1
 40
0.05
 41
0.05
 66
1
 10
0
 20
0
 30
0
 70
1
  0
VERTEX
  8
LAYER_1
 10
182.2769
 20
-12.195
  0
VERTEX
  8
LAYER_1
 10
182.5842
 20
-11.0476
  0
VERTEX
  8
LAYER_1
 10
182.8918
 20
-12.195
  0
SEQEND
  0
ENDBLK
  0
BLOCK
  8
LAYER_1
  2
AIGNBL01030024
 70
64
 10
0
 20
0
 30
0
  3
AIGNBL01030024
  0
POLYLINE
  8
LAYER_1
 40
0.05
 41
0.05
 66
1
 10
0
 20
0
 30
0
 70
1
  0
VERTEX
  8
LAYER_1
 10
182.2769
 20
-29.9016
  0
VERTEX
  8
LAYER_1
 10
182.5842
 20
-31.0489
  0
VERTEX
  8
LAYER_1
 10
182.8918
 20
-29.9016
  0
SEQEND
  0
ENDBLK
  0
BLOCK
  8
LAYER_1
  2
AIGNBL01030028
 70
64
 10
0
 20
0
 30
0
  3
AIGNBL01030028
  0
POLYLINE
  8
LAYER_1
 40
0.1058
 41
0.1058
 66
1
 10
0
 20
0
 30
0
  0
VERTEX
  8
LAYER_1
 10
123.7774
 20
-204.6173
  0
VERTEX
  8
LAYER_1
 10
163.2021
 20
-204.6173
  0
SEQEND
  0
INSERT
  8
LAYER_1
  2
AIGNBL01040029
 10
0
 20
0
 30
0
  0
INSERT
  8
LAYER_1
  2
AIGNBL0104002A
 10
0
 20
0
 30
0
  0
ENDBLK
  0
BLOCK
  8
LAYER_4
  2
AIGNBL04030009
 70
64
 10
0
 20
0
 30
0
  3
AIGNBL04030009
  0
POLYLINE
  8
LAYER_4
 40
0.05
 41
0.05
 66
1
 10
0
 20
0
 30
0
 70
1
  0
VERTEX
  8
LAYER_4
 10
182.1639
 20
-80.7456
  0
VERTEX
  8
LAYER_4
 10
182.4712
 20
-79.5982
  0
VERTEX
  8
LAYER_4
 10
182.7789
 20
-80.7456
  0
SEQEND
  0
ENDBLK
  0
BLOCK
  8
LAYER_4
  2
AIGNBL0403000A
 70
64
 10
0
 20
0
 30
0
  3
AIGNBL0403000A
  0
POLYLINE
  8
LAYER_4
 40
0.05
 41
0.05
 66
1
 10
0
 20
0
 30
0
 70
1
  0
VERTEX
  8
LAYER_4
 10
182.1639
 20
-101.4501
  0
VERTEX
  8
LAYER_4
 10
182.4712
 20
-102.5975
  0
VERTEX
  8
LAYER_4
 10
182.7789
 20
-101.4501
  0
SEQEND
  0
ENDBLK
  0
BLOCK
  8
LAYER_4
  2
AIGNBL0403000E
 70
64
 10
0
 20
0
 30
0
  3
AIGNBL0403000E
  0
INSERT
  8
LAYER_4
  2
AIGNBL0404000F
 10
0
 20
0
 30
0
  0
INSERT
  8
LAYER_4
  2
AIGNBL04040010
 10
0
 20
0
 30
0
  0
INSERT
  8
LAYER_4
  2
AIGNBL04040011
 10
0
 20
0
 30
0
  0
INSERT
  8
LAYER_4
  2
AIGNBL04040012
 10
0
 20
0
 30
0
  0
INSERT
  8
LAYER_4
  2
AIGNBL04040013
 10
0
 20
0
 30
0
  0
INSERT
  8
LAYER_4
  2
AIGNBL04040014
 10
0
 20
0
 30
0
  0
INSERT
  8
LAYER_4
  2
AIGNBL04040015
 10
0
 20
0
 30
0
  0
ENDBLK
  0
BLOCK
  8
LAYER_4
  2
AIGNBL04030017
 70
64
 10
0
 20
0
 30
0
  3
AIGNBL04030017
  0
POLYLINE
  8
LAYER_4
 40
0.05
 41
0.05
 66
1
 10
0
 20
0
 30
0
 70
1
  0
VERTEX
  8
LAYER_4
 10
135.4692
 20
-252.7052
  0
VERTEX
  8
LAYER_4
 10
136.0225
 20
-252.7052
  0
VERTEX
  8
LAYER_4
 10
136.0225
 20
-252.799
  0
VERTEX
  8
LAYER_4
 10
135.3641
 20
-252.799
  0
VERTEX
  8
LAYER_4
 10
135.3641
 20
-251.7658
  0
VERTEX
  8
LAYER_4
 10
136.0049
 20
-251.7658
  0
VERTEX
  8
LAYER_4
 10
136.0049
 20
-251.8591
  0
VERTEX
  8
LAYER_4
 10
135.4692
 20
-251.8591
  0
VERTEX
  8
LAYER_4
 10
135.4692
 20
-252.2136
  0
VERTEX
  8
LAYER_4
 10
135.9698
 20
-252.2136
  0
VERTEX
  8
LAYER_4
 10
135.9698
 20
-252.307
  0
VERTEX
  8
LAYER_4
 10
135.4692
 20
-252.307
  0
SEQEND
  0
ENDBLK
  0
BLOCK
  8
LAYER_4
  2
AIGNBL04030018
 70
64
 10
0
 20
0
 30
0
  3
AIGNBL04030018
  0
POLYLINE
  8
LAYER_4
 40
0.05
 41
0.05
 66
1
 10
0
 20
0
 30
0
 70
1
  0
VERTEX
  8
LAYER_4
 10
137.1621
 20
-252.6457
  0
VERTEX
  8
LAYER_4
 10
137.1649
 20
-252.6457
  0
VERTEX
  8
LAYER_4
 10
137.1649
 20
-251.7658
  0
VERTEX
  8
LAYER_4
 10
137.27
 20
-251.7658
  0
VERTEX
  8
LAYER_4
 10
137.27
 20
-252.799
  0
VERTEX
  8
LAYER_4
 10
137.139
 20
-252.799
  0
VERTEX
  8
LAYER_4
 10
136.5379
 20
-251.9101
  0
VERTEX
  8
LAYER_4
 10
136.5344
 20
-251.9101
  0
VERTEX
  8
LAYER_4
 10
136.5344
 20
-252.799
  0
VERTEX
  8
LAYER_4
 10
136.4297
 20
-252.799
  0
VERTEX
  8
LAYER_4
 10
136.4297
 20
-251.7658
  0
VERTEX
  8
LAYER_4
 10
136.5609
 20
-251.7658
  0
SEQEND
  0
ENDBLK
  0
BLOCK
  8
LAYER_4
  2
AIGNBL04030019
 70
64
 10
0
 20
0
 30
0
  3
AIGNBL04030019
  0
POLYLINE
  8
LAYER_4
 40
0.05
 41
0.05
 66
1
 10
0
 20
0
 30
0
 70
1
  0
VERTEX
  8
LAYER_4
 10
137.743
 20
-252.5871
  0
VERTEX
  8
LAYER_4
 10
137.7974
 20
-252.6901
 42
0.1809219053
  0
VERTEX
  8
LAYER_4
 10
137.9107
 20
-252.7318
  0
VERTEX
  8
LAYER_4
 10
138
 20
-252.7121
  0
VERTEX
  8
LAYER_4
 10
138.0561
 20
-252.6587
  0
VERTEX
  8
LAYER_4
 10
138.0851
 20
-252.5823
  0
VERTEX
  8
LAYER_4
 10
138.0933
 20
-252.4927
  0
VERTEX
  8
LAYER_4
 10
138.0933
 20
-251.7658
  0
VERTEX
  8
LAYER_4
 10
138.1984
 20
-251.7658
  0
VERTEX
  8
LAYER_4
 10
138.1984
 20
-252.5013
  0
VERTEX
  8
LAYER_4
 10
138.187
 20
-252.6091
  0
VERTEX
  8
LAYER_4
 10
138.1457
 20
-252.7142
  0
VERTEX
  8
LAYER_4
 10
138.0609
 20
-252.7938
  0
VERTEX
  8
LAYER_4
 10
137.9221
 20
-252.8251
 42
-0.1846141752
  0
VERTEX
  8
LAYER_4
 10
137.7375
 20
-252.7652
 42
-0.1765285731
  0
VERTEX
  8
LAYER_4
 10
137.6451
 20
-252.6136
  0
SEQEND
  0
ENDBLK
  0
BLOCK
  8
LAYER_4
  2
AIGNBL0403001A
 70
64
 10
0
 20
0
 30
0
  3
AIGNBL0403001A
  0
POLYLINE
  8
LAYER_4
 40
0.05
 41
0.05
 66
1
 10
0
 20
0
 30
0
 70
1
  0
VERTEX
  8
LAYER_4
 10
139.6867
 20
-252.2822
 42
-0.1039024845
  0
VERTEX
  8
LAYER_4
 10
139.6457
 20
-252.4996
 42
-0.100426525
  0
VERTEX
  8
LAYER_4
 10
139.533
 20
-252.6711
  0
VERTEX
  8
LAYER_4
 10
139.3621
 20
-252.7842
 42
-0.09485798694
  0
VERTEX
  8
LAYER_4
 10
139.1482
 20
-252.8251
 42
-0.1012857222
  0
VERTEX
  8
LAYER_4
 10
138.9346
 20
-252.7842
 42
-0.1003748544
  0
VERTEX
  8
LAYER_4
 10
138.7637
 20
-252.6711
 42
-0.09429605145
  0
VERTEX
  8
LAYER_4
 10
138.6504
 20
-252.4996
 42
-0.09313545426
  0
VERTEX
  8
LAYER_4
 10
138.6097
 20
-252.2822
 42
-0.1023371638
  0
VERTEX
  8
LAYER_4
 10
138.6504
 20
-252.0648
 42
-0.1003870652
  0
VERTEX
  8
LAYER_4
 10
138.7637
 20
-251.8932
 42
-0.09605911006
  0
VERTEX
  8
LAYER_4
 10
138.9346
 20
-251.7803
 42
-0.09551879586
  0
VERTEX
  8
LAYER_4
 10
139.1482
 20
-251.7392
 42
-0.1015654035
  0
VERTEX
  8
LAYER_4
 10
139.3621
 20
-251.7803
 42
-0.09924476645
  0
VERTEX
  8
LAYER_4
 10
139.533
 20
-251.8932
 42
-0.09549186385
  0
VERTEX
  8
LAYER_4
 10
139.6457
 20
-252.0648
 42
-0.093973576
  0
SEQEND
  0
POLYLINE
  8
LAYER_4
 40
0.05
 41
0.05
 66
1
 10
0
 20
0
 30
0
 70
1
  0
VERTEX
  8
LAYER_4
 10
139.5757
 20
-252.2829
  0
VERTEX
  8
LAYER_4
 10
139.5468
 20
-252.111
  0
VERTEX
  8
LAYER_4
 10
139.462
 20
-251.9676
  0
VERTEX
  8
LAYER_4
 10
139.327
 20
-251.8695
 42
0.1018863057
  0
VERTEX
  8
LAYER_4
 10
139.1482
 20
-251.8326
  0
VERTEX
  8
LAYER_4
 10
138.9694
 20
-251.8695
  0
VERTEX
  8
LAYER_4
 10
138.8347
 20
-251.9676
  0
VERTEX
  8
LAYER_4
 10
138.75
 20
-252.111
  0
VERTEX
  8
LAYER_4
 10
138.7207
 20
-252.2829
  0
VERTEX
  8
LAYER_4
 10
138.75
 20
-252.4548
  0
VERTEX
  8
LAYER_4
 10
138.8347
 20
-252.5977
  0
VERTEX
  8
LAYER_4
 10
138.9694
 20
-252.6953
  0
VERTEX
  8
LAYER_4
 10
139.1482
 20
-252.7318
  0
VERTEX
  8
LAYER_4
 10
139.327
 20
-252.6953
  0
VERTEX
  8
LAYER_4
 10
139.462
 20
-252.5977
  0
VERTEX
  8
LAYER_4
 10
139.5468
 20
-252.4548
  0
SEQEND
  0
ENDBLK
  0
BLOCK
  8
LAYER_4
  2
AIGNBL0403001B
 70
64
 10
0
 20
0
 30
0
  3
AIGNBL0403001B
  0
POLYLINE
  8
LAYER_4
 40
0.05
 41
0.05
 66
1
 10
0
 20
0
 30
0
 70
1
  0
VERTEX
  8
LAYER_4
 10
140.4615
 20
-252.799
  0
VERTEX
  8
LAYER_4
 10
140.3568
 20
-252.799
  0
VERTEX
  8
LAYER_4
 10
140.3568
 20
-252.3535
  0
VERTEX
  8
LAYER_4
 10
139.9699
 20
-251.7658
  0
VERTEX
  8
LAYER_4
 10
140.1011
 20
-251.7658
  0
VERTEX
  8
LAYER_4
 10
140.4122
 20
-252.266
  0
VERTEX
  8
LAYER_4
 10
140.7257
 20
-251.7658
  0
VERTEX
  8
LAYER_4
 10
140.848
 20
-251.7658
  0
VERTEX
  8
LAYER_4
 10
140.4615
 20
-252.3535
  0
SEQEND
  0
ENDBLK
  0
BLOCK
  8
LAYER_4
  2
AIGNBL0403001C
 70
64
 10
0
 20
0
 30
0
  3
AIGNBL0403001C
  0
POLYLINE
  8
LAYER_4
 40
0.05
 41
0.05
 66
1
 10
0
 20
0
 30
0
 70
1
  0
VERTEX
  8
LAYER_4
 10
141.7531
 20
-251.7658
  0
VERTEX
  8
LAYER_4
 10
142.0607
 20
-251.7658
  0
VERTEX
  8
LAYER_4
 10
142.1792
 20
-251.7782
  0
VERTEX
  8
LAYER_4
 10
142.286
 20
-251.8205
  0
VERTEX
  8
LAYER_4
 10
142.3639
 20
-251.9015
  0
VERTEX
  8
LAYER_4
 10
142.3935
 20
-252.0297
 42
-0.1792205683
  0
VERTEX
  8
LAYER_4
 10
142.3435
 20
-252.1719
 42
-0.1642259289
  0
VERTEX
  8
LAYER_4
 10
142.2102
 20
-252.2515
  0
VERTEX
  8
LAYER_4
 10
142.2102
 20
-252.2543
 42
-0.1735745096
  0
VERTEX
  8
LAYER_4
 10
142.3769
 20
-252.3325
 42
-0.1923594805
  0
VERTEX
  8
LAYER_4
 10
142.4431
 20
-252.513
  0
VERTEX
  8
LAYER_4
 10
142.4159
 20
-252.6301
  0
VERTEX
  8
LAYER_4
 10
142.3398
 20
-252.7208
  0
VERTEX
  8
LAYER_4
 10
142.2188
 20
-252.7783
  0
VERTEX
  8
LAYER_4
 10
142.059
 20
-252.799
  0
VERTEX
  8
LAYER_4
 10
141.7531
 20
-252.799
  0
SEQEND
  0
POLYLINE
  8
LAYER_4
 40
0.05
 41
0.05
 66
1
 10
0
 20
0
 30
0
 70
1
  0
VERTEX
  8
LAYER_4
 10
141.8581
 20
-252.2181
  0
VERTEX
  8
LAYER_4
 10
142.0696
 20
-252.2181
  0
VERTEX
  8
LAYER_4
 10
142.1465
 20
-252.2092
  0
VERTEX
  8
LAYER_4
 10
142.2167
 20
-252.1795
  0
VERTEX
  8
LAYER_4
 10
142.2688
 20
-252.123
  0
VERTEX
  8
LAYER_4
 10
142.2884
 20
-252.0369
  0
VERTEX
  8
LAYER_4
 10
142.2688
 20
-251.9532
  0
VERTEX
  8
LAYER_4
 10
142.2157
 20
-251.897
  0
VERTEX
  8
LAYER_4
 10
142.1368
 20
-251.8657
  0
VERTEX
  8
LAYER_4
 10
142.0404
 20
-251.856
  0
VERTEX
  8
LAYER_4
 10
141.8581
 20
-251.856
  0
SEQEND
  0
POLYLINE
  8
LAYER_4
 40
0.05
 41
0.05
 66
1
 10
0
 20
0
 30
0
 70
1
  0
VERTEX
  8
LAYER_4
 10
141.8581
 20
-252.7083
  0
VERTEX
  8
LAYER_4
 10
142.0538
 20
-252.7083
  0
VERTEX
  8
LAYER_4
 10
142.1623
 20
-252.6973
  0
VERTEX
  8
LAYER_4
 10
142.2529
 20
-252.6625
  0
VERTEX
  8
LAYER_4
 10
142.3146
 20
-252.5995
  0
VERTEX
  8
LAYER_4
 10
142.338
 20
-252.5068
 42
0.2554961852
  0
VERTEX
  8
LAYER_4
 10
142.2688
 20
-252.3545
 42
0.1381236768
  0
VERTEX
  8
LAYER_4
 10
142.0727
 20
-252.3042
  0
VERTEX
  8
LAYER_4
 10
141.8581
 20
-252.3042
  0
SEQEND
  0
ENDBLK
  0
BLOCK
  8
LAYER_4
  2
AIGNBL0403001D
 70
64
 10
0
 20
0
 30
0
  3
AIGNBL0403001D
  0
POLYLINE
  8
LAYER_4
 40
0.05
 41
0.05
 66
1
 10
0
 20
0
 30
0
 70
1
  0
VERTEX
  8
LAYER_4
 10
142.8751
 20
-252.799
  0
VERTEX
  8
LAYER_4
 10
142.7597
 20
-252.799
  0
VERTEX
  8
LAYER_4
 10
143.2065
 20
-251.7658
  0
VERTEX
  8
LAYER_4
 10
143.3088
 20
-251.7658
  0
VERTEX
  8
LAYER_4
 10
143.7522
 20
-252.799
  0
VERTEX
  8
LAYER_4
 10
143.6354
 20
-252.799
  0
VERTEX
  8
LAYER_4
 10
143.5214
 20
-252.5275
  0
VERTEX
  8
LAYER_4
 10
142.9874
 20
-252.5275
  0
SEQEND
  0
POLYLINE
  8
LAYER_4
 40
0.05
 41
0.05
 66
1
 10
0
 20
0
 30
0
 70
1
  0
VERTEX
  8
LAYER_4
 10
143.0267
 20
-252.431
  0
VERTEX
  8
LAYER_4
 10
143.4821
 20
-252.431
  0
VERTEX
  8
LAYER_4
 10
143.2544
 20
-251.8822
  0
SEQEND
  0
ENDBLK
  0
BLOCK
  8
LAYER_4
  2
AIGNBL0403001E
 70
64
 10
0
 20
0
 30
0
  3
AIGNBL0403001E
  0
POLYLINE
  8
LAYER_4
 40
0.05
 41
0.05
 66
1
 10
0
 20
0
 30
0
 70
1
  0
VERTEX
  8
LAYER_4
 10
144.4368
 20
-252.799
  0
VERTEX
  8
LAYER_4
 10
144.3317
 20
-252.799
  0
VERTEX
  8
LAYER_4
 10
144.3317
 20
-251.8591
  0
VERTEX
  8
LAYER_4
 10
143.9855
 20
-251.8591
  0
VERTEX
  8
LAYER_4
 10
143.9855
 20
-251.7658
  0
VERTEX
  8
LAYER_4
 10
144.7823
 20
-251.7658
  0
VERTEX
  8
LAYER_4
 10
144.7823
 20
-251.8591
  0
VERTEX
  8
LAYER_4
 10
144.4368
 20
-251.8591
  0
SEQEND
  0
ENDBLK
  0
BLOCK
  8
LAYER_4
  2
AIGNBL0403001F
 70
64
 10
0
 20
0
 30
0
  3
AIGNBL0403001F
  0
POLYLINE
  8
LAYER_4
 40
0.05
 41
0.05
 66
1
 10
0
 20
0
 30
0
 70
1
  0
VERTEX
  8
LAYER_4
 10
145.1385
 20
-251.7658
  0
VERTEX
  8
LAYER_4
 10
145.2433
 20
-251.7658
  0
VERTEX
  8
LAYER_4
 10
145.2433
 20
-252.2136
  0
VERTEX
  8
LAYER_4
 10
145.8069
 20
-252.2136
  0
VERTEX
  8
LAYER_4
 10
145.8069
 20
-251.7658
  0
VERTEX
  8
LAYER_4
 10
145.912
 20
-251.7658
  0
VERTEX
  8
LAYER_4
 10
145.912
 20
-252.799
  0
VERTEX
  8
LAYER_4
 10
145.8069
 20
-252.799
  0
VERTEX
  8
LAYER_4
 10
145.8069
 20
-252.3097
  0
VERTEX
  8
LAYER_4
 10
145.2433
 20
-252.3097
  0
VERTEX
  8
LAYER_4
 10
145.2433
 20
-252.799
  0
VERTEX
  8
LAYER_4
 10
145.1385
 20
-252.799
  0
SEQEND
  0
ENDBLK
  0
BLOCK
  8
LAYER_4
  2
AIGNBL04030020
 70
64
 10
0
 20
0
 30
0
  3
AIGNBL04030020
  0
POLYLINE
  8
LAYER_4
 40
0.05
 41
0.05
 66
1
 10
0
 20
0
 30
0
 70
1
  0
VERTEX
  8
LAYER_4
 10
146.4925
 20
-252.799
  0
VERTEX
  8
LAYER_4
 10
146.3874
 20
-252.799
  0
VERTEX
  8
LAYER_4
 10
146.3874
 20
-251.7658
  0
VERTEX
  8
LAYER_4
 10
146.6912
 20
-251.7658
  0
VERTEX
  8
LAYER_4
 10
146.8318
 20
-251.7803
  0
VERTEX
  8
LAYER_4
 10
146.9445
 20
-251.8278
  0
VERTEX
  8
LAYER_4
 10
147.0178
 20
-251.9132
  0
VERTEX
  8
LAYER_4
 10
147.044
 20
-252.0414
  0
VERTEX
  8
LAYER_4
 10
147.0241
 20
-252.1451
  0
VERTEX
  8
LAYER_4
 10
146.9686
 20
-252.226
  0
VERTEX
  8
LAYER_4
 10
146.8852
 20
-252.2808
  0
VERTEX
  8
LAYER_4
 10
146.7801
 20
-252.307
  0
VERTEX
  8
LAYER_4
 10
147.0823
 20
-252.799
  0
VERTEX
  8
LAYER_4
 10
146.9538
 20
-252.799
  0
VERTEX
  8
LAYER_4
 10
146.6678
 20
-252.3159
  0
VERTEX
  8
LAYER_4
 10
146.4925
 20
-252.3159
  0
SEQEND
  0
POLYLINE
  8
LAYER_4
 40
0.05
 41
0.05
 66
1
 10
0
 20
0
 30
0
 70
1
  0
VERTEX
  8
LAYER_4
 10
146.4925
 20
-252.2254
  0
VERTEX
  8
LAYER_4
 10
146.675
 20
-252.2254
 42
0.1656263988
  0
VERTEX
  8
LAYER_4
 10
146.8707
 20
-252.1795
 42
0.250658542
  0
VERTEX
  8
LAYER_4
 10
146.9393
 20
-252.0414
  0
VERTEX
  8
LAYER_4
 10
146.92
 20
-251.9556
  0
VERTEX
  8
LAYER_4
 10
146.8676
 20
-251.8984
  0
VERTEX
  8
LAYER_4
 10
146.786
 20
-251.8664
  0
VERTEX
  8
LAYER_4
 10
146.6795
 20
-251.856
  0
VERTEX
  8
LAYER_4
 10
146.4925
 20
-251.856
  0
SEQEND
  0
ENDBLK
  0
BLOCK
  8
LAYER_4
  2
AIGNBL04030021
 70
64
 10
0
 20
0
 30
0
  3
AIGNBL04030021
  0
POLYLINE
  8
LAYER_4
 40
0.05
 41
0.05
 66
1
 10
0
 20
0
 30
0
 70
1
  0
VERTEX
  8
LAYER_4
 10
148.4844
 20
-252.2822
 42
-0.1004784931
  0
VERTEX
  8
LAYER_4
 10
148.4438
 20
-252.4996
 42
-0.1005682055
  0
VERTEX
  8
LAYER_4
 10
148.3304
 20
-252.6711
 42
-0.09528103513
  0
VERTEX
  8
LAYER_4
 10
148.1599
 20
-252.7842
 42
-0.09485798694
  0
VERTEX
  8
LAYER_4
 10
147.946
 20
-252.8251
 42
-0.1014271134
  0
VERTEX
  8
LAYER_4
 10
147.732
 20
-252.7842
 42
-0.1003578975
  0
VERTEX
  8
LAYER_4
 10
147.5615
 20
-252.6711
 42
-0.09625736257
  0
VERTEX
  8
LAYER_4
 10
147.4485
 20
-252.4996
 42
-0.09316534225
  0
VERTEX
  8
LAYER_4
 10
147.4078
 20
-252.2822
 42
-0.102956405
  0
VERTEX
  8
LAYER_4
 10
147.4485
 20
-252.0648
 42
-0.1015095838
  0
VERTEX
  8
LAYER_4
 10
147.5615
 20
-251.8932
 42
-0.09543669063
  0
VERTEX
  8
LAYER_4
 10
147.732
 20
-251.7803
 42
-0.0953409606
  0
VERTEX
  8
LAYER_4
 10
147.946
 20
-251.7392
 42
-0.1015654035
  0
VERTEX
  8
LAYER_4
 10
148.1599
 20
-251.7803
 42
-0.102277933
  0
VERTEX
  8
LAYER_4
 10
148.3304
 20
-251.8932
 42
-0.09428123239
  0
VERTEX
  8
LAYER_4
 10
148.4438
 20
-252.0648
 42
-0.09275565523
  0
SEQEND
  0
POLYLINE
  8
LAYER_4
 40
0.05
 41
0.05
 66
1
 10
0
 20
0
 30
0
 70
1
  0
VERTEX
  8
LAYER_4
 10
148.3735
 20
-252.2829
  0
VERTEX
  8
LAYER_4
 10
148.3442
 20
-252.111
  0
VERTEX
  8
LAYER_4
 10
148.2594
 20
-251.9676
  0
VERTEX
  8
LAYER_4
 10
148.1248
 20
-251.8695
  0
VERTEX
  8
LAYER_4
 10
147.946
 20
-251.8326
 42
0.1143752939
  0
VERTEX
  8
LAYER_4
 10
147.7671
 20
-251.8695
  0
VERTEX
  8
LAYER_4
 10
147.6321
 20
-251.9676
  0
VERTEX
  8
LAYER_4
 10
147.5474
 20
-252.111
  0
VERTEX
  8
LAYER_4
 10
147.5184
 20
-252.2829
  0
VERTEX
  8
LAYER_4
 10
147.5474
 20
-252.4548
  0
VERTEX
  8
LAYER_4
 10
147.6321
 20
-252.5977
  0
VERTEX
  8
LAYER_4
 10
147.7671
 20
-252.6953
  0
VERTEX
  8
LAYER_4
 10
147.946
 20
-252.7318
  0
VERTEX
  8
LAYER_4
 10
148.1248
 20
-252.6953
  0
VERTEX
  8
LAYER_4
 10
148.2594
 20
-252.5977
  0
VERTEX
  8
LAYER_4
 10
148.3442
 20
-252.4548
  0
SEQEND
  0
ENDBLK
  0
BLOCK
  8
LAYER_4
  2
AIGNBL04030022
 70
64
 10
0
 20
0
 30
0
  3
AIGNBL04030022
  0
POLYLINE
  8
LAYER_4
 40
0.05
 41
0.05
 66
1
 10
0
 20
0
 30
0
 70
1
  0
VERTEX
  8
LAYER_4
 10
149.9262
 20
-252.2822
 42
-0.1033443379
  0
VERTEX
  8
LAYER_4
 10
149.8852
 20
-252.4996
 42
-0.100426525
  0
VERTEX
  8
LAYER_4
 10
149.7725
 20
-252.6711
 42
-0.0947870771
  0
VERTEX
  8
LAYER_4
 10
149.6017
 20
-252.7842
 42
-0.09481162544
  0
VERTEX
  8
LAYER_4
 10
149.3877
 20
-252.8251
 42
-0.1020313428
  0
VERTEX
  8
LAYER_4
 10
149.1741
 20
-252.7842
 42
-0.1024188404
  0
VERTEX
  8
LAYER_4
 10
149.0032
 20
-252.6711
 42
-0.09429605145
  0
VERTEX
  8
LAYER_4
 10
148.8899
 20
-252.4996
 42
-0.09293253763
  0
VERTEX
  8
LAYER_4
 10
148.8493
 20
-252.2822
 42
-0.102539173
  0
VERTEX
  8
LAYER_4
 10
148.8899
 20
-252.0648
 42
-0.1003870652
  0
VERTEX
  8
LAYER_4
 10
149.0032
 20
-251.8932
 42
-0.09605911006
  0
VERTEX
  8
LAYER_4
 10
149.1741
 20
-251.7803
 42
-0.09552043811
  0
VERTEX
  8
LAYER_4
 10
149.3877
 20
-251.7392
 42
-0.101596346
  0
VERTEX
  8
LAYER_4
 10
149.6017
 20
-251.7803
 42
-0.09910944345
  0
VERTEX
  8
LAYER_4
 10
149.7725
 20
-251.8932
 42
-0.09549186385
  0
VERTEX
  8
LAYER_4
 10
149.8852
 20
-252.0648
 42
-0.09393867585
  0
SEQEND
  0
POLYLINE
  8
LAYER_4
 40
0.05
 41
0.05
 66
1
 10
0
 20
0
 30
0
 70
1
  0
VERTEX
  8
LAYER_4
 10
149.8153
 20
-252.2829
  0
VERTEX
  8
LAYER_4
 10
149.7863
 20
-252.111
  0
VERTEX
  8
LAYER_4
 10
149.7016
 20
-251.9676
  0
VERTEX
  8
LAYER_4
 10
149.5665
 20
-251.8695
 42
0.1018863245
  0
VERTEX
  8
LAYER_4
 10
149.3877
 20
-251.8326
  0
VERTEX
  8
LAYER_4
 10
149.2089
 20
-251.8695
  0
VERTEX
  8
LAYER_4
 10
149.0742
 20
-251.9676
  0
VERTEX
  8
LAYER_4
 10
148.9895
 20
-252.111
  0
VERTEX
  8
LAYER_4
 10
148.9602
 20
-252.2829
  0
VERTEX
  8
LAYER_4
 10
148.9895
 20
-252.4548
  0
VERTEX
  8
LAYER_4
 10
149.0742
 20
-252.5977
  0
VERTEX
  8
LAYER_4
 10
149.2089
 20
-252.6953
  0
VERTEX
  8
LAYER_4
 10
149.3877
 20
-252.7318
  0
VERTEX
  8
LAYER_4
 10
149.5665
 20
-252.6953
  0
VERTEX
  8
LAYER_4
 10
149.7016
 20
-252.5977
  0
VERTEX
  8
LAYER_4
 10
149.7863
 20
-252.4548
  0
SEQEND
  0
ENDBLK
  0
BLOCK
  8
LAYER_4
  2
AIGNBL04030023
 70
64
 10
0
 20
0
 30
0
  3
AIGNBL04030023
  0
POLYLINE
  8
LAYER_4
 40
0.05
 41
0.05
 66
1
 10
0
 20
0
 30
0
 70
1
  0
VERTEX
  8
LAYER_4
 10
150.8571
 20
-252.6209
  0
VERTEX
  8
LAYER_4
 10
150.8588
 20
-252.6209
  0
VERTEX
  8
LAYER_4
 10
151.2043
 20
-251.7658
  0
VERTEX
  8
LAYER_4
 10
151.3652
 20
-251.7658
  0
VERTEX
  8
LAYER_4
 10
151.3652
 20
-252.799
  0
VERTEX
  8
LAYER_4
 10
151.2598
 20
-252.799
  0
VERTEX
  8
LAYER_4
 10
151.2598
 20
-251.9015
  0
VERTEX
  8
LAYER_4
 10
151.257
 20
-251.9015
  0
VERTEX
  8
LAYER_4
 10
150.8836
 20
-252.799
  0
VERTEX
  8
LAYER_4
 10
150.8281
 20
-252.799
  0
VERTEX
  8
LAYER_4
 10
150.4543
 20
-251.9015
  0
VERTEX
  8
LAYER_4
 10
150.4516
 20
-251.9015
  0
VERTEX
  8
LAYER_4
 10
150.4516
 20
-252.799
  0
VERTEX
  8
LAYER_4
 10
150.3465
 20
-252.799
  0
VERTEX
  8
LAYER_4
 10
150.3465
 20
-251.7658
  0
VERTEX
  8
LAYER_4
 10
150.507
 20
-251.7658
  0
SEQEND
  0
ENDBLK
  0
BLOCK
  8
LAYER_4
  2
AIGNBL04030024
 70
64
 10
0
 20
0
 30
0
  3
AIGNBL04030024
  0
POLYLINE
  8
LAYER_4
 40
0.05
 41
0.05
 66
1
 10
0
 20
0
 30
0
 70
1
  0
VERTEX
  8
LAYER_4
 10
152.5117
 20
-252.7052
  0
VERTEX
  8
LAYER_4
 10
153.065
 20
-252.7052
  0
VERTEX
  8
LAYER_4
 10
153.065
 20
-252.799
  0
VERTEX
  8
LAYER_4
 10
152.4067
 20
-252.799
  0
VERTEX
  8
LAYER_4
 10
152.4067
 20
-251.7658
  0
VERTEX
  8
LAYER_4
 10
153.0474
 20
-251.7658
  0
VERTEX
  8
LAYER_4
 10
153.0474
 20
-251.8591
  0
VERTEX
  8
LAYER_4
 10
152.5117
 20
-251.8591
  0
VERTEX
  8
LAYER_4
 10
152.5117
 20
-252.2136
  0
VERTEX
  8
LAYER_4
 10
153.0123
 20
-252.2136
  0
VERTEX
  8
LAYER_4
 10
153.0123
 20
-252.307
  0
VERTEX
  8
LAYER_4
 10
152.5117
 20
-252.307
  0
SEQEND
  0
ENDBLK
  0
BLOCK
  8
LAYER_4
  2
AIGNBL04030025
 70
64
 10
0
 20
0
 30
0
  3
AIGNBL04030025
  0
POLYLINE
  8
LAYER_4
 40
0.05
 41
0.05
 66
1
 10
0
 20
0
 30
0
 70
1
  0
VERTEX
  8
LAYER_4
 10
153.8102
 20
-252.183
  0
VERTEX
  8
LAYER_4
 10
154.0923
 20
-251.7658
  0
VERTEX
  8
LAYER_4
 10
154.2174
 20
-251.7658
  0
VERTEX
  8
LAYER_4
 10
153.875
 20
-252.2574
  0
VERTEX
  8
LAYER_4
 10
154.2543
 20
-252.799
  0
VERTEX
  8
LAYER_4
 10
154.123
 20
-252.799
  0
VERTEX
  8
LAYER_4
 10
153.8074
 20
-252.3332
  0
VERTEX
  8
LAYER_4
 10
153.4939
 20
-252.799
  0
VERTEX
  8
LAYER_4
 10
153.3623
 20
-252.799
  0
VERTEX
  8
LAYER_4
 10
153.742
 20
-252.256
  0
VERTEX
  8
LAYER_4
 10
153.3961
 20
-251.7658
  0
VERTEX
  8
LAYER_4
 10
153.5277
 20
-251.7658
  0
SEQEND
  0
ENDBLK
  0
BLOCK
  8
LAYER_4
  2
AIGNBL04030026
 70
64
 10
0
 20
0
 30
0
  3
AIGNBL04030026
  0
POLYLINE
  8
LAYER_4
 40
0.05
 41
0.05
 66
1
 10
0
 20
0
 30
0
 70
1
  0
VERTEX
  8
LAYER_4
 10
154.6205
 20
-251.7658
  0
VERTEX
  8
LAYER_4
 10
154.9126
 20
-251.7658
  0
VERTEX
  8
LAYER_4
 10
155.0556
 20
-251.7823
  0
VERTEX
  8
LAYER_4
 10
155.1655
 20
-251.8336
  0
VERTEX
  8
LAYER_4
 10
155.2365
 20
-251.9198
  0
VERTEX
  8
LAYER_4
 10
155.2609
 20
-252.0414
  0
VERTEX
  8
LAYER_4
 10
155.2358
 20
-252.1633
  0
VERTEX
  8
LAYER_4
 10
155.1641
 20
-252.2494
  0
VERTEX
  8
LAYER_4
 10
155.0532
 20
-252.3011
  0
VERTEX
  8
LAYER_4
 10
154.9095
 20
-252.3187
  0
VERTEX
  8
LAYER_4
 10
154.7255
 20
-252.3187
  0
VERTEX
  8
LAYER_4
 10
154.7255
 20
-252.799
  0
VERTEX
  8
LAYER_4
 10
154.6205
 20
-252.799
  0
SEQEND
  0
POLYLINE
  8
LAYER_4
 40
0.05
 41
0.05
 66
1
 10
0
 20
0
 30
0
 70
1
  0
VERTEX
  8
LAYER_4
 10
154.7255
 20
-252.2298
  0
VERTEX
  8
LAYER_4
 10
154.9033
 20
-252.2298
 42
0.1826246746
  0
VERTEX
  8
LAYER_4
 10
155.0918
 20
-252.1816
 42
0.2345266981
  0
VERTEX
  8
LAYER_4
 10
155.1562
 20
-252.0414
 42
0.2654535919
  0
VERTEX
  8
LAYER_4
 10
155.0897
 20
-251.9005
 42
0.1267184139
  0
VERTEX
  8
LAYER_4
 10
154.9033
 20
-251.856
  0
VERTEX
  8
LAYER_4
 10
154.7255
 20
-251.856
  0
SEQEND
  0
ENDBLK
  0
BLOCK
  8
LAYER_4
  2
AIGNBL04030027
 70
64
 10
0
 20
0
 30
0
  3
AIGNBL04030027
  0
POLYLINE
  8
LAYER_4
 40
0.05
 41
0.05
 66
1
 10
0
 20
0
 30
0
 70
1
  0
VERTEX
  8
LAYER_4
 10
155.7732
 20
-252.7052
  0
VERTEX
  8
LAYER_4
 10
156.3265
 20
-252.7052
  0
VERTEX
  8
LAYER_4
 10
156.3265
 20
-252.799
  0
VERTEX
  8
LAYER_4
 10
155.6681
 20
-252.799
  0
VERTEX
  8
LAYER_4
 10
155.6681
 20
-251.7658
  0
VERTEX
  8
LAYER_4
 10
156.3089
 20
-251.7658
  0
VERTEX
  8
LAYER_4
 10
156.3089
 20
-251.8591
  0
VERTEX
  8
LAYER_4
 10
155.7732
 20
-251.8591
  0
VERTEX
  8
LAYER_4
 10
155.7732
 20
-252.2136
  0
VERTEX
  8
LAYER_4
 10
156.2738
 20
-252.2136
  0
VERTEX
  8
LAYER_4
 10
156.2738
 20
-252.307
  0
VERTEX
  8
LAYER_4
 10
155.7732
 20
-252.307
  0
SEQEND
  0
ENDBLK
  0
BLOCK
  8
LAYER_4
  2
AIGNBL04030028
 70
64
 10
0
 20
0
 30
0
  3
AIGNBL04030028
  0
POLYLINE
  8
LAYER_4
 40
0.05
 41
0.05
 66
1
 10
0
 20
0
 30
0
 70
1
  0
VERTEX
  8
LAYER_4
 10
156.8384
 20
-252.799
  0
VERTEX
  8
LAYER_4
 10
156.7333
 20
-252.799
  0
VERTEX
  8
LAYER_4
 10
156.7333
 20
-251.7658
  0
VERTEX
  8
LAYER_4
 10
157.0372
 20
-251.7658
  0
VERTEX
  8
LAYER_4
 10
157.1778
 20
-251.7803
  0
VERTEX
  8
LAYER_4
 10
157.2904
 20
-251.8278
  0
VERTEX
  8
LAYER_4
 10
157.3641
 20
-251.9132
  0
VERTEX
  8
LAYER_4
 10
157.39
 20
-252.0414
  0
VERTEX
  8
LAYER_4
 10
157.37
 20
-252.1451
  0
VERTEX
  8
LAYER_4
 10
157.3145
 20
-252.226
  0
VERTEX
  8
LAYER_4
 10
157.2312
 20
-252.2808
  0
VERTEX
  8
LAYER_4
 10
157.1261
 20
-252.307
  0
VERTEX
  8
LAYER_4
 10
157.4282
 20
-252.799
  0
VERTEX
  8
LAYER_4
 10
157.2997
 20
-252.799
  0
VERTEX
  8
LAYER_4
 10
157.0138
 20
-252.3159
  0
VERTEX
  8
LAYER_4
 10
156.8384
 20
-252.3159
  0
SEQEND
  0
POLYLINE
  8
LAYER_4
 40
0.05
 41
0.05
 66
1
 10
0
 20
0
 30
0
 70
1
  0
VERTEX
  8
LAYER_4
 10
156.8384
 20
-252.2254
  0
VERTEX
  8
LAYER_4
 10
157.021
 20
-252.2254
 42
0.1666203263
  0
VERTEX
  8
LAYER_4
 10
157.2167
 20
-252.1795
 42
0.250658542
  0
VERTEX
  8
LAYER_4
 10
157.2853
 20
-252.0414
  0
VERTEX
  8
LAYER_4
 10
157.2663
 20
-251.9556
  0
VERTEX
  8
LAYER_4
 10
157.2136
 20
-251.8984
  0
VERTEX
  8
LAYER_4
 10
157.1319
 20
-251.8664
  0
VERTEX
  8
LAYER_4
 10
157.0255
 20
-251.856
  0
VERTEX
  8
LAYER_4
 10
156.8384
 20
-251.856
  0
SEQEND
  0
ENDBLK
  0
BLOCK
  8
LAYER_4
  2
AIGNBL04030029
 70
64
 10
0
 20
0
 30
0
  3
AIGNBL04030029
  0
POLYLINE
  8
LAYER_4
 40
0.05
 41
0.05
 66
1
 10
0
 20
0
 30
0
 70
1
  0
VERTEX
  8
LAYER_4
 10
157.914
 20
-252.799
  0
VERTEX
  8
LAYER_4
 10
157.8092
 20
-252.799
  0
VERTEX
  8
LAYER_4
 10
157.8092
 20
-251.7658
  0
VERTEX
  8
LAYER_4
 10
157.914
 20
-251.7658
  0
SEQEND
  0
ENDBLK
  0
BLOCK
  8
LAYER_4
  2
AIGNBL0403002A
 70
64
 10
0
 20
0
 30
0
  3
AIGNBL0403002A
  0
POLYLINE
  8
LAYER_4
 40
0.05
 41
0.05
 66
1
 10
0
 20
0
 30
0
 70
1
  0
VERTEX
  8
LAYER_4
 10
158.4948
 20
-252.7052
  0
VERTEX
  8
LAYER_4
 10
159.0478
 20
-252.7052
  0
VERTEX
  8
LAYER_4
 10
159.0478
 20
-252.799
  0
VERTEX
  8
LAYER_4
 10
158.3897
 20
-252.799
  0
VERTEX
  8
LAYER_4
 10
158.3897
 20
-251.7658
  0
VERTEX
  8
LAYER_4
 10
159.0306
 20
-251.7658
  0
VERTEX
  8
LAYER_4
 10
159.0306
 20
-251.8591
  0
VERTEX
  8
LAYER_4
 10
158.4948
 20
-251.8591
  0
VERTEX
  8
LAYER_4
 10
158.4948
 20
-252.2136
  0
VERTEX
  8
LAYER_4
 10
158.9954
 20
-252.2136
  0
VERTEX
  8
LAYER_4
 10
158.9954
 20
-252.307
  0
VERTEX
  8
LAYER_4
 10
158.4948
 20
-252.307
  0
SEQEND
  0
ENDBLK
  0
BLOCK
  8
LAYER_4
  2
AIGNBL0403002B
 70
64
 10
0
 20
0
 30
0
  3
AIGNBL0403002B
  0
POLYLINE
  8
LAYER_4
 40
0.05
 41
0.05
 66
1
 10
0
 20
0
 30
0
 70
1
  0
VERTEX
  8
LAYER_4
 10
160.1877
 20
-252.6457
  0
VERTEX
  8
LAYER_4
 10
160.1905
 20
-252.6457
  0
VERTEX
  8
LAYER_4
 10
160.1905
 20
-251.7658
  0
VERTEX
  8
LAYER_4
 10
160.2956
 20
-251.7658
  0
VERTEX
  8
LAYER_4
 10
160.2956
 20
-252.799
  0
VERTEX
  8
LAYER_4
 10
160.1643
 20
-252.799
  0
VERTEX
  8
LAYER_4
 10
159.5632
 20
-251.9101
  0
VERTEX
  8
LAYER_4
 10
159.56
 20
-251.9101
  0
VERTEX
  8
LAYER_4
 10
159.56
 20
-252.799
  0
VERTEX
  8
LAYER_4
 10
159.455
 20
-252.799
  0
VERTEX
  8
LAYER_4
 10
159.455
 20
-251.7658
  0
VERTEX
  8
LAYER_4
 10
159.5866
 20
-251.7658
  0
SEQEND
  0
ENDBLK
  0
BLOCK
  8
LAYER_4
  2
AIGNBL0403002C
 70
64
 10
0
 20
0
 30
0
  3
AIGNBL0403002C
  0
POLYLINE
  8
LAYER_4
 40
0.05
 41
0.05
 66
1
 10
0
 20
0
 30
0
 70
1
  0
VERTEX
  8
LAYER_4
 10
161.6412
 20
-252.6312
  0
VERTEX
  8
LAYER_4
 10
161.5775
 20
-252.7056
  0
VERTEX
  8
LAYER_4
 10
161.4914
 20
-252.7673
  0
VERTEX
  8
LAYER_4
 10
161.3832
 20
-252.8096
  0
VERTEX
  8
LAYER_4
 10
161.2544
 20
-252.8251
 42
-0.1013972882
  0
VERTEX
  8
LAYER_4
 10
161.0384
 20
-252.7842
 42
-0.1035864062
  0
VERTEX
  8
LAYER_4
 10
160.8678
 20
-252.6711
 42
-0.09799648565
  0
VERTEX
  8
LAYER_4
 10
160.7562
 20
-252.4996
 42
-0.09232353501
  0
VERTEX
  8
LAYER_4
 10
160.7159
 20
-252.2822
 42
-0.1041417446
  0
VERTEX
  8
LAYER_4
 10
160.7569
 20
-252.0648
 42
-0.1002458474
  0
VERTEX
  8
LAYER_4
 10
160.8695
 20
-251.8932
 42
-0.09489202943
  0
VERTEX
  8
LAYER_4
 10
161.0404
 20
-251.7803
 42
-0.0953409606
  0
VERTEX
  8
LAYER_4
 10
161.2544
 20
-251.7392
  0
VERTEX
  8
LAYER_4
 10
161.366
 20
-251.7513
  0
VERTEX
  8
LAYER_4
 10
161.469
 20
-251.7847
  0
VERTEX
  8
LAYER_4
 10
161.5565
 20
-251.8364
  0
VERTEX
  8
LAYER_4
 10
161.6223
 20
-251.9043
  0
VERTEX
  8
LAYER_4
 10
161.5348
 20
-251.9687
  0
VERTEX
  8
LAYER_4
 10
161.4914
 20
-251.9187
  0
VERTEX
  8
LAYER_4
 10
161.428
 20
-251.875
  0
VERTEX
  8
LAYER_4
 10
161.3484
 20
-251.8443
  0
VERTEX
  8
LAYER_4
 10
161.2557
 20
-251.8326
  0
VERTEX
  8
LAYER_4
 10
161.0755
 20
-251.8691
  0
VERTEX
  8
LAYER_4
 10
160.9405
 20
-251.9673
  0
VERTEX
  8
LAYER_4
 10
160.8558
 20
-252.1106
  0
VERTEX
  8
LAYER_4
 10
160.8268
 20
-252.2822
  0
VERTEX
  8
LAYER_4
 10
160.8568
 20
-252.4537
  0
VERTEX
  8
LAYER_4
 10
160.9422
 20
-252.5971
  0
VERTEX
  8
LAYER_4
 10
161.0773
 20
-252.6953
  0
VERTEX
  8
LAYER_4
 10
161.2557
 20
-252.7318
  0
VERTEX
  8
LAYER_4
 10
161.4249
 20
-252.6953
 42
0.1324826472
  0
VERTEX
  8
LAYER_4
 10
161.5592
 20
-252.5785
  0
SEQEND
  0
ENDBLK
  0
BLOCK
  8
LAYER_4
  2
AIGNBL0403002D
 70
64
 10
0
 20
0
 30
0
  3
AIGNBL0403002D
  0
POLYLINE
  8
LAYER_4
 40
0.05
 41
0.05
 66
1
 10
0
 20
0
 30
0
 70
1
  0
VERTEX
  8
LAYER_4
 10
162.1284
 20
-252.7052
  0
VERTEX
  8
LAYER_4
 10
162.6817
 20
-252.7052
  0
VERTEX
  8
LAYER_4
 10
162.6817
 20
-252.799
  0
VERTEX
  8
LAYER_4
 10
162.0233
 20
-252.799
  0
VERTEX
  8
LAYER_4
 10
162.0233
 20
-251.7658
  0
VERTEX
  8
LAYER_4
 10
162.6641
 20
-251.7658
  0
VERTEX
  8
LAYER_4
 10
162.6641
 20
-251.8591
  0
VERTEX
  8
LAYER_4
 10
162.1284
 20
-251.8591
  0
VERTEX
  8
LAYER_4
 10
162.1284
 20
-252.2136
  0
VERTEX
  8
LAYER_4
 10
162.6289
 20
-252.2136
  0
VERTEX
  8
LAYER_4
 10
162.6289
 20
-252.307
  0
VERTEX
  8
LAYER_4
 10
162.1284
 20
-252.307
  0
SEQEND
  0
ENDBLK
  0
BLOCK
  8
LAYER_1
  2
AIGNBL01020004
 70
64
 10
0
 20
0
 30
0
  3
AIGNBL01020004
  0
POLYLINE
  8
LAYER_1
 40
0.1058
 41
0.1058
 66
1
 10
0
 20
0
 30
0
  0
VERTEX
  8
LAYER_1
 10
108.5849
 20
5.9693
  0
VERTEX
  8
LAYER_1
 10
178.4539
 20
5.9693
  0
SEQEND
  0
INSERT
  8
LAYER_1
  2
AIGNBL01030005
 10
0
 20
0
 30
0
  0
INSERT
  8
LAYER_1
  2
AIGNBL01030006
 10
0
 20
0
 30
0
  0
ENDBLK
  0
BLOCK
  8
LAYER_1
  2
AIGNBL0102000A
 70
64
 10
0
 20
0
 30
0
  3
AIGNBL0102000A
  0
POLYLINE
  8
LAYER_1
 40
0.1058
 41
0.1058
 66
1
 10
0
 20
0
 30
0
  0
VERTEX
  8
LAYER_1
 10
104.8604
 20
-146.1446
  0
VERTEX
  8
LAYER_1
 10
104.8604
 20
-68.0198
  0
SEQEND
  0
INSERT
  8
LAYER_1
  2
AIGNBL0103000B
 10
0
 20
0
 30
0
  0
INSERT
  8
LAYER_1
  2
AIGNBL0103000C
 10
0
 20
0
 30
0
  0
ENDBLK
  0
BLOCK
  8
LAYER_1
  2
AIGNBL01020010
 70
64
 10
0
 20
0
 30
0
  3
AIGNBL01020010
  0
POLYLINE
  8
LAYER_1
 40
0.1058
 41
0.1058
 66
1
 10
0
 20
0
 30
0
  0
VERTEX
  8
LAYER_1
 10
114.4571
 20
-153.264
  0
VERTEX
  8
LAYER_1
 10
172.5817
 20
-153.264
  0
SEQEND
  0
INSERT
  8
LAYER_1
  2
AIGNBL01030011
 10
0
 20
0
 30
0
  0
INSERT
  8
LAYER_1
  2
AIGNBL01030012
 10
0
 20
0
 30
0
  0
ENDBLK
  0
BLOCK
  8
LAYER_1
  2
AIGNBL01020018
 70
64
 10
0
 20
0
 30
0
  3
AIGNBL01020018
  0
POLYLINE
  8
LAYER_1
 40
0.1058
 41
0.1058
 66
1
 10
0
 20
0
 30
0
  0
VERTEX
  8
LAYER_1
 10
182.5715
 20
-190.726
  0
VERTEX
  8
LAYER_1
 10
182.5715
 20
-198.8509
  0
SEQEND
  0
INSERT
  8
LAYER_1
  2
AIGNBL01030019
 10
0
 20
0
 30
0
  0
INSERT
  8
LAYER_1
  2
AIGNBL0103001A
 10
0
 20
0
 30
0
  0
ENDBLK
  0
BLOCK
  8
LAYER_1
  2
AIGNBL0102001C
 70
64
 10
0
 20
0
 30
0
  3
AIGNBL0102001C
  0
POLYLINE
  8
LAYER_1
 40
0.1058
 41
0.1058
 66
1
 10
0
 20
0
 30
0
  0
VERTEX
  8
LAYER_1
 10
182.5718
 20
-168.7263
  0
VERTEX
  8
LAYER_1
 10
182.5718
 20
-188.8512
  0
SEQEND
  0
INSERT
  8
LAYER_1
  2
AIGNBL0103001D
 10
0
 20
0
 30
0
  0
INSERT
  8
LAYER_1
  2
AIGNBL0103001E
 10
0
 20
0
 30
0
  0
ENDBLK
  0
BLOCK
  8
LAYER_1
  2
AIGNBL01020022
 70
64
 10
0
 20
0
 30
0
  3
AIGNBL01020022
  0
POLYLINE
  8
LAYER_1
 40
0.1058
 41
0.1058
 66
1
 10
0
 20
0
 30
0
  0
VERTEX
  8
LAYER_1
 10
182.5715
 20
-11.9851
  0
VERTEX
  8
LAYER_1
 10
182.5715
 20
-30.1113
  0
SEQEND
  0
INSERT
  8
LAYER_1
  2
AIGNBL01030023
 10
0
 20
0
 30
0
  0
INSERT
  8
LAYER_1
  2
AIGNBL01030024
 10
0
 20
0
 30
0
  0
ENDBLK
  0
BLOCK
  8
LAYER_1
  2
AIGNBL01020027
 70
64
 10
0
 20
0
 30
0
  3
AIGNBL01020027
  0
INSERT
  8
LAYER_1
  2
AIGNBL01030028
 10
0
 20
0
 30
0
  0
ENDBLK
  0
BLOCK
  8
LAYER_1
  2
AIGNBL0102002B
 70
64
 10
0
 20
0
 30
0
  3
AIGNBL0102002B
  0
POLYLINE
  8
LAYER_1
 40
0.1058
 41
0.1058
 66
1
 10
0
 20
0
 30
0
  0
VERTEX
  8
LAYER_1
 10
164.1398
 20
-202.7191
  0
VERTEX
  8
LAYER_1
 10
164.1398
 20
-206.3612
  0
SEQEND
  0
ENDBLK
  0
BLOCK
  8
LAYER_1
  2
AIGNBL0102002C
 70
64
 10
0
 20
0
 30
0
  3
AIGNBL0102002C
  0
POLYLINE
  8
LAYER_1
 40
0.1058
 41
0.1058
 66
1
 10
0
 20
0
 30
0
  0
VERTEX
  8
LAYER_1
 10
122.8397
 20
-206.3612
  0
VERTEX
  8
LAYER_1
 10
122.8397
 20
-202.7191
  0
SEQEND
  0
ENDBLK
  0
BLOCK
  8
LAYER_4
  2
AIGNBL04020004
 70
64
 10
0
 20
0
 30
0
  3
AIGNBL04020004
  0
POLYLINE
  8
LAYER_4
 40
0.05
 41
0.05
 66
1
 10
0
 20
0
 30
0
  0
VERTEX
  8
LAYER_4
 10
66.1989
 20
7.9383
 42
-0.0743450237
  0
VERTEX
  8
LAYER_4
 10
66.0903
 20
6.8123
 42
-0.1312915611
  0
VERTEX
  8
LAYER_4
 10
65.8217
 20
6.3426
 42
-0.208619006
  0
VERTEX
  8
LAYER_4
 10
65.0541
 20
6.0536
 42
-0.1980855618
  0
VERTEX
  8
LAYER_4
 10
64.2993
 20
6.3426
 42
-0.1359423712
  0
VERTEX
  8
LAYER_4
 10
64.0203
 20
6.8478
 42
-0.06699100685
  0
VERTEX
  8
LAYER_4
 10
63.9217
 20
7.9383
 42
-0.07469814501
  0
VERTEX
  8
LAYER_4
 10
64.0305
 20
9.0529
 42
-0.1310483655
  0
VERTEX
  8
LAYER_4
 10
64.2993
 20
9.5217
 42
-0.2060473447
  0
VERTEX
  8
LAYER_4
 10
65.0541
 20
9.8104
 42
-0.1976860926
  0
VERTEX
  8
LAYER_4
 10
65.8217
 20
9.5217
 42
-0.1357861624
  0
VERTEX
  8
LAYER_4
 10
66.1005
 20
9.0175
 42
-0.06720247118
  0
VERTEX
  8
LAYER_4
 10
66.1989
 20
7.9383
  0
SEQEND
  0
POLYLINE
  8
LAYER_4
 40
0.05
 41
0.05
 66
1
 10
0
 20
0
 30
0
  0
VERTEX
  8
LAYER_4
 10
67.8343
 20
7.9383
 42
0.05776959038
  0
VERTEX
  8
LAYER_4
 10
67.7143
 20
9.298
 42
0.1358604764
  0
VERTEX
  8
LAYER_4
 10
67.0918
 20
10.4767
 42
0.177762506
  0
VERTEX
  8
LAYER_4
 10
65.5057
 20
11.2526
 42
0.03495877526
  0
VERTEX
  8
LAYER_4
 10
65.0541
 20
11.2808
 42
0.0796141603
  0
VERTEX
  8
LAYER_4
 10
64.0799
 20
11.1334
 42
0.1217678316
  0
VERTEX
  8
LAYER_4
 10
63.0287
 20
10.4767
 42
0.09149926265
  0
VERTEX
  8
LAYER_4
 10
62.5483
 20
9.7439
 42
0.07735867938
  0
VERTEX
  8
LAYER_4
 10
62.3172
 20
8.7218
 42
0.03282399428
  0
VERTEX
  8
LAYER_4
 10
62.2866
 20
7.9383
 42
0.05726877654
  0
VERTEX
  8
LAYER_4
 10
62.4064
 20
6.5734
 42
0.1359703008
  0
VERTEX
  8
LAYER_4
 10
63.0287
 20
5.3876
 42
0.1752861389
  0
VERTEX
  8
LAYER_4
 10
64.6441
 20
4.6073
 42
0.03231247273
  0
VERTEX
  8
LAYER_4
 10
65.0541
 20
4.5835
 42
0.0789836177
  0
VERTEX
  8
LAYER_4
 10
66.0324
 20
4.7309
 42
0.1217467438
  0
VERTEX
  8
LAYER_4
 10
67.0918
 20
5.3876
 42
0.09341021479
  0
VERTEX
  8
LAYER_4
 10
67.5629
 20
6.0835
 42
0.07747528156
  0
VERTEX
  8
LAYER_4
 10
67.7965
 20
7.0595
 42
0.02212366639
  0
VERTEX
  8
LAYER_4
 10
67.8343
 20
7.9383
  0
SEQEND
  0
POLYLINE
  8
LAYER_4
 40
0.05
 41
0.05
 66
1
 10
0
 20
0
 30
0
  0
VERTEX
  8
LAYER_4
 10
56.0782
 20
8.5416
  0
VERTEX
  8
LAYER_4
 10
53.5874
 20
8.5416
 42
-0.1153484105
  0
VERTEX
  8
LAYER_4
 10
53.7387
 20
9.2451
 42
-0.3007195002
  0
VERTEX
  8
LAYER_4
 10
54.8328
 20
9.9238
 42
-0.1235504397
  0
VERTEX
  8
LAYER_4
 10
55.4328
 20
9.7836
 42
-0.1667240922
  0
VERTEX
  8
LAYER_4
 10
55.9277
 20
9.2451
 42
-0.114322132
  0
VERTEX
  8
LAYER_4
 10
56.0782
 20
8.5416
  0
SEQEND
  0
POLYLINE
  8
LAYER_4
 40
0.05
 41
0.05
 66
1
 10
0
 20
0
 30
0
 70
1
  0
VERTEX
  8
LAYER_4
 10
57.6885
 20
7.4233
  0
VERTEX
  8
LAYER_4
 10
57.6885
 20
8.1144
 42
0.06770492411
  0
VERTEX
  8
LAYER_4
 10
57.5429
 20
9.2474
 42
0.07767952445
  0
VERTEX
  8
LAYER_4
 10
57.1557
 20
10.1161
 42
0.1724995821
  0
VERTEX
  8
LAYER_4
 10
55.8092
 20
11.1368
 42
0.07776216126
  0
VERTEX
  8
LAYER_4
 10
54.8328
 20
11.2808
 42
0.07970448196
  0
VERTEX
  8
LAYER_4
 10
53.8701
 20
11.1338
 42
0.1688881788
  0
VERTEX
  8
LAYER_4
 10
52.5489
 20
10.1246
 42
0.07657581223
  0
VERTEX
  8
LAYER_4
 10
52.1483
 20
9.2438
 42
0.07096910911
  0
VERTEX
  8
LAYER_4
 10
51.9772
 20
7.9383
 42
0.05685644307
  0
VERTEX
  8
LAYER_4
 10
52.1015
 20
6.7375
 42
0.07540620669
  0
VERTEX
  8
LAYER_4
 10
52.4457
 20
5.8441
 42
0.1774911032
  0
VERTEX
  8
LAYER_4
 10
53.7172
 20
4.7899
 42
0.08957982163
  0
VERTEX
  8
LAYER_4
 10
55.0089
 20
4.5835
 42
0.07080674978
  0
VERTEX
  8
LAYER_4
 10
56.1006
 20
4.7186
 42
0.08369783686
  0
VERTEX
  8
LAYER_4
 10
56.9144
 20
5.108
 42
0.04418469041
  0
VERTEX
  8
LAYER_4
 10
57.5
 20
5.614
  0
VERTEX
  8
LAYER_4
 10
56.5061
 20
6.5814
 42
-0.09878953439
  0
VERTEX
  8
LAYER_4
 10
55.8337
 20
6.1039
 42
-0.100678723
  0
VERTEX
  8
LAYER_4
 10
55.0216
 20
5.9657
 42
-0.1070981108
  0
VERTEX
  8
LAYER_4
 10
54.3393
 20
6.101
 42
-0.2542521374
  0
VERTEX
  8
LAYER_4
 10
53.617
 20
7.0787
 42
-0.04997815034
  0
VERTEX
  8
LAYER_4
 10
53.5874
 20
7.4233
  0
SEQEND
  0
POLYLINE
  8
LAYER_4
 40
0.05
 41
0.05
 66
1
 10
0
 20
0
 30
0
 70
1
  0
VERTEX
  8
LAYER_4
 10
50.493
 20
13.6145
  0
VERTEX
  8
LAYER_4
 10
48.8432
 20
13.6145
  0
VERTEX
  8
LAYER_4
 10
48.8432
 20
12.2826
  0
VERTEX
  8
LAYER_4
 10
50.493
 20
12.2826
  0
SEQEND
  0
POLYLINE
  8
LAYER_4
 40
0.05
 41
0.05
 66
1
 10
0
 20
0
 30
0
 70
1
  0
VERTEX
  8
LAYER_4
 10
50.4803
 20
11.1271
  0
VERTEX
  8
LAYER_4
 10
48.8449
 20
11.1271
  0
VERTEX
  8
LAYER_4
 10
48.8449
 20
4.659
  0
VERTEX
  8
LAYER_4
 10
50.4803
 20
4.659
  0
SEQEND
  0
POLYLINE
  8
LAYER_4
 40
0.05
 41
0.05
 66
1
 10
0
 20
0
 30
0
  0
VERTEX
  8
LAYER_4
 10
47.5743
 20
5.4758
  0
VERTEX
  8
LAYER_4
 10
46.4675
 20
6.5689
 42
-0.1124463533
  0
VERTEX
  8
LAYER_4
 10
45.8923
 20
6.1388
 42
-0.09513605044
  0
VERTEX
  8
LAYER_4
 10
45.4108
 20
6.0536
 42
-0.2295258025
  0
VERTEX
  8
LAYER_4
 10
44.48
 20
6.4807
 42
-0.1145593011
  0
VERTEX
  8
LAYER_4
 10
44.1924
 20
7.1137
 42
-0.05304863887
  0
VERTEX
  8
LAYER_4
 10
44.1151
 20
7.9383
 42
-0.0791210502
  0
VERTEX
  8
LAYER_4
 10
44.2402
 20
8.9299
 42
-0.09227963069
  0
VERTEX
  8
LAYER_4
 10
44.48
 20
9.3832
 42
-0.2339418099
  0
VERTEX
  8
LAYER_4
 10
45.4108
 20
9.8104
 42
-0.1288760214
  0
VERTEX
  8
LAYER_4
 10
46.0114
 20
9.6694
 42
-0.07813475816
  0
VERTEX
  8
LAYER_4
 10
46.4675
 20
9.2957
  0
VERTEX
  8
LAYER_4
 10
47.5743
 20
10.4009
 42
0.170273791
  0
VERTEX
  8
LAYER_4
 10
45.9549
 20
11.2434
 42
0.04126809408
  0
VERTEX
  8
LAYER_4
 10
45.4108
 20
11.2808
 42
0.07343090954
  0
VERTEX
  8
LAYER_4
 10
44.4324
 20
11.1412
 42
0.17152801
  0
VERTEX
  8
LAYER_4
 10
43.0402
 20
10.1289
 42
0.07792284925
  0
VERTEX
  8
LAYER_4
 10
42.651
 20
9.277
 42
0.07121681061
  0
VERTEX
  8
LAYER_4
 10
42.4797
 20
7.9383
 42
0.06071624085
  0
VERTEX
  8
LAYER_4
 10
42.6137
 20
6.7375
 42
0.07599302537
  0
VERTEX
  8
LAYER_4
 10
42.9763
 20
5.8441
 42
0.170777089
  0
VERTEX
  8
LAYER_4
 10
44.2753
 20
4.7781
 42
0.08917193784
  0
VERTEX
  8
LAYER_4
 10
45.4108
 20
4.5835
 42
0.07666705702
  0
VERTEX
  8
LAYER_4
 10
46.3935
 20
4.7227
 42
0.1304114232
  0
VERTEX
  8
LAYER_4
 10
47.5743
 20
5.4758
  0
SEQEND
  0
ENDBLK
  0
BLOCK
  8
LAYER_4
  2
AIGNBL04020005
 70
64
 10
0
 20
0
 30
0
  3
AIGNBL04020005
  0
POLYLINE
  8
LAYER_4
 40
0.05
 41
0.05
 66
1
 10
0
 20
0
 30
0
 70
1
  0
VERTEX
  8
LAYER_4
 10
67.7237
 20
3.0177
  0
VERTEX
  8
LAYER_4
 10
67.3957
 20
3.0177
  0
VERTEX
  8
LAYER_4
 10
67.147
 20
2.2481
  0
VERTEX
  8
LAYER_4
 10
66.8883
 20
3.0177
  0
VERTEX
  8
LAYER_4
 10
66.5606
 20
3.0177
  0
VERTEX
  8
LAYER_4
 10
66.9864
 20
1.8605
  0
VERTEX
  8
LAYER_4
 10
66.9337
 20
1.7076
 42
-0.3966975403
  0
VERTEX
  8
LAYER_4
 10
66.7784
 20
1.5953
  0
VERTEX
  8
LAYER_4
 10
66.7067
 20
1.5953
  0
VERTEX
  8
LAYER_4
 10
66.7067
 20
1.3155
  0
VERTEX
  8
LAYER_4
 10
66.8286
 20
1.3155
 42
0.2105921841
  0
VERTEX
  8
LAYER_4
 10
67.0963
 20
1.4113
  0
VERTEX
  8
LAYER_4
 10
67.1901
 20
1.5715
  0
SEQEND
  0
POLYLINE
  8
LAYER_4
 40
0.05
 41
0.05
 66
1
 10
0
 20
0
 30
0
 70
1
  0
VERTEX
  8
LAYER_4
 10
66.5244
 20
1.7723
  0
VERTEX
  8
LAYER_4
 10
66.5244
 20
2.0348
  0
VERTEX
  8
LAYER_4
 10
66.4049
 20
2.0348
 42
-0.4758890013
  0
VERTEX
  8
LAYER_4
 10
66.295
 20
2.1475
  0
VERTEX
  8
LAYER_4
 10
66.295
 20
3.4742
  0
VERTEX
  8
LAYER_4
 10
65.9839
 20
3.4742
  0
VERTEX
  8
LAYER_4
 10
65.9839
 20
2.1286
 42
0.4198213421
  0
VERTEX
  8
LAYER_4
 10
66.3474
 20
1.7723
  0
SEQEND
  0
POLYLINE
  8
LAYER_4
 40
0.05
 41
0.05
 66
1
 10
0
 20
0
 30
0
 70
1
  0
VERTEX
  8
LAYER_4
 10
65.421
 20
2.2312
 42
-0.2616677984
  0
VERTEX
  8
LAYER_4
 10
65.3734
 20
2.0734
 42
-0.1971472717
  0
VERTEX
  8
LAYER_4
 10
65.1891
 20
2.0135
 42
-0.4353528978
  0
VERTEX
  8
LAYER_4
 10
65
 20
2.1547
 42
-0.46512467
  0
VERTEX
  8
LAYER_4
 10
65.1843
 20
2.2981
  0
VERTEX
  8
LAYER_4
 10
65.421
 20
2.2981
  0
SEQEND
  0
POLYLINE
  8
LAYER_4
 40
0.05
 41
0.05
 66
1
 10
0
 20
0
 30
0
 70
1
  0
VERTEX
  8
LAYER_4
 10
65.7324
 20
1.7723
  0
VERTEX
  8
LAYER_4
 10
65.7324
 20
2.5923
 42
0.2205352142
  0
VERTEX
  8
LAYER_4
 10
65.6067
 20
2.9144
 42
0.1806206525
  0
VERTEX
  8
LAYER_4
 10
65.2008
 20
3.0319
 42
0.2375332703
  0
VERTEX
  8
LAYER_4
 10
64.7537
 20
2.8551
  0
VERTEX
  8
LAYER_4
 10
64.9497
 20
2.6615
 42
-0.2463892608
  0
VERTEX
  8
LAYER_4
 10
65.1891
 20
2.7693
 42
-0.4685227074
  0
VERTEX
  8
LAYER_4
 10
65.421
 20
2.573
  0
VERTEX
  8
LAYER_4
 10
65.421
 20
2.511
  0
VERTEX
  8
LAYER_4
 10
65.1316
 20
2.511
 42
0.2102789582
  0
VERTEX
  8
LAYER_4
 10
64.7868
 20
2.3858
 42
0.1851141367
  0
VERTEX
  8
LAYER_4
 10
64.7006
 20
2.1499
 42
0.1942964937
  0
VERTEX
  8
LAYER_4
 10
64.8036
 20
1.8702
 42
0.1980954868
  0
VERTEX
  8
LAYER_4
 10
65.122
 20
1.7599
 42
0.2244288157
  0
VERTEX
  8
LAYER_4
 10
65.4286
 20
1.8798
  0
VERTEX
  8
LAYER_4
 10
65.4286
 20
1.7723
  0
SEQEND
  0
POLYLINE
  8
LAYER_4
 40
0.05
 41
0.05
 66
1
 10
0
 20
0
 30
0
 70
1
  0
VERTEX
  8
LAYER_4
 10
64.5191
 20
1.7723
  0
VERTEX
  8
LAYER_4
 10
64.5191
 20
2.0348
  0
VERTEX
  8
LAYER_4
 10
64.4064
 20
2.0348
 42
-0.4605449386
  0
VERTEX
  8
LAYER_4
 10
64.2986
 20
2.1475
  0
VERTEX
  8
LAYER_4
 10
64.2986
 20
2.7452
  0
VERTEX
  8
LAYER_4
 10
64.5191
 20
2.7452
  0
VERTEX
  8
LAYER_4
 10
64.5191
 20
2.9816
  0
VERTEX
  8
LAYER_4
 10
64.2986
 20
2.9816
  0
VERTEX
  8
LAYER_4
 10
64.2986
 20
3.3498
  0
VERTEX
  8
LAYER_4
 10
63.9878
 20
3.3498
  0
VERTEX
  8
LAYER_4
 10
63.9878
 20
2.9816
  0
VERTEX
  8
LAYER_4
 10
63.8559
 20
2.9816
  0
VERTEX
  8
LAYER_4
 10
63.8559
 20
2.7452
  0
VERTEX
  8
LAYER_4
 10
63.9878
 20
2.7452
  0
VERTEX
  8
LAYER_4
 10
63.9878
 20
2.1286
 42
0.4187062751
  0
VERTEX
  8
LAYER_4
 10
64.3492
 20
1.7723
  0
SEQEND
  0
POLYLINE
  8
LAYER_4
 40
0.05
 41
0.05
 66
1
 10
0
 20
0
 30
0
 70
1
  0
VERTEX
  8
LAYER_4
 10
63.5858
 20
3.4742
  0
VERTEX
  8
LAYER_4
 10
63.253
 20
3.4742
  0
VERTEX
  8
LAYER_4
 10
63.253
 20
1.7723
  0
VERTEX
  8
LAYER_4
 10
63.5858
 20
1.7723
  0
SEQEND
  0
POLYLINE
  8
LAYER_4
 40
0.05
 41
0.05
 66
1
 10
0
 20
0
 30
0
 70
1
  0
VERTEX
  8
LAYER_4
 10
62.3387
 20
1.7723
  0
VERTEX
  8
LAYER_4
 10
62.3387
 20
2.5681
 42
0.2135916183
  0
VERTEX
  8
LAYER_4
 10
62.2119
 20
2.9216
 42
0.1976139311
  0
VERTEX
  8
LAYER_4
 10
61.9173
 20
3.0319
 42
0.2035500694
  0
VERTEX
  8
LAYER_4
 10
61.6062
 20
2.903
  0
VERTEX
  8
LAYER_4
 10
61.6062
 20
3.0177
  0
VERTEX
  8
LAYER_4
 10
61.3024
 20
3.0177
  0
VERTEX
  8
LAYER_4
 10
61.3024
 20
1.7723
  0
VERTEX
  8
LAYER_4
 10
61.6134
 20
1.7723
  0
VERTEX
  8
LAYER_4
 10
61.6134
 20
2.5254
 42
-0.4264714574
  0
VERTEX
  8
LAYER_4
 10
61.8219
 20
2.7521
 42
-0.4358808362
  0
VERTEX
  8
LAYER_4
 10
62.0276
 20
2.5254
  0
VERTEX
  8
LAYER_4
 10
62.0276
 20
1.7723
  0
SEQEND
  0
POLYLINE
  8
LAYER_4
 40
0.05
 41
0.05
 66
1
 10
0
 20
0
 30
0
 70
1
  0
VERTEX
  8
LAYER_4
 10
60.9578
 20
3.4839
  0
VERTEX
  8
LAYER_4
 10
60.6395
 20
3.4839
  0
VERTEX
  8
LAYER_4
 10
60.6395
 20
3.2303
  0
VERTEX
  8
LAYER_4
 10
60.9578
 20
3.2303
  0
SEQEND
  0
POLYLINE
  8
LAYER_4
 40
0.05
 41
0.05
 66
1
 10
0
 20
0
 30
0
 70
1
  0
VERTEX
  8
LAYER_4
 10
60.9554
 20
2.9816
  0
VERTEX
  8
LAYER_4
 10
60.644
 20
2.9816
  0
VERTEX
  8
LAYER_4
 10
60.644
 20
1.7723
  0
VERTEX
  8
LAYER_4
 10
60.9554
 20
1.7723
  0
SEQEND
  0
POLYLINE
  8
LAYER_4
 40
0.05
 41
0.05
 66
1
 10
0
 20
0
 30
0
  0
VERTEX
  8
LAYER_4
 10
59.4954
 20
2.511
  0
VERTEX
  8
LAYER_4
 10
59.0214
 20
2.511
  0
VERTEX
  8
LAYER_4
 10
59.0503
 20
2.6446
 42
-0.3005081441
  0
VERTEX
  8
LAYER_4
 10
59.2584
 20
2.7735
 42
-0.3004502708
  0
VERTEX
  8
LAYER_4
 10
59.4665
 20
2.6446
  0
VERTEX
  8
LAYER_4
 10
59.4954
 20
2.511
  0
SEQEND
  0
POLYLINE
  8
LAYER_4
 40
0.05
 41
0.05
 66
1
 10
0
 20
0
 30
0
 70
1
  0
VERTEX
  8
LAYER_4
 10
59.8017
 20
2.2981
  0
VERTEX
  8
LAYER_4
 10
59.8017
 20
2.4297
 42
0.172797805
  0
VERTEX
  8
LAYER_4
 10
59.6688
 20
2.8532
 42
0.2293040548
  0
VERTEX
  8
LAYER_4
 10
59.2584
 20
3.0319
 42
0.4082924499
  0
VERTEX
  8
LAYER_4
 10
58.7191
 20
2.4881
 42
0.02665174877
  0
VERTEX
  8
LAYER_4
 10
58.7151
 20
2.3962
 42
0.1685313543
  0
VERTEX
  8
LAYER_4
 10
58.8411
 20
1.9433
 42
0.2404327951
  0
VERTEX
  8
LAYER_4
 10
59.2918
 20
1.7579
 42
0.2250773883
  0
VERTEX
  8
LAYER_4
 10
59.7658
 20
1.9539
  0
VERTEX
  8
LAYER_4
 10
59.5767
 20
2.1382
 42
-0.2243010207
  0
VERTEX
  8
LAYER_4
 10
59.2946
 20
2.0211
 42
-0.4313617073
  0
VERTEX
  8
LAYER_4
 10
59.0214
 20
2.2981
  0
SEQEND
  0
POLYLINE
  8
LAYER_4
 40
0.05
 41
0.05
 66
1
 10
0
 20
0
 30
0
  0
VERTEX
  8
LAYER_4
 10
58.117
 20
2.3962
 42
-0.2529693607
  0
VERTEX
  8
LAYER_4
 10
58.0212
 20
2.0688
 42
-0.175134989
  0
VERTEX
  8
LAYER_4
 10
57.9038
 20
2.0376
 42
-0.3550480818
  0
VERTEX
  8
LAYER_4
 10
57.7175
 20
2.1703
 42
-0.1590532047
  0
VERTEX
  8
LAYER_4
 10
57.6933
 20
2.3962
 42
-0.2613198638
  0
VERTEX
  8
LAYER_4
 10
57.7895
 20
2.7231
 42
-0.1728799799
  0
VERTEX
  8
LAYER_4
 10
57.9038
 20
2.7521
 42
-0.3509060801
  0
VERTEX
  8
LAYER_4
 10
58.0917
 20
2.6211
 42
-0.1616793886
  0
VERTEX
  8
LAYER_4
 10
58.117
 20
2.3962
  0
SEQEND
  0
POLYLINE
  8
LAYER_4
 40
0.05
 41
0.05
 66
1
 10
0
 20
0
 30
0
 70
1
  0
VERTEX
  8
LAYER_4
 10
58.4281
 20
1.7723
  0
VERTEX
  8
LAYER_4
 10
58.4281
 20
3.4742
  0
VERTEX
  8
LAYER_4
 10
58.117
 20
3.4742
  0
VERTEX
  8
LAYER_4
 10
58.117
 20
2.9078
 42
0.2265848587
  0
VERTEX
  8
LAYER_4
 10
57.8128
 20
3.0319
 42
0.2024323606
  0
VERTEX
  8
LAYER_4
 10
57.5114
 20
2.9195
 42
0.1956559013
  0
VERTEX
  8
LAYER_4
 10
57.3832
 20
2.5018
 42
0.01860593939
  0
VERTEX
  8
LAYER_4
 10
57.3818
 20
2.3962
 42
0.1993007049
  0
VERTEX
  8
LAYER_4
 10
57.5114
 20
1.8702
 42
0.1969169282
  0
VERTEX
  8
LAYER_4
 10
57.8152
 20
1.7579
 42
0.2330558565
  0
VERTEX
  8
LAYER_4
 10
58.1239
 20
1.8895
  0
VERTEX
  8
LAYER_4
 10
58.1239
 20
1.7723
  0
SEQEND
  0
POLYLINE
  8
LAYER_4
 40
0.05
 41
0.05
 66
1
 10
0
 20
0
 30
0
 70
1
  0
VERTEX
  8
LAYER_4
 10
56.7886
 20
2.2312
 42
-0.2605487154
  0
VERTEX
  8
LAYER_4
 10
56.7407
 20
2.0734
 42
-0.1974468016
  0
VERTEX
  8
LAYER_4
 10
56.5564
 20
2.0135
 42
-0.4358674545
  0
VERTEX
  8
LAYER_4
 10
56.3676
 20
2.1547
 42
-0.4654925931
  0
VERTEX
  8
LAYER_4
 10
56.5516
 20
2.2981
  0
VERTEX
  8
LAYER_4
 10
56.7886
 20
2.2981
  0
SEQEND
  0
POLYLINE
  8
LAYER_4
 40
0.05
 41
0.05
 66
1
 10
0
 20
0
 30
0
 70
1
  0
VERTEX
  8
LAYER_4
 10
57.0997
 20
1.7723
  0
VERTEX
  8
LAYER_4
 10
57.0997
 20
2.5923
 42
0.2204713638
  0
VERTEX
  8
LAYER_4
 10
56.9741
 20
2.9144
 42
0.1806796456
  0
VERTEX
  8
LAYER_4
 10
56.5681
 20
3.0319
 42
0.2374342907
  0
VERTEX
  8
LAYER_4
 10
56.1209
 20
2.8551
  0
VERTEX
  8
LAYER_4
 10
56.317
 20
2.6615
 42
-0.2460590995
  0
VERTEX
  8
LAYER_4
 10
56.5564
 20
2.7693
 42
-0.4685138497
  0
VERTEX
  8
LAYER_4
 10
56.7886
 20
2.573
  0
VERTEX
  8
LAYER_4
 10
56.7886
 20
2.511
  0
VERTEX
  8
LAYER_4
 10
56.4989
 20
2.511
 42
0.2105815169
  0
VERTEX
  8
LAYER_4
 10
56.1541
 20
2.3858
 42
0.1847834036
  0
VERTEX
  8
LAYER_4
 10
56.0682
 20
2.1499
 42
0.1944234772
  0
VERTEX
  8
LAYER_4
 10
56.1709
 20
1.8702
 42
0.1983577042
  0
VERTEX
  8
LAYER_4
 10
56.4896
 20
1.7599
 42
0.2250622489
  0
VERTEX
  8
LAYER_4
 10
56.7958
 20
1.8798
  0
VERTEX
  8
LAYER_4
 10
56.7958
 20
1.7723
  0
SEQEND
  0
POLYLINE
  8
LAYER_4
 40
0.05
 41
0.05
 66
1
 10
0
 20
0
 30
0
 70
1
  0
VERTEX
  8
LAYER_4
 10
55.8216
 20
1.7723
  0
VERTEX
  8
LAYER_4
 10
55.8216
 20
2.5681
 42
0.2094782314
  0
VERTEX
  8
LAYER_4
 10
55.6852
 20
2.9216
 42
0.1904514856
  0
VERTEX
  8
LAYER_4
 10
55.3789
 20
3.0319
 42
0.2200508651
  0
VERTEX
  8
LAYER_4
 10
55.0054
 20
2.8741
 42
0.247482621
  0
VERTEX
  8
LAYER_4
 10
54.6751
 20
3.0319
 42
0.1971325152
  0
VERTEX
  8
LAYER_4
 10
54.3639
 20
2.903
  0
VERTEX
  8
LAYER_4
 10
54.3639
 20
3.0177
  0
VERTEX
  8
LAYER_4
 10
54.0601
 20
3.0177
  0
VERTEX
  8
LAYER_4
 10
54.0601
 20
1.7723
  0
VERTEX
  8
LAYER_4
 10
54.3715
 20
1.7723
  0
VERTEX
  8
LAYER_4
 10
54.3715
 20
2.5254
 42
-0.4265075613
  0
VERTEX
  8
LAYER_4
 10
54.5796
 20
2.7521
 42
-0.4358808362
  0
VERTEX
  8
LAYER_4
 10
54.7853
 20
2.5254
  0
VERTEX
  8
LAYER_4
 10
54.7853
 20
1.7723
  0
VERTEX
  8
LAYER_4
 10
55.0964
 20
1.7723
  0
VERTEX
  8
LAYER_4
 10
55.0964
 20
2.5323
 42
-0.4236474582
  0
VERTEX
  8
LAYER_4
 10
55.3045
 20
2.7521
 42
-0.4365830668
  0
VERTEX
  8
LAYER_4
 10
55.5105
 20
2.5254
  0
VERTEX
  8
LAYER_4
 10
55.5105
 20
1.7723
  0
SEQEND
  0
POLYLINE
  8
LAYER_4
 40
0.05
 41
0.05
 66
1
 10
0
 20
0
 30
0
  0
VERTEX
  8
LAYER_4
 10
53.4975
 20
2.3601
 42
-0.2061661988
  0
VERTEX
  8
LAYER_4
 10
53.3945
 20
1.9773
 42
-0.1860372219
  0
VERTEX
  8
LAYER_4
 10
53.2033
 20
1.9108
 42
-0.2913151709
  0
VERTEX
  8
LAYER_4
 10
52.9621
 20
2.0416
 42
-0.1073568027
  0
VERTEX
  8
LAYER_4
 10
52.9067
 20
2.3601
 42
-0.2074916332
  0
VERTEX
  8
LAYER_4
 10
53.0105
 20
2.7432
 42
-0.1847600926
  0
VERTEX
  8
LAYER_4
 10
53.2033
 20
2.8096
 42
-0.2924847144
  0
VERTEX
  8
LAYER_4
 10
53.4425
 20
2.6788
 42
-0.1065035319
  0
VERTEX
  8
LAYER_4
 10
53.4975
 20
2.3601
  0
SEQEND
  0
POLYLINE
  8
LAYER_4
 40
0.05
 41
0.05
 66
1
 10
0
 20
0
 30
0
 70
1
  0
VERTEX
  8
LAYER_4
 10
53.6701
 20
1.7723
  0
VERTEX
  8
LAYER_4
 10
53.6701
 20
3.4742
  0
VERTEX
  8
LAYER_4
 10
53.4975
 20
3.4742
  0
VERTEX
  8
LAYER_4
 10
53.4975
 20
2.8121
 42
0.2528230192
  0
VERTEX
  8
LAYER_4
 10
53.1651
 20
2.963
 42
0.1962046864
  0
VERTEX
  8
LAYER_4
 10
52.8777
 20
2.8596
 42
0.2063031118
  0
VERTEX
  8
LAYER_4
 10
52.7341
 20
2.3601
 42
0.1924307957
  0
VERTEX
  8
LAYER_4
 10
52.8777
 20
1.8605
 42
0.1891210277
  0
VERTEX
  8
LAYER_4
 10
53.1651
 20
1.7579
 42
0.2549922464
  0
VERTEX
  8
LAYER_4
 10
53.4999
 20
1.9132
  0
VERTEX
  8
LAYER_4
 10
53.4999
 20
1.7723
  0
SEQEND
  0
POLYLINE
  8
LAYER_4
 40
0.05
 41
0.05
 66
1
 10
0
 20
0
 30
0
 70
1
  0
VERTEX
  8
LAYER_4
 10
52.3775
 20
1.7723
  0
VERTEX
  8
LAYER_4
 10
52.3775
 20
2.5254
 42
0.2091038713
  0
VERTEX
  8
LAYER_4
 10
52.2556
 20
2.8527
 42
0.1979232683
  0
VERTEX
  8
LAYER_4
 10
51.9538
 20
2.963
 42
0.2189695848
  0
VERTEX
  8
LAYER_4
 10
51.6237
 20
2.8189
  0
VERTEX
  8
LAYER_4
 10
51.6237
 20
2.9485
  0
VERTEX
  8
LAYER_4
 10
51.4515
 20
2.9485
  0
VERTEX
  8
LAYER_4
 10
51.4515
 20
1.7723
  0
VERTEX
  8
LAYER_4
 10
51.6237
 20
1.7723
  0
VERTEX
  8
LAYER_4
 10
51.6237
 20
2.4965
 42
-0.4285478174
  0
VERTEX
  8
LAYER_4
 10
51.9159
 20
2.8096
 42
-0.4465349234
  0
VERTEX
  8
LAYER_4
 10
52.2053
 20
2.4965
  0
VERTEX
  8
LAYER_4
 10
52.2053
 20
1.7723
  0
SEQEND
  0
POLYLINE
  8
LAYER_4
 40
0.05
 41
0.05
 66
1
 10
0
 20
0
 30
0
 70
1
  0
VERTEX
  8
LAYER_4
 10
50.8603
 20
2.1878
 42
-0.2286649039
  0
VERTEX
  8
LAYER_4
 10
50.8004
 20
1.9849
 42
-0.1945080295
  0
VERTEX
  8
LAYER_4
 10
50.5395
 20
1.906
 42
-0.4422317554
  0
VERTEX
  8
LAYER_4
 10
50.2667
 20
2.1072
 42
-0.3470471158
  0
VERTEX
  8
LAYER_4
 10
50.398
 20
2.2964
 42
-0.1260474787
  0
VERTEX
  8
LAYER_4
 10
50.5323
 20
2.3146
  0
VERTEX
  8
LAYER_4
 10
50.8603
 20
2.3146
  0
SEQEND
  0
POLYLINE
  8
LAYER_4
 40
0.05
 41
0.05
 66
1
 10
0
 20
0
 30
0
 70
1
  0
VERTEX
  8
LAYER_4
 10
51.0329
 20
1.7723
  0
VERTEX
  8
LAYER_4
 10
51.0329
 20
2.5702
 42
0.2384260164
  0
VERTEX
  8
LAYER_4
 10
50.905
 20
2.8709
 42
0.1598844261
  0
VERTEX
  8
LAYER_4
 10
50.5612
 20
2.963
 42
0.257801188
  0
VERTEX
  8
LAYER_4
 10
50.1447
 20
2.7859
  0
VERTEX
  8
LAYER_4
 10
50.2619
 20
2.678
 42
-0.2731737373
  0
VERTEX
  8
LAYER_4
 10
50.5585
 20
2.8148
 42
-0.4521600868
  0
VERTEX
  8
LAYER_4
 10
50.8603
 20
2.5564
  0
VERTEX
  8
LAYER_4
 10
50.8603
 20
2.4438
  0
VERTEX
  8
LAYER_4
 10
50.5085
 20
2.4438
 42
0.2189808085
  0
VERTEX
  8
LAYER_4
 10
50.1723
 20
2.3194
 42
0.1748791453
  0
VERTEX
  8
LAYER_4
 10
50.0993
 20
2.1044
 42
0.2073045605
  0
VERTEX
  8
LAYER_4
 10
50.1878
 20
1.8653
 42
0.2127228217
  0
VERTEX
  8
LAYER_4
 10
50.5206
 20
1.7579
 42
0.2249166518
  0
VERTEX
  8
LAYER_4
 10
50.8603
 20
1.8843
  0
VERTEX
  8
LAYER_4
 10
50.8603
 20
1.7723
  0
SEQEND
  0
POLYLINE
  8
LAYER_4
 40
0.05
 41
0.05
 66
1
 10
0
 20
0
 30
0
 70
1
  0
VERTEX
  8
LAYER_4
 10
49.7737
 20
1.7723
  0
VERTEX
  8
LAYER_4
 10
49.7737
 20
2.5275
 42
0.2162918063
  0
VERTEX
  8
LAYER_4
 10
49.6411
 20
2.8653
 42
0.1798364871
  0
VERTEX
  8
LAYER_4
 10
49.3499
 20
2.963
 42
0.2191513921
  0
VERTEX
  8
LAYER_4
 10
49.0199
 20
2.8189
  0
VERTEX
  8
LAYER_4
 10
49.0199
 20
3.4742
  0
VERTEX
  8
LAYER_4
 10
48.8473
 20
3.4742
  0
VERTEX
  8
LAYER_4
 10
48.8473
 20
1.7723
  0
VERTEX
  8
LAYER_4
 10
49.0199
 20
1.7723
  0
VERTEX
  8
LAYER_4
 10
49.0199
 20
2.4989
 42
-0.435136644
  0
VERTEX
  8
LAYER_4
 10
49.3141
 20
2.8096
 42
-0.4517903548
  0
VERTEX
  8
LAYER_4
 10
49.6014
 20
2.4989
  0
VERTEX
  8
LAYER_4
 10
49.6014
 20
1.7723
  0
SEQEND
  0
ENDBLK
  0
BLOCK
  8
LAYER_4
  2
AIGNBL04020008
 70
64
 10
0
 20
0
 30
0
  3
AIGNBL04020008
  0
POLYLINE
  8
LAYER_4
 40
0.1058
 41
0.1058
 66
1
 10
0
 20
0
 30
0
  0
VERTEX
  8
LAYER_4
 10
182.4585
 20
-80.5358
  0
VERTEX
  8
LAYER_4
 10
182.4585
 20
-101.6599
  0
SEQEND
  0
INSERT
  8
LAYER_4
  2
AIGNBL04030009
 10
0
 20
0
 30
0
  0
INSERT
  8
LAYER_4
  2
AIGNBL0403000A
 10
0
 20
0
 30
0
  0
ENDBLK
  0
BLOCK
  8
LAYER_4
  2
AIGNBL0402000D
 70
64
 10
0
 20
0
 30
0
  3
AIGNBL0402000D
  0
INSERT
  8
LAYER_4
  2
AIGNBL0403000E
 10
0
 20
0
 30
0
  0
ENDBLK
  0
BLOCK
  8
LAYER_4
  2
AIGNBL04020016
 70
64
 10
0
 20
0
 30
0
  3
AIGNBL04020016
  0
INSERT
  8
LAYER_4
  2
AIGNBL04030017
 10
0
 20
0
 30
0
  0
INSERT
  8
LAYER_4
  2
AIGNBL04030018
 10
0
 20
0
 30
0
  0
INSERT
  8
LAYER_4
  2
AIGNBL04030019
 10
0
 20
0
 30
0
  0
INSERT
  8
LAYER_4
  2
AIGNBL0403001A
 10
0
 20
0
 30
0
  0
INSERT
  8
LAYER_4
  2
AIGNBL0403001B
 10
0
 20
0
 30
0
  0
INSERT
  8
LAYER_4
  2
AIGNBL0403001C
 10
0
 20
0
 30
0
  0
INSERT
  8
LAYER_4
  2
AIGNBL0403001D
 10
0
 20
0
 30
0
  0
INSERT
  8
LAYER_4
  2
AIGNBL0403001E
 10
0
 20
0
 30
0
  0
INSERT
  8
LAYER_4
  2
AIGNBL0403001F
 10
0
 20
0
 30
0
  0
INSERT
  8
LAYER_4
  2
AIGNBL04030020
 10
0
 20
0
 30
0
  0
INSERT
  8
LAYER_4
  2
AIGNBL04030021
 10
0
 20
0
 30
0
  0
INSERT
  8
LAYER_4
  2
AIGNBL04030022
 10
0
 20
0
 30
0
  0
INSERT
  8
LAYER_4
  2
AIGNBL04030023
 10
0
 20
0
 30
0
  0
INSERT
  8
LAYER_4
  2
AIGNBL04030024
 10
0
 20
0
 30
0
  0
INSERT
  8
LAYER_4
  2
AIGNBL04030025
 10
0
 20
0
 30
0
  0
INSERT
  8
LAYER_4
  2
AIGNBL04030026
 10
0
 20
0
 30
0
  0
INSERT
  8
LAYER_4
  2
AIGNBL04030027
 10
0
 20
0
 30
0
  0
INSERT
  8
LAYER_4
  2
AIGNBL04030028
 10
0
 20
0
 30
0
  0
INSERT
  8
LAYER_4
  2
AIGNBL04030029
 10
0
 20
0
 30
0
  0
INSERT
  8
LAYER_4
  2
AIGNBL0403002A
 10
0
 20
0
 30
0
  0
INSERT
  8
LAYER_4
  2
AIGNBL0403002B
 10
0
 20
0
 30
0
  0
INSERT
  8
LAYER_4
  2
AIGNBL0403002C
 10
0
 20
0
 30
0
  0
INSERT
  8
LAYER_4
  2
AIGNBL0403002D
 10
0
 20
0
 30
0
  0
ENDBLK
  0
BLOCK
  8
LAYER_1
  2
AIGNBL01010002
 70
64
 10
0
 20
0
 30
0
  3
AIGNBL01010002
  0
POLYLINE
  8
LAYER_1
 40
0.1058
 41
0.1058
 66
1
 10
0
 20
0
 30
0
  0
VERTEX
  8
LAYER_1
 10
112.862
 20
-112.2722
  0
VERTEX
  8
LAYER_1
 10
173.2669
 20
-112.2722
  0
SEQEND
  0
POLYLINE
  8
LAYER_1
 40
0.1058
 41
0.1058
 66
1
 10
0
 20
0
 30
0
  0
VERTEX
  8
LAYER_1
 10
112.862
 20
-118.3136
  0
VERTEX
  8
LAYER_1
 10
112.862
 20
-112.2722
  0
SEQEND
  0
POLYLINE
  8
LAYER_1
 40
0.1058
 41
0.1058
 66
1
 10
0
 20
0
 30
0
  0
VERTEX
  8
LAYER_1
 10
173.2669
 20
-118.3136
  0
VERTEX
  8
LAYER_1
 10
173.2669
 20
-112.2722
  0
SEQEND
  0
POLYLINE
  8
LAYER_1
 40
0.1058
 41
0.1058
 66
1
 10
0
 20
0
 30
0
  0
VERTEX
  8
LAYER_1
 10
173.2669
 20
-118.3136
  0
VERTEX
  8
LAYER_1
 10
112.8627
 20
-118.3136
  0
SEQEND
  0
ENDBLK
  0
BLOCK
  8
LAYER_1
  2
AIGNBL01010003
 70
64
 10
0
 20
0
 30
0
  3
AIGNBL01010003
  0
INSERT
  8
LAYER_1
  2
AIGNBL01020004
 10
0
 20
0
 30
0
  0
ENDBLK
  0
BLOCK
  8
LAYER_1
  2
AIGNBL01010007
 70
64
 10
0
 20
0
 30
0
  3
AIGNBL01010007
  0
POLYLINE
  8
LAYER_1
 40
0.1058
 41
0.1058
 66
1
 10
0
 20
0
 30
0
  0
VERTEX
  8
LAYER_1
 10
179.3916
 20
8.5767
  0
VERTEX
  8
LAYER_1
 10
179.3916
 20
3.2851
  0
SEQEND
  0
ENDBLK
  0
BLOCK
  8
LAYER_1
  2
AIGNBL01010008
 70
64
 10
0
 20
0
 30
0
  3
AIGNBL01010008
  0
POLYLINE
  8
LAYER_1
 40
0.1058
 41
0.1058
 66
1
 10
0
 20
0
 30
0
  0
VERTEX
  8
LAYER_1
 10
107.6472
 20
3.2851
  0
VERTEX
  8
LAYER_1
 10
107.6472
 20
8.5767
  0
SEQEND
  0
ENDBLK
  0
BLOCK
  8
LAYER_1
  2
AIGNBL01010009
 70
64
 10
0
 20
0
 30
0
  3
AIGNBL01010009
  0
INSERT
  8
LAYER_1
  2
AIGNBL0102000A
 10
0
 20
0
 30
0
  0
ENDBLK
  0
BLOCK
  8
LAYER_1
  2
AIGNBL0101000D
 70
64
 10
0
 20
0
 30
0
  3
AIGNBL0101000D
  0
POLYLINE
  8
LAYER_1
 40
0.1058
 41
0.1058
 66
1
 10
0
 20
0
 30
0
  0
VERTEX
  8
LAYER_1
 10
101.9531
 20
-67.0822
  0
VERTEX
  8
LAYER_1
 10
107.8539
 20
-67.0822
  0
SEQEND
  0
ENDBLK
  0
BLOCK
  8
LAYER_1
  2
AIGNBL0101000E
 70
64
 10
0
 20
0
 30
0
  3
AIGNBL0101000E
  0
POLYLINE
  8
LAYER_1
 40
0.1058
 41
0.1058
 66
1
 10
0
 20
0
 30
0
  0
VERTEX
  8
LAYER_1
 10
107.8539
 20
-147.0822
  0
VERTEX
  8
LAYER_1
 10
101.9531
 20
-147.0822
  0
SEQEND
  0
ENDBLK
  0
BLOCK
  8
LAYER_1
  2
AIGNBL0101000F
 70
64
 10
0
 20
0
 30
0
  3
AIGNBL0101000F
  0
INSERT
  8
LAYER_1
  2
AIGNBL01020010
 10
0
 20
0
 30
0
  0
ENDBLK
  0
BLOCK
  8
LAYER_1
  2
AIGNBL01010013
 70
64
 10
0
 20
0
 30
0
  3
AIGNBL01010013
  0
POLYLINE
  8
LAYER_1
 40
0.1058
 41
0.1058
 66
1
 10
0
 20
0
 30
0
  0
VERTEX
  8
LAYER_1
 10
173.5195
 20
-151.0833
  0
VERTEX
  8
LAYER_1
 10
173.5195
 20
-155.5089
  0
SEQEND
  0
ENDBLK
  0
BLOCK
  8
LAYER_1
  2
AIGNBL01010014
 70
64
 10
0
 20
0
 30
0
  3
AIGNBL01010014
  0
POLYLINE
  8
LAYER_1
 40
0.1058
 41
0.1058
 66
1
 10
0
 20
0
 30
0
  0
VERTEX
  8
LAYER_1
 10
113.5193
 20
-155.5089
  0
VERTEX
  8
LAYER_1
 10
113.5193
 20
-151.0833
  0
SEQEND
  0
ENDBLK
  0
BLOCK
  8
LAYER_1
  2
AIGNBL01010015
 70
64
 10
0
 20
0
 30
0
  3
AIGNBL01010015
  0
POLYLINE
  8
LAYER_1
 40
0.1058
 41
0.1058
 66
1
 10
0
 20
0
 30
0
  0
VERTEX
  8
LAYER_1
 10
185.1119
 20
-167.8733
  0
VERTEX
  8
LAYER_1
 10
179.8202
 20
-167.8733
  0
SEQEND
  0
ENDBLK
  0
BLOCK
  8
LAYER_1
  2
AIGNBL01010016
 70
64
 10
0
 20
0
 30
0
  3
AIGNBL01010016
  0
POLYLINE
  8
LAYER_1
 40
0.1058
 41
0.1058
 66
1
 10
0
 20
0
 30
0
  0
VERTEX
  8
LAYER_1
 10
179.8202
 20
-31.0489
  0
VERTEX
  8
LAYER_1
 10
185.1119
 20
-31.0489
  0
SEQEND
  0
ENDBLK
  0
BLOCK
  8
LAYER_1
  2
AIGNBL01010017
 70
64
 10
0
 20
0
 30
0
  3
AIGNBL01010017
  0
INSERT
  8
LAYER_1
  2
AIGNBL01020018
 10
0
 20
0
 30
0
  0
ENDBLK
  0
BLOCK
  8
LAYER_1
  2
AIGNBL0101001B
 70
64
 10
0
 20
0
 30
0
  3
AIGNBL0101001B
  0
INSERT
  8
LAYER_1
  2
AIGNBL0102001C
 10
0
 20
0
 30
0
  0
ENDBLK
  0
BLOCK
  8
LAYER_1
  2
AIGNBL0101001F
 70
64
 10
0
 20
0
 30
0
  3
AIGNBL0101001F
  0
POLYLINE
  8
LAYER_1
 40
0.1058
 41
0.1058
 66
1
 10
0
 20
0
 30
0
  0
VERTEX
  8
LAYER_1
 10
185.1119
 20
-199.7887
  0
VERTEX
  8
LAYER_1
 10
179.8202
 20
-199.7887
  0
SEQEND
  0
ENDBLK
  0
BLOCK
  8
LAYER_1
  2
AIGNBL01010020
 70
64
 10
0
 20
0
 30
0
  3
AIGNBL01010020
  0
POLYLINE
  8
LAYER_1
 40
0.1058
 41
0.1058
 66
1
 10
0
 20
0
 30
0
  0
VERTEX
  8
LAYER_1
 10
185.1119
 20
-189.7889
  0
VERTEX
  8
LAYER_1
 10
179.8202
 20
-189.7889
  0
SEQEND
  0
ENDBLK
  0
BLOCK
  8
LAYER_1
  2
AIGNBL01010021
 70
64
 10
0
 20
0
 30
0
  3
AIGNBL01010021
  0
INSERT
  8
LAYER_1
  2
AIGNBL01020022
 10
0
 20
0
 30
0
  0
ENDBLK
  0
BLOCK
  8
LAYER_1
  2
AIGNBL01010025
 70
64
 10
0
 20
0
 30
0
  3
AIGNBL01010025
  0
POLYLINE
  8
LAYER_1
 40
0.1058
 41
0.1058
 66
1
 10
0
 20
0
 30
0
  0
VERTEX
  8
LAYER_1
 10
179.8202
 20
-11.0476
  0
VERTEX
  8
LAYER_1
 10
185.1119
 20
-11.0476
  0
SEQEND
  0
ENDBLK
  0
BLOCK
  8
LAYER_1
  2
AIGNBL01010026
 70
64
 10
0
 20
0
 30
0
  3
AIGNBL01010026
  0
INSERT
  8
LAYER_1
  2
AIGNBL01020027
 10
0
 20
0
 30
0
  0
INSERT
  8
LAYER_1
  2
AIGNBL0102002B
 10
0
 20
0
 30
0
  0
INSERT
  8
LAYER_1
  2
AIGNBL0102002C
 10
0
 20
0
 30
0
  0
ENDBLK
  0
BLOCK
  8
LAYER_4
  2
AIGNBL04010002
 70
64
 10
0
 20
0
 30
0
  3
AIGNBL04010002
  0
POLYLINE
  8
LAYER_4
 40
0.7056
 41
0.7056
 66
1
 10
0
 20
0
 30
0
 70
1
  0
VERTEX
  8
LAYER_4
 10
33.7873
 20
22.6587
  0
VERTEX
  8
LAYER_4
 10
230.7955
 20
22.6587
  0
VERTEX
  8
LAYER_4
 10
230.7955
 20
-259.334
  0
VERTEX
  8
LAYER_4
 10
33.7873
 20
-259.334
  0
SEQEND
  0
ENDBLK
  0
BLOCK
  8
LAYER_4
  2
AIGNBL04010003
 70
64
 10
0
 20
0
 30
0
  3
AIGNBL04010003
  0
INSERT
  8
LAYER_4
  2
AIGNBL04020004
 10
0
 20
0
 30
0
  0
POLYLINE
  8
LAYER_4
 40
0.05
 41
0.05
 66
1
 10
0
 20
0
 30
0
  0
VERTEX
  8
LAYER_4
 10
60.9379
 20
13.6055
  0
VERTEX
  8
LAYER_4
 10
59.3025
 20
13.6055
  0
VERTEX
  8
LAYER_4
 10
59.3025
 20
6.531
 42
0.0930452366
  0
VERTEX
  8
LAYER_4
 10
59.4431
 20
5.7612
 42
0.2871976955
  0
VERTEX
  8
LAYER_4
 10
60.9351
 20
4.6731
  0
VERTEX
  8
LAYER_4
 10
60.9379
 20
13.6055
  0
SEQEND
  0
INSERT
  8
LAYER_4
  2
AIGNBL04020005
 10
0
 20
0
 30
0
  0
ENDBLK
  0
BLOCK
  8
LAYER_4
  2
AIGNBL04010006
 70
64
 10
0
 20
0
 30
0
  3
AIGNBL04010006
  0
POLYLINE
  8
LAYER_4
 40
0.1058
 41
0.1058
 66
1
 10
0
 20
0
 30
0
  0
VERTEX
  8
LAYER_4
 10
184.6223
 20
-79.5974
  0
VERTEX
  8
LAYER_4
 10
180.1147
 20
-79.5974
  0
SEQEND
  0
ENDBLK
  0
BLOCK
  8
LAYER_4
  2
AIGNBL04010007
 70
64
 10
0
 20
0
 30
0
  3
AIGNBL04010007
  0
INSERT
  8
LAYER_4
  2
AIGNBL04020008
 10
0
 20
0
 30
0
  0
ENDBLK
  0
BLOCK
  8
LAYER_4
  2
AIGNBL0401000B
 70
64
 10
0
 20
0
 30
0
  3
AIGNBL0401000B
  0
POLYLINE
  8
LAYER_4
 40
0.1058
 41
0.1058
 66
1
 10
0
 20
0
 30
0
  0
VERTEX
  8
LAYER_4
 10
184.6223
 20
-102.5975
  0
VERTEX
  8
LAYER_4
 10
180.1147
 20
-102.5975
  0
SEQEND
  0
ENDBLK
  0
BLOCK
  8
LAYER_4
  2
AIGNBL0401000C
 70
64
 10
0
 20
0
 30
0
  3
AIGNBL0401000C
  0
INSERT
  8
LAYER_4
  2
AIGNBL0402000D
 10
0
 20
0
 30
0
  0
INSERT
  8
LAYER_4
  2
AIGNBL04020016
 10
0
 20
0
 30
0
  0
ENDBLK
  0
ENDSEC
  0
SECTION
  2
ENTITIES
  0
POLYLINE
  8
LAYER_1
 40
0.1058
 41
0.1058
 66
1
 10
0
 20
0
 30
0
  0
VERTEX
  8
LAYER_1
 10
137.2871
 20
-58.526
  0
VERTEX
  8
LAYER_1
 10
149.6963
 20
-58.526
  0
SEQEND
  0
POLYLINE
  8
LAYER_1
 40
0.1058
 41
0.1058
 66
1
 10
0
 20
0
 30
0
  0
VERTEX
  8
LAYER_1
 10
137.2871
 20
-55.9304
  0
VERTEX
  8
LAYER_1
 10
137.2857
 20
-55.7789
  0
SEQEND
  0
POLYLINE
  8
LAYER_1
 40
0.1058
 41
0.1058
 66
1
 10
0
 20
0
 30
0
  0
VERTEX
  8
LAYER_1
 10
125.85
 20
-32.2495
  0
VERTEX
  8
LAYER_1
 10
160.2789
 20
-32.2495
  0
SEQEND
  0
POLYLINE
  8
LAYER_1
 40
0.1058
 41
0.1058
 66
1
 10
0
 20
0
 30
0
  0
VERTEX
  8
LAYER_1
 10
121.5712
 20
-29.9338
  0
VERTEX
  8
LAYER_1
 10
121.5712
 20
-29.7326
  0
SEQEND
  0
POLYLINE
  8
LAYER_1
 40
0.1058
 41
0.1058
 66
1
 10
0
 20
0
 30
0
  0
VERTEX
  8
LAYER_1
 10
164.5591
 20
-29.7326
  0
VERTEX
  8
LAYER_1
 10
164.5591
 20
-29.9344
  0
SEQEND
  0
POLYLINE
  8
LAYER_1
 40
0.1058
 41
0.1058
 66
1
 10
0
 20
0
 30
0
  0
VERTEX
  8
LAYER_1
 10
122.0749
 20
-30.4374
  0
VERTEX
  8
LAYER_1
 10
164.0548
 20
-30.4374
  0
SEQEND
  0
POLYLINE
  8
LAYER_1
 40
0.1058
 41
0.1058
 66
1
 10
0
 20
0
 30
0
  0
VERTEX
  8
LAYER_1
 10
122.0749
 20
-29.2289
  0
VERTEX
  8
LAYER_1
 10
164.0548
 20
-29.2289
  0
SEQEND
  0
POLYLINE
  8
LAYER_1
 40
0.1058
 41
0.1058
 66
1
 10
0
 20
0
 30
0
  0
VERTEX
  8
LAYER_1
 10
125.0956
 20
-27.8198
  0
VERTEX
  8
LAYER_1
 10
161.0355
 20
-27.8198
  0
SEQEND
  0
POLYLINE
  8
LAYER_1
 40
0.1058
 41
0.1058
 66
1
 10
0
 20
0
 30
0
  0
VERTEX
  8
LAYER_1
 10
125.8504
 20
-27.8198
  0
VERTEX
  8
LAYER_1
 10
125.8504
 20
-14.3544
  0
SEQEND
  0
POLYLINE
  8
LAYER_1
 40
0.1058
 41
0.1058
 66
1
 10
0
 20
0
 30
0
  0
VERTEX
  8
LAYER_1
 10
160.28
 20
-27.8198
  0
VERTEX
  8
LAYER_1
 10
160.28
 20
-14.3544
  0
SEQEND
  0
POLYLINE
  8
LAYER_1
 40
0.1058
 41
0.1058
 66
1
 10
0
 20
0
 30
0
  0
VERTEX
  8
LAYER_1
 10
107.6472
 20
-9.9639
 42
-0.055231788
  0
VERTEX
  8
LAYER_1
 10
108.2663
 20
-8.7896
 42
-0.04392580166
  0
VERTEX
  8
LAYER_1
 10
109.1461
 20
-7.7097
 42
-0.03952973672
  0
VERTEX
  8
LAYER_1
 10
110.4882
 20
-6.5342
 42
-0.03279302164
  0
VERTEX
  8
LAYER_1
 10
112.3583
 20
-5.3231
 42
-0.02742294738
  0
VERTEX
  8
LAYER_1
 10
114.9143
 20
-4.0738
 42
-0.0216487154
  0
VERTEX
  8
LAYER_1
 10
118.0621
 20
-2.8975
 42
-0.0268407057
  0
VERTEX
  8
LAYER_1
 10
124.0527
 20
-1.3002
 42
-0.02950000624
  0
VERTEX
  8
LAYER_1
 10
134.2516
 20
0.2729
 42
-0.02085999734
  0
VERTEX
  8
LAYER_1
 10
143.0655
 20
0.7455
  0
SEQEND
  0
POLYLINE
  8
LAYER_1
 40
0.1058
 41
0.1058
 66
1
 10
0
 20
0
 30
0
  0
VERTEX
  8
LAYER_1
 10
121.4207
 20
-14.3544
  0
VERTEX
  8
LAYER_1
 10
164.7097
 20
-14.3544
  0
SEQEND
  0
POLYLINE
  8
LAYER_1
 40
0.1058
 41
0.1058
 66
1
 10
0
 20
0
 30
0
  0
VERTEX
  8
LAYER_1
 10
164.7097
 20
-14.3544
 42
-0.05896346934
  0
VERTEX
  8
LAYER_1
 10
165.5108
 20
-13.4733
 42
-0.05388263174
  0
VERTEX
  8
LAYER_1
 10
166.6192
 20
-12.7066
 42
-0.0463259371
  0
VERTEX
  8
LAYER_1
 10
168.1047
 20
-12.0714
 42
-0.03743497149
  0
VERTEX
  8
LAYER_1
 10
170.0052
 20
-11.6123
 42
-0.04035635955
  0
VERTEX
  8
LAYER_1
 10
173.4368
 20
-11.3364
  0
SEQEND
  0
POLYLINE
  8
LAYER_1
 40
0.1058
 41
0.1058
 66
1
 10
0
 20
0
 30
0
  0
VERTEX
  8
LAYER_1
 10
107.6472
 20
-9.9639
 42
0.1153498763
  0
VERTEX
  8
LAYER_1
 10
107.5249
 20
-10.6371
 42
0.1675989241
  0
VERTEX
  8
LAYER_1
 10
107.6999
 20
-11.0484
 42
0.1501879982
  0
VERTEX
  8
LAYER_1
 10
108.1595
 20
-11.2918
 42
0.05257457891
  0
VERTEX
  8
LAYER_1
 10
108.5877
 20
-11.3357
  0
SEQEND
  0
POLYLINE
  8
LAYER_1
 40
0.1058
 41
0.1058
 66
1
 10
0
 20
0
 30
0
  0
VERTEX
  8
LAYER_1
 10
177.542
 20
-11.3351
  0
VERTEX
  8
LAYER_1
 10
108.5863
 20
-11.3351
  0
SEQEND
  0
POLYLINE
  8
LAYER_1
 40
0.1058
 41
0.1058
 66
1
 10
0
 20
0
 30
0
  0
VERTEX
  8
LAYER_1
 10
178.4825
 20
-9.9639
 42
0.05520676469
  0
VERTEX
  8
LAYER_1
 10
177.8633
 20
-8.7896
 42
0.04391146322
  0
VERTEX
  8
LAYER_1
 10
176.9835
 20
-7.7097
 42
0.03952292468
  0
VERTEX
  8
LAYER_1
 10
175.6416
 20
-6.5342
 42
0.03279263927
  0
VERTEX
  8
LAYER_1
 10
173.7718
 20
-5.3231
 42
0.0274269697
  0
VERTEX
  8
LAYER_1
 10
171.2162
 20
-4.0738
 42
0.0216559655
  0
VERTEX
  8
LAYER_1
 10
168.0688
 20
-2.8975
 42
0.026867812
  0
VERTEX
  8
LAYER_1
 10
162.0776
 20
-1.3002
 42
0.02950187204
  0
VERTEX
  8
LAYER_1
 10
151.8787
 20
0.2729
 42
0.02085997725
  0
VERTEX
  8
LAYER_1
 10
143.0641
 20
0.7455
  0
SEQEND
  0
POLYLINE
  8
LAYER_1
 40
0.1058
 41
0.1058
 66
1
 10
0
 20
0
 30
0
  0
VERTEX
  8
LAYER_1
 10
173.3431
 20
-11.3371
  0
VERTEX
  8
LAYER_1
 10
173.514
 20
-11.3344
  0
SEQEND
  0
POLYLINE
  8
LAYER_1
 40
0.1058
 41
0.1058
 66
1
 10
0
 20
0
 30
0
  0
VERTEX
  8
LAYER_1
 10
121.4207
 20
-14.3544
 42
0.05934408961
  0
VERTEX
  8
LAYER_1
 10
120.6127
 20
-13.4677
 42
0.05412487242
  0
VERTEX
  8
LAYER_1
 10
119.4937
 20
-12.6976
 42
0.04640788453
  0
VERTEX
  8
LAYER_1
 10
117.9933
 20
-12.0614
 42
0.03738419168
  0
VERTEX
  8
LAYER_1
 10
116.0745
 20
-11.6042
 42
0.04005401373
  0
VERTEX
  8
LAYER_1
 10
112.6157
 20
-11.3344
  0
SEQEND
  0
POLYLINE
  8
LAYER_1
 40
0.1058
 41
0.1058
 66
1
 10
0
 20
0
 30
0
  0
VERTEX
  8
LAYER_1
 10
178.4825
 20
-9.9639
 42
-0.114926616
  0
VERTEX
  8
LAYER_1
 10
178.6047
 20
-10.6371
 42
-0.1674471262
  0
VERTEX
  8
LAYER_1
 10
178.4304
 20
-11.0484
 42
-0.1504858961
  0
VERTEX
  8
LAYER_1
 10
177.9717
 20
-11.2918
 42
-0.05263570813
  0
VERTEX
  8
LAYER_1
 10
177.544
 20
-11.3357
  0
SEQEND
  0
POLYLINE
  8
LAYER_1
 40
0.1058
 41
0.1058
 66
1
 10
0
 20
0
 30
0
  0
VERTEX
  8
LAYER_1
 10
177.544
 20
-11.3351
  0
VERTEX
  8
LAYER_1
 10
177.542
 20
-11.3351
  0
SEQEND
  0
POLYLINE
  8
LAYER_1
 40
0.1058
 41
0.1058
 66
1
 10
0
 20
0
 30
0
  0
VERTEX
  8
LAYER_1
 10
140.0462
 20
-70.8071
  0
VERTEX
  8
LAYER_1
 10
146.0855
 20
-70.8071
  0
SEQEND
  0
POLYLINE
  8
LAYER_1
 40
0.1058
 41
0.1058
 66
1
 10
0
 20
0
 30
0
  0
VERTEX
  8
LAYER_1
 10
138.159
 20
-67.0829
  0
VERTEX
  8
LAYER_1
 10
147.972
 20
-67.0829
  0
SEQEND
  0
POLYLINE
  8
LAYER_1
 40
0.1058
 41
0.1058
 66
1
 10
0
 20
0
 30
0
  0
VERTEX
  8
LAYER_1
 10
117.1415
 20
-82.776
  0
VERTEX
  8
LAYER_1
 10
112.1572
 20
-81.1637
  0
SEQEND
  0
POLYLINE
  8
LAYER_1
 40
0.1058
 41
0.1058
 66
1
 10
0
 20
0
 30
0
  0
VERTEX
  8
LAYER_1
 10
168.9881
 20
-82.776
  0
VERTEX
  8
LAYER_1
 10
173.9718
 20
-81.1637
  0
SEQEND
  0
POLYLINE
  8
LAYER_1
 40
0.1058
 41
0.1058
 66
1
 10
0
 20
0
 30
0
  0
VERTEX
  8
LAYER_1
 10
112.1585
 20
-81.1637
  0
VERTEX
  8
LAYER_1
 10
173.9718
 20
-81.1637
  0
SEQEND
  0
POLYLINE
  8
LAYER_1
 40
0.1058
 41
0.1058
 66
1
 10
0
 20
0
 30
0
  0
VERTEX
  8
LAYER_1
 10
112.1585
 20
-79.7547
  0
VERTEX
  8
LAYER_1
 10
173.9718
 20
-79.7547
  0
SEQEND
  0
POLYLINE
  8
LAYER_1
 40
0.1058
 41
0.1058
 66
1
 10
0
 20
0
 30
0
  0
VERTEX
  8
LAYER_1
 10
135.3227
 20
-106.1957
  0
VERTEX
  8
LAYER_1
 10
135.3227
 20
-102.608
  0
SEQEND
  0
POLYLINE
  8
LAYER_1
 40
0.1058
 41
0.1058
 66
1
 10
0
 20
0
 30
0
  0
VERTEX
  8
LAYER_1
 10
122.6785
 20
-102.608
  0
VERTEX
  8
LAYER_1
 10
163.4519
 20
-102.608
  0
SEQEND
  0
POLYLINE
  8
LAYER_1
 40
0.1058
 41
0.1058
 66
1
 10
0
 20
0
 30
0
  0
VERTEX
  8
LAYER_1
 10
147.5948
 20
-109.6546
  0
VERTEX
  8
LAYER_1
 10
138.5349
 20
-109.6546
  0
SEQEND
  0
POLYLINE
  8
LAYER_1
 40
0.1058
 41
0.1058
 66
1
 10
0
 20
0
 30
0
  0
VERTEX
  8
LAYER_1
 10
135.3227
 20
-106.1957
  0
VERTEX
  8
LAYER_1
 10
150.8056
 20
-106.1957
  0
SEQEND
  0
POLYLINE
  8
LAYER_1
 40
0.1058
 41
0.1058
 66
1
 10
0
 20
0
 30
0
  0
VERTEX
  8
LAYER_1
 10
141.0512
 20
-146.8489
  0
VERTEX
  8
LAYER_1
 10
145.0785
 20
-146.8489
  0
SEQEND
  0
POLYLINE
  8
LAYER_1
 40
0.1058
 41
0.1058
 66
1
 10
0
 20
0
 30
0
  0
VERTEX
  8
LAYER_1
 10
173.065
 20
-167.8733
  0
VERTEX
  8
LAYER_1
 10
113.0646
 20
-167.8733
  0
SEQEND
  0
POLYLINE
  8
LAYER_1
 40
0.1058
 41
0.1058
 66
1
 10
0
 20
0
 30
0
  0
VERTEX
  8
LAYER_1
 10
113.0646
 20
-162.838
  0
VERTEX
  8
LAYER_1
 10
173.0644
 20
-162.838
  0
SEQEND
  0
POLYLINE
  8
LAYER_1
 40
0.1058
 41
0.1058
 66
1
 10
0
 20
0
 30
0
  0
VERTEX
  8
LAYER_1
 10
111.8547
 20
-167.8733
  0
VERTEX
  8
LAYER_1
 10
174.2743
 20
-167.8733
  0
SEQEND
  0
POLYLINE
  8
LAYER_1
 40
0.1058
 41
0.1058
 66
1
 10
0
 20
0
 30
0
  0
VERTEX
  8
LAYER_1
 10
111.8547
 20
-173.7114
  0
VERTEX
  8
LAYER_1
 10
174.2743
 20
-173.7114
  0
SEQEND
  0
POLYLINE
  8
LAYER_1
 40
0.1058
 41
0.1058
 66
1
 10
0
 20
0
 30
0
  0
VERTEX
  8
LAYER_1
 10
162.8476
 20
-199.7887
  0
VERTEX
  8
LAYER_1
 10
123.2814
 20
-199.7887
  0
SEQEND
  0
POLYLINE
  8
LAYER_1
 40
0.1058
 41
0.1058
 66
1
 10
0
 20
0
 30
0
  0
VERTEX
  8
LAYER_1
 10
118.0476
 20
-189.8213
  0
VERTEX
  8
LAYER_1
 10
168.0821
 20
-189.8213
  0
SEQEND
  0
POLYLINE
  8
LAYER_1
 40
0.1058
 41
0.1058
 66
1
 10
0
 20
0
 30
0
  0
VERTEX
  8
LAYER_1
 10
113.0646
 20
-167.8733
  0
VERTEX
  8
LAYER_1
 10
113.0646
 20
-162.838
  0
SEQEND
  0
POLYLINE
  8
LAYER_1
 40
0.1058
 41
0.1058
 66
1
 10
0
 20
0
 30
0
  0
VERTEX
  8
LAYER_1
 10
173.065
 20
-162.838
  0
VERTEX
  8
LAYER_1
 10
173.065
 20
-167.8733
  0
SEQEND
  0
POLYLINE
  8
LAYER_1
 40
0.1058
 41
0.1058
 66
1
 10
0
 20
0
 30
0
  0
VERTEX
  8
LAYER_1
 10
123.282
 20
-199.7887
  0
VERTEX
  8
LAYER_1
 10
122.2747
 20
-198.7827
  0
SEQEND
  0
POLYLINE
  8
LAYER_1
 40
0.1058
 41
0.1058
 66
1
 10
0
 20
0
 30
0
  0
VERTEX
  8
LAYER_1
 10
163.8549
 20
-198.7827
  0
VERTEX
  8
LAYER_1
 10
162.8476
 20
-199.7873
  0
SEQEND
  0
POLYLINE
  8
LAYER_1
 40
0.1058
 41
0.1058
 66
1
 10
0
 20
0
 30
0
  0
VERTEX
  8
LAYER_1
 10
122.2747
 20
-198.7827
  0
VERTEX
  8
LAYER_1
 10
122.2747
 20
-189.8227
  0
SEQEND
  0
POLYLINE
  8
LAYER_1
 40
0.1058
 41
0.1058
 66
1
 10
0
 20
0
 30
0
  0
VERTEX
  8
LAYER_1
 10
163.8549
 20
-189.8213
  0
VERTEX
  8
LAYER_1
 10
163.8549
 20
-198.7827
  0
SEQEND
  0
POLYLINE
  8
LAYER_1
 40
0.1058
 41
0.1058
 66
1
 10
0
 20
0
 30
0
  0
VERTEX
  8
LAYER_1
 10
118.0476
 20
-189.8213
  0
VERTEX
  8
LAYER_1
 10
118.0476
 20
-176.229
  0
SEQEND
  0
POLYLINE
  8
LAYER_1
 40
0.1058
 41
0.1058
 66
1
 10
0
 20
0
 30
0
  0
VERTEX
  8
LAYER_1
 10
168.0821
 20
-176.229
  0
VERTEX
  8
LAYER_1
 10
168.0821
 20
-189.8227
  0
SEQEND
  0
POLYLINE
  8
LAYER_1
 40
0.1058
 41
0.1058
 66
1
 10
0
 20
0
 30
0
  0
VERTEX
  8
LAYER_1
 10
118.0476
 20
-176.229
 42
0.06937028247
  0
VERTEX
  8
LAYER_1
 10
117.9174
 20
-175.1328
 42
0.09980562229
  0
VERTEX
  8
LAYER_1
 10
117.5779
 20
-174.4483
 42
0.1069672042
  0
VERTEX
  8
LAYER_1
 10
117.0345
 20
-174.0091
 42
0.08535585349
  0
VERTEX
  8
LAYER_1
 10
116.158
 20
-173.7536
 42
0.03539944892
  0
VERTEX
  8
LAYER_1
 10
115.5857
 20
-173.7114
  0
SEQEND
  0
POLYLINE
  8
LAYER_1
 40
0.1058
 41
0.1058
 66
1
 10
0
 20
0
 30
0
  0
VERTEX
  8
LAYER_1
 10
170.5274
 20
-173.7114
 42
0.06945655334
  0
VERTEX
  8
LAYER_1
 10
169.4421
 20
-173.8713
 42
0.0994845248
  0
VERTEX
  8
LAYER_1
 10
168.7703
 20
-174.2279
 42
0.10624993
  0
VERTEX
  8
LAYER_1
 10
168.3464
 20
-174.7805
 42
0.08481569986
  0
VERTEX
  8
LAYER_1
 10
168.1118
 20
-175.659
 42
0.0351955482
  0
VERTEX
  8
LAYER_1
 10
168.0821
 20
-176.229
  0
SEQEND
  0
POLYLINE
  8
LAYER_1
 40
0.1058
 41
0.1058
 66
1
 10
0
 20
0
 30
0
  0
VERTEX
  8
LAYER_1
 10
111.8547
 20
-173.7114
  0
VERTEX
  8
LAYER_1
 10
111.8547
 20
-167.8733
  0
SEQEND
  0
POLYLINE
  8
LAYER_1
 40
0.1058
 41
0.1058
 66
1
 10
0
 20
0
 30
0
  0
VERTEX
  8
LAYER_1
 10
174.2743
 20
-167.8733
  0
VERTEX
  8
LAYER_1
 10
174.2743
 20
-173.7114
  0
SEQEND
  0
POLYLINE
  8
LAYER_1
 40
0.1058
 41
0.1058
 66
1
 10
0
 20
0
 30
0
  0
VERTEX
  8
LAYER_1
 10
140.0462
 20
-70.8071
  0
VERTEX
  8
LAYER_1
 10
137.7628
 20
-67.8966
  0
SEQEND
  0
POLYLINE
  8
LAYER_1
 40
0.1058
 41
0.1058
 66
1
 10
0
 20
0
 30
0
  0
VERTEX
  8
LAYER_1
 10
148.3661
 20
-67.8966
  0
VERTEX
  8
LAYER_1
 10
146.0855
 20
-70.8071
  0
SEQEND
  0
POLYLINE
  8
LAYER_1
 40
0.1058
 41
0.1058
 66
1
 10
0
 20
0
 30
0
  0
VERTEX
  8
LAYER_1
 10
146.0855
 20
-118.3136
  0
VERTEX
  8
LAYER_1
 10
146.0855
 20
-145.8436
  0
SEQEND
  0
POLYLINE
  8
LAYER_1
 40
0.1058
 41
0.1058
 66
1
 10
0
 20
0
 30
0
  0
VERTEX
  8
LAYER_1
 10
146.0851
 20
-109.6546
  0
VERTEX
  8
LAYER_1
 10
146.0851
 20
-112.2722
  0
SEQEND
  0
POLYLINE
  8
LAYER_1
 40
0.1058
 41
0.1058
 66
1
 10
0
 20
0
 30
0
  0
VERTEX
  8
LAYER_1
 10
146.0855
 20
-70.8071
  0
VERTEX
  8
LAYER_1
 10
146.0855
 20
-79.7553
  0
SEQEND
  0
POLYLINE
  8
LAYER_1
 40
0.1058
 41
0.1058
 66
1
 10
0
 20
0
 30
0
  0
VERTEX
  8
LAYER_1
 10
140.0462
 20
-79.7547
  0
VERTEX
  8
LAYER_1
 10
140.0462
 20
-70.8063
  0
SEQEND
  0
POLYLINE
  8
LAYER_1
 40
0.1058
 41
0.1058
 66
1
 10
0
 20
0
 30
0
  0
VERTEX
  8
LAYER_1
 10
140.0459
 20
-112.2722
  0
VERTEX
  8
LAYER_1
 10
140.0459
 20
-109.6546
  0
SEQEND
  0
POLYLINE
  8
LAYER_1
 40
0.1058
 41
0.1058
 66
1
 10
0
 20
0
 30
0
  0
VERTEX
  8
LAYER_1
 10
140.0462
 20
-145.843
  0
VERTEX
  8
LAYER_1
 10
140.0462
 20
-118.3121
  0
SEQEND
  0
POLYLINE
  8
LAYER_1
 40
0.1058
 41
0.1058
 66
1
 10
0
 20
0
 30
0
  0
VERTEX
  8
LAYER_1
 10
137.7635
 20
-67.8966
 42
-0.1735418843
  0
VERTEX
  8
LAYER_1
 10
137.595
 20
-67.4751
 42
-0.2389168344
  0
VERTEX
  8
LAYER_1
 10
137.7507
 20
-67.1896
 42
-0.1507044982
  0
VERTEX
  8
LAYER_1
 10
138.159
 20
-67.0822
  0
SEQEND
  0
POLYLINE
  8
LAYER_1
 40
0.1058
 41
0.1058
 66
1
 10
0
 20
0
 30
0
  0
VERTEX
  8
LAYER_1
 10
147.9713
 20
-67.0829
 42
-0.1732768624
  0
VERTEX
  8
LAYER_1
 10
148.4063
 20
-67.2107
 42
-0.2392183959
  0
VERTEX
  8
LAYER_1
 10
148.5345
 20
-67.5093
 42
-0.1505004961
  0
VERTEX
  8
LAYER_1
 10
148.3661
 20
-67.8973
  0
SEQEND
  0
POLYLINE
  8
LAYER_1
 40
0.1058
 41
0.1058
 66
1
 10
0
 20
0
 30
0
  0
VERTEX
  8
LAYER_1
 10
137.2857
 20
-54.4339
 42
0.1983379506
  0
VERTEX
  8
LAYER_1
 10
136.9938
 20
-54.1611
 42
0.08197341541
  0
VERTEX
  8
LAYER_1
 10
136.5484
 20
-54.0136
  0
SEQEND
  0
POLYLINE
  8
LAYER_1
 40
0.1058
 41
0.1058
 66
1
 10
0
 20
0
 30
0
  0
VERTEX
  8
LAYER_1
 10
137.2857
 20
-55.7789
 42
0.1956657917
  0
VERTEX
  8
LAYER_1
 10
136.9913
 20
-55.5075
 42
0.07996330938
  0
VERTEX
  8
LAYER_1
 10
136.5436
 20
-55.3579
  0
SEQEND
  0
POLYLINE
  8
LAYER_1
 40
0.1058
 41
0.1058
 66
1
 10
0
 20
0
 30
0
  0
VERTEX
  8
LAYER_1
 10
137.2857
 20
-57.1238
 42
0.1948208483
  0
VERTEX
  8
LAYER_1
 10
136.9922
 20
-56.8537
 42
0.08052255594
  0
VERTEX
  8
LAYER_1
 10
136.5463
 20
-56.7056
  0
SEQEND
  0
POLYLINE
  8
LAYER_1
 40
0.1058
 41
0.1058
 66
1
 10
0
 20
0
 30
0
  0
VERTEX
  8
LAYER_1
 10
137.2871
 20
-58.4729
 42
0.2003890039
  0
VERTEX
  8
LAYER_1
 10
136.9935
 20
-58.1971
 42
0.08386933159
  0
VERTEX
  8
LAYER_1
 10
136.5436
 20
-58.0505
  0
SEQEND
  0
POLYLINE
  8
LAYER_1
 40
0.1058
 41
0.1058
 66
1
 10
0
 20
0
 30
0
  0
VERTEX
  8
LAYER_1
 10
149.2918
 20
-53.492
 42
0.2500795658
  0
VERTEX
  8
LAYER_1
 10
148.8419
 20
-53.7628
  0
SEQEND
  0
POLYLINE
  8
LAYER_1
 40
0.1058
 41
0.1058
 66
1
 10
0
 20
0
 30
0
  0
VERTEX
  8
LAYER_1
 10
149.5778
 20
-54.6874
 42
0.1786391705
  0
VERTEX
  8
LAYER_1
 10
148.9138
 20
-54.991
 42
0.06745332125
  0
VERTEX
  8
LAYER_1
 10
148.8419
 20
-55.1077
  0
SEQEND
  0
POLYLINE
  8
LAYER_1
 40
0.1058
 41
0.1058
 66
1
 10
0
 20
0
 30
0
  0
VERTEX
  8
LAYER_1
 10
149.5771
 20
-56.0352
 42
0.180486298
  0
VERTEX
  8
LAYER_1
 10
148.9131
 20
-56.3373
 42
0.06835794368
  0
VERTEX
  8
LAYER_1
 10
148.8419
 20
-56.4541
  0
SEQEND
  0
POLYLINE
  8
LAYER_1
 40
0.1058
 41
0.1058
 66
1
 10
0
 20
0
 30
0
  0
VERTEX
  8
LAYER_1
 10
149.5826
 20
-57.3781
 42
0.1768807286
  0
VERTEX
  8
LAYER_1
 10
148.9164
 20
-57.6821
 42
0.06731172613
  0
VERTEX
  8
LAYER_1
 10
148.8447
 20
-57.7977
  0
SEQEND
  0
POLYLINE
  8
LAYER_1
 40
0.1058
 41
0.1058
 66
1
 10
0
 20
0
 30
0
  0
VERTEX
  8
LAYER_1
 10
136.5374
 20
-54.0074
 42
-0.3675364832
  0
VERTEX
  8
LAYER_1
 10
136.4092
 20
-53.8268
 42
-0.1944683012
  0
VERTEX
  8
LAYER_1
 10
136.7832
 20
-53.5376
 42
-0.00859975531
  0
VERTEX
  8
LAYER_1
 10
136.8709
 20
-53.4927
  0
SEQEND
  0
POLYLINE
  8
LAYER_1
 40
0.1058
 41
0.1058
 66
1
 10
0
 20
0
 30
0
  0
VERTEX
  8
LAYER_1
 10
136.5326
 20
-55.3516
 42
-0.3280610522
  0
VERTEX
  8
LAYER_1
 10
136.3579
 20
-55.1526
 42
-0.2230232953
  0
VERTEX
  8
LAYER_1
 10
136.7854
 20
-54.905
 42
0.1777201298
  0
VERTEX
  8
LAYER_1
 10
137.2871
 20
-54.5848
  0
SEQEND
  0
POLYLINE
  8
LAYER_1
 40
0.1058
 41
0.1058
 66
1
 10
0
 20
0
 30
0
  0
VERTEX
  8
LAYER_1
 10
136.5374
 20
-56.6994
 42
-0.3237665036
  0
VERTEX
  8
LAYER_1
 10
136.3612
 20
-56.498
 42
-0.2306330891
  0
VERTEX
  8
LAYER_1
 10
136.7357
 20
-56.2686
 42
0.1757315422
  0
VERTEX
  8
LAYER_1
 10
137.2871
 20
-55.9304
  0
SEQEND
  0
POLYLINE
  8
LAYER_1
 40
0.1058
 41
0.1058
 66
1
 10
0
 20
0
 30
0
  0
VERTEX
  8
LAYER_1
 10
136.5381
 20
-58.0457
 42
-0.3265001106
  0
VERTEX
  8
LAYER_1
 10
136.361
 20
-57.8476
 42
-0.2247657891
  0
VERTEX
  8
LAYER_1
 10
136.7858
 20
-57.5967
 42
0.1798319986
  0
VERTEX
  8
LAYER_1
 10
137.2857
 20
-57.2754
  0
SEQEND
  0
POLYLINE
  8
LAYER_1
 40
0.1058
 41
0.1058
 66
1
 10
0
 20
0
 30
0
  0
VERTEX
  8
LAYER_1
 10
148.8433
 20
-53.9109
 42
0.1798088513
  0
VERTEX
  8
LAYER_1
 10
149.2304
 20
-54.1854
 42
-0.1932569024
  0
VERTEX
  8
LAYER_1
 10
149.7644
 20
-54.4719
 42
-0.3860902031
  0
VERTEX
  8
LAYER_1
 10
149.5902
 20
-54.6806
  0
SEQEND
  0
POLYLINE
  8
LAYER_1
 40
0.1058
 41
0.1058
 66
1
 10
0
 20
0
 30
0
  0
VERTEX
  8
LAYER_1
 10
148.8453
 20
-55.26
 42
0.1768167398
  0
VERTEX
  8
LAYER_1
 10
149.2452
 20
-55.5382
 42
-0.19178753
  0
VERTEX
  8
LAYER_1
 10
149.7661
 20
-55.8232
 42
-0.3911118517
  0
VERTEX
  8
LAYER_1
 10
149.5902
 20
-56.0269
  0
SEQEND
  0
POLYLINE
  8
LAYER_1
 40
0.1058
 41
0.1058
 66
1
 10
0
 20
0
 30
0
  0
VERTEX
  8
LAYER_1
 10
149.5902
 20
-57.3739
  0
VERTEX
  8
LAYER_1
 10
149.5874
 20
-57.3753
  0
SEQEND
  0
POLYLINE
  8
LAYER_1
 40
0.1058
 41
0.1058
 66
1
 10
0
 20
0
 30
0
  0
VERTEX
  8
LAYER_1
 10
148.844
 20
-56.6043
 42
0.1776662877
  0
VERTEX
  8
LAYER_1
 10
149.2324
 20
-56.8788
 42
-0.1921025924
  0
VERTEX
  8
LAYER_1
 10
149.7677
 20
-57.1671
 42
-0.368115961
  0
VERTEX
  8
LAYER_1
 10
149.6325
 20
-57.3489
 42
-0.02149401522
  0
VERTEX
  8
LAYER_1
 10
149.5909
 20
-57.3719
  0
SEQEND
  0
POLYLINE
  8
LAYER_1
 40
0.1058
 41
0.1058
 66
1
 10
0
 20
0
 30
0
  0
VERTEX
  8
LAYER_1
 10
148.844
 20
-57.9513
 42
0.2411817058
  0
VERTEX
  8
LAYER_1
 10
149.1185
 20
-58.1519
 42
-0.2022725443
  0
VERTEX
  8
LAYER_1
 10
149.613
 20
-58.3159
 42
-0.1351308587
  0
VERTEX
  8
LAYER_1
 10
149.6963
 20
-58.526
  0
SEQEND
  0
POLYLINE
  8
LAYER_1
 40
0.1058
 41
0.1058
 66
1
 10
0
 20
0
 30
0
  0
VERTEX
  8
LAYER_1
 10
135.5149
 20
-53.492
 42
-0.4142560085
  0
VERTEX
  8
LAYER_1
 10
135.313
 20
-53.2901
  0
SEQEND
  0
POLYLINE
  8
LAYER_1
 40
0.1058
 41
0.1058
 66
1
 10
0
 20
0
 30
0
  0
VERTEX
  8
LAYER_1
 10
135.5163
 20
-53.492
  0
VERTEX
  8
LAYER_1
 10
135.5149
 20
-53.492
  0
SEQEND
  0
POLYLINE
  8
LAYER_1
 40
0.1058
 41
0.1058
 66
1
 10
0
 20
0
 30
0
  0
VERTEX
  8
LAYER_1
 10
135.5163
 20
-53.492
  0
SEQEND
  0
POLYLINE
  8
LAYER_1
 40
0.1058
 41
0.1058
 66
1
 10
0
 20
0
 30
0
  0
VERTEX
  8
LAYER_1
 10
140.3215
 20
-53.492
  0
VERTEX
  8
LAYER_1
 10
140.2967
 20
-53.492
  0
SEQEND
  0
POLYLINE
  8
LAYER_1
 40
0.1058
 41
0.1058
 66
1
 10
0
 20
0
 30
0
  0
VERTEX
  8
LAYER_1
 10
150.8166
 20
-53.2901
  0
VERTEX
  8
LAYER_1
 10
150.8166
 20
-47.7545
  0
SEQEND
  0
POLYLINE
  8
LAYER_1
 40
0.1058
 41
0.1058
 66
1
 10
0
 20
0
 30
0
  0
VERTEX
  8
LAYER_1
 10
148.844
 20
-57.9513
  0
VERTEX
  8
LAYER_1
 10
148.844
 20
-57.7977
  0
SEQEND
  0
POLYLINE
  8
LAYER_1
 40
0.1058
 41
0.1058
 66
1
 10
0
 20
0
 30
0
  0
VERTEX
  8
LAYER_1
 10
148.844
 20
-56.6015
  0
VERTEX
  8
LAYER_1
 10
148.844
 20
-56.4527
  0
SEQEND
  0
POLYLINE
  8
LAYER_1
 40
0.1058
 41
0.1058
 66
1
 10
0
 20
0
 30
0
  0
VERTEX
  8
LAYER_1
 10
148.844
 20
-55.2579
  0
VERTEX
  8
LAYER_1
 10
148.844
 20
-55.1084
  0
SEQEND
  0
POLYLINE
  8
LAYER_1
 40
0.1058
 41
0.1058
 66
1
 10
0
 20
0
 30
0
  0
VERTEX
  8
LAYER_1
 10
148.844
 20
-53.9109
  0
VERTEX
  8
LAYER_1
 10
148.844
 20
-53.7614
  0
SEQEND
  0
POLYLINE
  8
LAYER_1
 40
0.1058
 41
0.1058
 66
1
 10
0
 20
0
 30
0
  0
VERTEX
  8
LAYER_1
 10
130.9343
 20
-47.7538
  0
VERTEX
  8
LAYER_1
 10
130.9343
 20
-33.558
  0
SEQEND
  0
POLYLINE
  8
LAYER_1
 40
0.1058
 41
0.1058
 66
1
 10
0
 20
0
 30
0
  0
VERTEX
  8
LAYER_1
 10
164.0548
 20
-30.4374
 42
0.20042195
  0
VERTEX
  8
LAYER_1
 10
164.4409
 20
-30.3194
 42
0.2036063645
  0
VERTEX
  8
LAYER_1
 10
164.5598
 20
-29.9338
  0
SEQEND
  0
POLYLINE
  8
LAYER_1
 40
0.1058
 41
0.1058
 66
1
 10
0
 20
0
 30
0
  0
VERTEX
  8
LAYER_1
 10
161.5088
 20
-30.4388
 42
0.2034926961
  0
VERTEX
  8
LAYER_1
 10
161.1379
 20
-30.5778
 42
0.1820033884
  0
VERTEX
  8
LAYER_1
 10
161.0348
 20
-30.9411
  0
SEQEND
  0
POLYLINE
  8
LAYER_1
 40
0.1058
 41
0.1058
 66
1
 10
0
 20
0
 30
0
  0
VERTEX
  8
LAYER_1
 10
161.0355
 20
-30.9404
  0
VERTEX
  8
LAYER_1
 10
161.0355
 20
-31.8458
  0
SEQEND
  0
POLYLINE
  8
LAYER_1
 40
0.1058
 41
0.1058
 66
1
 10
0
 20
0
 30
0
  0
VERTEX
  8
LAYER_1
 10
161.0355
 20
-27.8198
  0
VERTEX
  8
LAYER_1
 10
161.0355
 20
-28.7259
  0
SEQEND
  0
POLYLINE
  8
LAYER_1
 40
0.1058
 41
0.1058
 66
1
 10
0
 20
0
 30
0
  0
VERTEX
  8
LAYER_1
 10
161.0355
 20
-28.7259
 42
0.2022745295
  0
VERTEX
  8
LAYER_1
 10
161.1526
 20
-29.1051
 42
0.1832211027
  0
VERTEX
  8
LAYER_1
 10
161.5095
 20
-29.2296
  0
SEQEND
  0
POLYLINE
  8
LAYER_1
 40
0.1058
 41
0.1058
 66
1
 10
0
 20
0
 30
0
  0
VERTEX
  8
LAYER_1
 10
164.5591
 20
-29.7326
 42
0.2013853226
  0
VERTEX
  8
LAYER_1
 10
164.4405
 20
-29.3474
 42
0.2010983756
  0
VERTEX
  8
LAYER_1
 10
164.0548
 20
-29.2289
  0
SEQEND
  0
POLYLINE
  8
LAYER_1
 40
0.1058
 41
0.1058
 66
1
 10
0
 20
0
 30
0
  0
VERTEX
  8
LAYER_1
 10
126.856
 20
-32.2495
  0
VERTEX
  8
LAYER_1
 10
126.856
 20
-31.8458
  0
SEQEND
  0
POLYLINE
  8
LAYER_1
 40
0.1058
 41
0.1058
 66
1
 10
0
 20
0
 30
0
  0
VERTEX
  8
LAYER_1
 10
125.85
 20
-33.558
  0
VERTEX
  8
LAYER_1
 10
125.85
 20
-32.2502
  0
SEQEND
  0
POLYLINE
  8
LAYER_1
 40
0.1058
 41
0.1058
 66
1
 10
0
 20
0
 30
0
  0
VERTEX
  8
LAYER_1
 10
141.0515
 20
-146.8489
  0
VERTEX
  8
LAYER_1
 10
140.0462
 20
-145.8422
  0
SEQEND
  0
POLYLINE
  8
LAYER_1
 40
0.1058
 41
0.1058
 66
1
 10
0
 20
0
 30
0
  0
VERTEX
  8
LAYER_1
 10
146.0841
 20
-145.843
  0
VERTEX
  8
LAYER_1
 10
145.0775
 20
-146.8489
  0
SEQEND
  0
POLYLINE
  8
LAYER_1
 40
0.1058
 41
0.1058
 66
1
 10
0
 20
0
 30
0
  0
VERTEX
  8
LAYER_1
 10
150.8662
 20
-102.608
  0
VERTEX
  8
LAYER_1
 10
150.8662
 20
-106.0897
  0
SEQEND
  0
POLYLINE
  8
LAYER_1
 40
0.1058
 41
0.1058
 66
1
 10
0
 20
0
 30
0
  0
VERTEX
  8
LAYER_1
 10
138.5349
 20
-109.6546
  0
VERTEX
  8
LAYER_1
 10
135.324
 20
-106.1957
  0
SEQEND
  0
POLYLINE
  8
LAYER_1
 40
0.1058
 41
0.1058
 66
1
 10
0
 20
0
 30
0
  0
VERTEX
  8
LAYER_1
 10
150.807
 20
-106.1957
  0
VERTEX
  8
LAYER_1
 10
147.5948
 20
-109.654
  0
SEQEND
  0
POLYLINE
  8
LAYER_1
 40
0.1058
 41
0.1058
 66
1
 10
0
 20
0
 30
0
  0
VERTEX
  8
LAYER_1
 10
173.9711
 20
-79.7547
 42
-0.1597238054
  0
VERTEX
  8
LAYER_1
 10
174.458
 20
-79.8761
 42
-0.1935352585
  0
VERTEX
  8
LAYER_1
 10
174.6548
 20
-80.2186
 42
-0.06834220236
  0
VERTEX
  8
LAYER_1
 10
174.6753
 20
-80.4588
 42
-0.1558744746
  0
VERTEX
  8
LAYER_1
 10
174.5586
 20
-80.9404
 42
-0.1957477736
  0
VERTEX
  8
LAYER_1
 10
174.2208
 20
-81.1414
 42
-0.07224929878
  0
VERTEX
  8
LAYER_1
 10
173.9711
 20
-81.1637
  0
SEQEND
  0
POLYLINE
  8
LAYER_1
 40
0.1058
 41
0.1058
 66
1
 10
0
 20
0
 30
0
  0
VERTEX
  8
LAYER_1
 10
112.1585
 20
-81.1637
  0
VERTEX
  8
LAYER_1
 10
112.1048
 20
-81.1616
  0
VERTEX
  8
LAYER_1
 10
112.082
 20
-81.1589
  0
VERTEX
  8
LAYER_1
 10
112.0166
 20
-81.1492
  0
VERTEX
  8
LAYER_1
 10
111.8884
 20
-81.1106
 42
-0.09755232013
  0
VERTEX
  8
LAYER_1
 10
111.661
 20
-80.9597
 42
-0.09784640226
  0
VERTEX
  8
LAYER_1
 10
111.5074
 20
-80.7296
 42
-0.09673979268
  0
VERTEX
  8
LAYER_1
 10
111.4544
 20
-80.4595
  0
VERTEX
  8
LAYER_1
 10
111.4674
 20
-80.3217
  0
VERTEX
  8
LAYER_1
 10
111.5074
 20
-80.1908
 42
-0.09750856352
  0
VERTEX
  8
LAYER_1
 10
111.661
 20
-79.9586
 42
-0.1036290778
  0
VERTEX
  8
LAYER_1
 10
111.8884
 20
-79.8098
  0
VERTEX
  8
LAYER_1
 10
112.0166
 20
-79.7691
  0
VERTEX
  8
LAYER_1
 10
112.082
 20
-79.7595
  0
VERTEX
  8
LAYER_1
 10
112.1048
 20
-79.7574
  0
VERTEX
  8
LAYER_1
 10
112.1585
 20
-79.7553
  0
SEQEND
  0
POLYLINE
  8
LAYER_1
 40
0.1058
 41
0.1058
 66
1
 10
0
 20
0
 30
0
  0
VERTEX
  8
LAYER_1
 10
122.6785
 20
-102.608
  0
VERTEX
  8
LAYER_1
 10
122.6785
 20
-89.8226
  0
SEQEND
  0
POLYLINE
  8
LAYER_1
 40
0.1058
 41
0.1058
 66
1
 10
0
 20
0
 30
0
  0
VERTEX
  8
LAYER_1
 10
163.4512
 20
-89.8226
  0
VERTEX
  8
LAYER_1
 10
163.4512
 20
-102.608
  0
SEQEND
  0
POLYLINE
  8
LAYER_1
 40
0.1058
 41
0.1058
 66
1
 10
0
 20
0
 30
0
  0
VERTEX
  8
LAYER_1
 10
117.1408
 20
-82.776
  0
SEQEND
  0
POLYLINE
  8
LAYER_1
 40
0.1058
 41
0.1058
 66
1
 10
0
 20
0
 30
0
  0
VERTEX
  8
LAYER_1
 10
122.6785
 20
-89.8226
 42
0.3191583201
  0
VERTEX
  8
LAYER_1
 10
117.1415
 20
-82.776
  0
SEQEND
  0
POLYLINE
  8
LAYER_1
 40
0.1058
 41
0.1058
 66
1
 10
0
 20
0
 30
0
  0
VERTEX
  8
LAYER_1
 10
168.9881
 20
-82.776
 42
0.319180625
  0
VERTEX
  8
LAYER_1
 10
163.4512
 20
-89.8226
  0
SEQEND
  0
POLYLINE
  8
LAYER_1
 40
0.1058
 41
0.1058
 66
1
 10
0
 20
0
 30
0
  0
VERTEX
  8
LAYER_1
 10
144.2654
 20
-57.6592
  0
VERTEX
  8
LAYER_1
 10
144.2069
 20
-57.662
  0
SEQEND
  0
POLYLINE
  8
LAYER_1
 40
0.1058
 41
0.1058
 66
1
 10
0
 20
0
 30
0
  0
VERTEX
  8
LAYER_1
 10
146.3084
 20
-56.2419
  0
VERTEX
  8
LAYER_1
 10
146.2216
 20
-56.2446
  0
SEQEND
  0
POLYLINE
  8
LAYER_1
 40
0.1058
 41
0.1058
 66
1
 10
0
 20
0
 30
0
  0
VERTEX
  8
LAYER_1
 10
146.4359
 20
-53.5444
  0
VERTEX
  8
LAYER_1
 10
146.3001
 20
-53.5506
  0
SEQEND
  0
POLYLINE
  8
LAYER_1
 40
0.1058
 41
0.1058
 66
1
 10
0
 20
0
 30
0
  0
VERTEX
  8
LAYER_1
 10
147.6857
 20
-53.492
  0
VERTEX
  8
LAYER_1
 10
147.5886
 20
-53.4975
  0
SEQEND
  0
POLYLINE
  8
LAYER_1
 40
0.1058
 41
0.1058
 66
1
 10
0
 20
0
 30
0
  0
VERTEX
  8
LAYER_1
 10
137.2871
 20
-54.4325
  0
VERTEX
  8
LAYER_1
 10
137.2871
 20
-54.4304
  0
SEQEND
  0
POLYLINE
  8
LAYER_1
 40
0.1058
 41
0.1058
 66
1
 10
0
 20
0
 30
0
  0
VERTEX
  8
LAYER_1
 10
148.8412
 20
-56.6105
  0
VERTEX
  8
LAYER_1
 10
148.8405
 20
-56.6119
  0
SEQEND
  0
POLYLINE
  8
LAYER_1
 40
0.1058
 41
0.1058
 66
1
 10
0
 20
0
 30
0
  0
VERTEX
  8
LAYER_1
 10
148.844
 20
-56.605
  0
VERTEX
  8
LAYER_1
 10
148.8433
 20
-56.6077
  0
SEQEND
  0
POLYLINE
  8
LAYER_1
 40
0.1058
 41
0.1058
 66
1
 10
0
 20
0
 30
0
  0
VERTEX
  8
LAYER_1
 10
137.2884
 20
-54.5827
  0
VERTEX
  8
LAYER_1
 10
137.2857
 20
-54.5827
  0
SEQEND
  0
POLYLINE
  8
LAYER_1
 40
0.1058
 41
0.1058
 66
1
 10
0
 20
0
 30
0
  0
VERTEX
  8
LAYER_1
 10
136.5484
 20
-54.0136
 42
-0.4612873988
  0
VERTEX
  8
LAYER_1
 10
136.3336
 20
-53.8522
 42
-0.1341331921
  0
VERTEX
  8
LAYER_1
 10
137.1929
 20
-53.8313
 42
-0.003590192371
  0
VERTEX
  8
LAYER_1
 10
137.8913
 20
-53.8565
  0
VERTEX
  8
LAYER_1
 10
139.2921
 20
-53.7938
  0
VERTEX
  8
LAYER_1
 10
142.095
 20
-53.6918
 42
0.005444874005
  0
VERTEX
  8
LAYER_1
 10
147.705
 20
-53.4913
  0
SEQEND
  0
POLYLINE
  8
LAYER_1
 40
0.1058
 41
0.1058
 66
1
 10
0
 20
0
 30
0
  0
VERTEX
  8
LAYER_1
 10
136.5443
 20
-55.3579
 42
-0.5136721801
  0
VERTEX
  8
LAYER_1
 10
136.5381
 20
-55.3331
  0
VERTEX
  8
LAYER_1
 10
136.596
 20
-55.3124
  0
VERTEX
  8
LAYER_1
 10
136.7062
 20
-55.2938
  0
VERTEX
  8
LAYER_1
 10
136.8723
 20
-55.2745
  0
VERTEX
  8
LAYER_1
 10
137.0928
 20
-55.2538
  0
VERTEX
  8
LAYER_1
 10
137.3821
 20
-55.2318
  0
VERTEX
  8
LAYER_1
 10
137.726
 20
-55.2118
  0
VERTEX
  8
LAYER_1
 10
138.6809
 20
-55.1635
  0
VERTEX
  8
LAYER_1
 10
140.7191
 20
-55.0857
  0
VERTEX
  8
LAYER_1
 10
144.6596
 20
-54.9548
  0
VERTEX
  8
LAYER_1
 10
146.0073
 20
-54.9059
  0
VERTEX
  8
LAYER_1
 10
148.0178
 20
-54.8218
  0
VERTEX
  8
LAYER_1
 10
148.6731
 20
-54.7867
  0
VERTEX
  8
LAYER_1
 10
149.163
 20
-54.7488
  0
VERTEX
  8
LAYER_1
 10
149.3428
 20
-54.7302
  0
VERTEX
  8
LAYER_1
 10
149.4599
 20
-54.715
  0
VERTEX
  8
LAYER_1
 10
149.5516
 20
-54.6957
  0
VERTEX
  8
LAYER_1
 10
149.5764
 20
-54.6888
  0
VERTEX
  8
LAYER_1
 10
149.5916
 20
-54.6813
  0
SEQEND
  0
POLYLINE
  8
LAYER_1
 40
0.1058
 41
0.1058
 66
1
 10
0
 20
0
 30
0
  0
VERTEX
  8
LAYER_1
 10
136.5478
 20
-56.7056
  0
VERTEX
  8
LAYER_1
 10
136.5312
 20
-56.6925
  0
VERTEX
  8
LAYER_1
 10
136.5402
 20
-56.678
  0
VERTEX
  8
LAYER_1
 10
136.6036
 20
-56.6573
  0
VERTEX
  8
LAYER_1
 10
136.7166
 20
-56.638
  0
VERTEX
  8
LAYER_1
 10
136.9129
 20
-56.6146
  0
VERTEX
  8
LAYER_1
 10
137.1603
 20
-56.5947
  0
VERTEX
  8
LAYER_1
 10
137.8217
 20
-56.5519
  0
VERTEX
  8
LAYER_1
 10
138.6816
 20
-56.5106
  0
VERTEX
  8
LAYER_1
 10
140.7197
 20
-56.4327
  0
VERTEX
  8
LAYER_1
 10
144.6575
 20
-56.2997
  0
VERTEX
  8
LAYER_1
 10
146.0073
 20
-56.2529
  0
VERTEX
  8
LAYER_1
 10
148.0144
 20
-56.1695
  0
VERTEX
  8
LAYER_1
 10
148.6738
 20
-56.1323
  0
VERTEX
  8
LAYER_1
 10
149.1458
 20
-56.0972
  0
VERTEX
  8
LAYER_1
 10
149.3256
 20
-56.0772
  0
VERTEX
  8
LAYER_1
 10
149.4613
 20
-56.06
  0
VERTEX
  8
LAYER_1
 10
149.5481
 20
-56.0421
  0
VERTEX
  8
LAYER_1
 10
149.5909
 20
-56.0283
  0
SEQEND
  0
POLYLINE
  8
LAYER_1
 40
0.1058
 41
0.1058
 66
1
 10
0
 20
0
 30
0
  0
VERTEX
  8
LAYER_1
 10
149.5902
 20
-57.3739
  0
VERTEX
  8
LAYER_1
 10
149.5922
 20
-57.3732
  0
SEQEND
  0
POLYLINE
  8
LAYER_1
 40
0.1058
 41
0.1058
 66
1
 10
0
 20
0
 30
0
  0
VERTEX
  8
LAYER_1
 10
136.5443
 20
-58.0499
  0
VERTEX
  8
LAYER_1
 10
136.5312
 20
-58.0354
  0
VERTEX
  8
LAYER_1
 10
136.5388
 20
-58.0244
  0
VERTEX
  8
LAYER_1
 10
136.587
 20
-58.0071
  0
VERTEX
  8
LAYER_1
 10
136.691
 20
-57.9871
  0
VERTEX
  8
LAYER_1
 10
136.813
 20
-57.9713
  0
VERTEX
  8
LAYER_1
 10
136.9715
 20
-57.9562
  0
VERTEX
  8
LAYER_1
 10
137.4628
 20
-57.9189
  0
VERTEX
  8
LAYER_1
 10
138.1187
 20
-57.8838
  0
VERTEX
  8
LAYER_1
 10
140.1334
 20
-57.799
  0
VERTEX
  8
LAYER_1
 10
141.4832
 20
-57.7515
  0
VERTEX
  8
LAYER_1
 10
145.4216
 20
-57.6206
  0
VERTEX
  8
LAYER_1
 10
147.4584
 20
-57.5407
  0
VERTEX
  8
LAYER_1
 10
148.4092
 20
-57.4945
  0
VERTEX
  8
LAYER_1
 10
149.0162
 20
-57.4546
  0
VERTEX
  8
LAYER_1
 10
149.2718
 20
-57.4304
  0
VERTEX
  8
LAYER_1
 10
149.4234
 20
-57.4118
  0
VERTEX
  8
LAYER_1
 10
149.5288
 20
-57.3939
  0
VERTEX
  8
LAYER_1
 10
149.5874
 20
-57.3753
  0
SEQEND
  0
POLYLINE
  8
LAYER_1
 40
0.1058
 41
0.1058
 66
1
 10
0
 20
0
 30
0
  0
VERTEX
  8
LAYER_1
 10
150.6106
 20
-53.492
  0
VERTEX
  8
LAYER_1
 10
150.6154
 20
-53.492
  0
SEQEND
  0
POLYLINE
  8
LAYER_1
 40
0.1058
 41
0.1058
 66
1
 10
0
 20
0
 30
0
  0
VERTEX
  8
LAYER_1
 10
150.0539
 20
-53.492
  0
VERTEX
  8
LAYER_1
 10
150.0753
 20
-53.492
  0
SEQEND
  0
POLYLINE
  8
LAYER_1
 40
0.1058
 41
0.1058
 66
1
 10
0
 20
0
 30
0
  0
VERTEX
  8
LAYER_1
 10
149.9912
 20
-53.492
  0
VERTEX
  8
LAYER_1
 10
150.005
 20
-53.492
  0
SEQEND
  0
POLYLINE
  8
LAYER_1
 40
0.1058
 41
0.1058
 66
1
 10
0
 20
0
 30
0
  0
VERTEX
  8
LAYER_1
 10
148.4733
 20
-53.492
  0
VERTEX
  8
LAYER_1
 10
148.4878
 20
-53.492
  0
SEQEND
  0
POLYLINE
  8
LAYER_1
 40
0.1058
 41
0.1058
 66
1
 10
0
 20
0
 30
0
  0
VERTEX
  8
LAYER_1
 10
146.0107
 20
-53.492
  0
VERTEX
  8
LAYER_1
 10
146.0355
 20
-53.492
  0
SEQEND
  0
POLYLINE
  8
LAYER_1
 40
0.1058
 41
0.1058
 66
1
 10
0
 20
0
 30
0
  0
VERTEX
  8
LAYER_1
 10
145.8998
 20
-53.492
  0
VERTEX
  8
LAYER_1
 10
145.948
 20
-53.492
  0
SEQEND
  0
POLYLINE
  8
LAYER_1
 40
0.1058
 41
0.1058
 66
1
 10
0
 20
0
 30
0
  0
VERTEX
  8
LAYER_1
 10
143.2974
 20
-53.492
  0
VERTEX
  8
LAYER_1
 10
143.3001
 20
-53.492
  0
SEQEND
  0
POLYLINE
  8
LAYER_1
 40
0.1058
 41
0.1058
 66
1
 10
0
 20
0
 30
0
  0
VERTEX
  8
LAYER_1
 10
143.1816
 20
-53.492
  0
VERTEX
  8
LAYER_1
 10
143.2099
 20
-53.492
  0
SEQEND
  0
POLYLINE
  8
LAYER_1
 40
0.1058
 41
0.1058
 66
1
 10
0
 20
0
 30
0
  0
VERTEX
  8
LAYER_1
 10
142.948
 20
-53.492
  0
VERTEX
  8
LAYER_1
 10
142.9508
 20
-53.492
  0
SEQEND
  0
POLYLINE
  8
LAYER_1
 40
0.1058
 41
0.1058
 66
1
 10
0
 20
0
 30
0
  0
VERTEX
  8
LAYER_1
 10
140.3215
 20
-53.492
  0
VERTEX
  8
LAYER_1
 10
140.3291
 20
-53.492
  0
SEQEND
  0
POLYLINE
  8
LAYER_1
 40
0.1058
 41
0.1058
 66
1
 10
0
 20
0
 30
0
  0
VERTEX
  8
LAYER_1
 10
140.2615
 20
-53.492
  0
VERTEX
  8
LAYER_1
 10
140.2967
 20
-53.492
  0
SEQEND
  0
POLYLINE
  8
LAYER_1
 40
0.1058
 41
0.1058
 66
1
 10
0
 20
0
 30
0
  0
VERTEX
  8
LAYER_1
 10
140.1796
 20
-53.492
  0
VERTEX
  8
LAYER_1
 10
140.2457
 20
-53.492
  0
SEQEND
  0
POLYLINE
  8
LAYER_1
 40
0.1058
 41
0.1058
 66
1
 10
0
 20
0
 30
0
  0
VERTEX
  8
LAYER_1
 10
140.1024
 20
-53.492
  0
VERTEX
  8
LAYER_1
 10
140.1189
 20
-53.492
  0
SEQEND
  0
POLYLINE
  8
LAYER_1
 40
0.1058
 41
0.1058
 66
1
 10
0
 20
0
 30
0
  0
VERTEX
  8
LAYER_1
 10
137.7969
 20
-53.492
  0
VERTEX
  8
LAYER_1
 10
137.799
 20
-53.492
  0
SEQEND
  0
POLYLINE
  8
LAYER_1
 40
0.1058
 41
0.1058
 66
1
 10
0
 20
0
 30
0
  0
VERTEX
  8
LAYER_1
 10
137.635
 20
-53.492
  0
VERTEX
  8
LAYER_1
 10
137.6571
 20
-53.492
  0
SEQEND
  0
POLYLINE
  8
LAYER_1
 40
0.1058
 41
0.1058
 66
1
 10
0
 20
0
 30
0
  0
VERTEX
  8
LAYER_1
 10
136.124
 20
-53.492
  0
VERTEX
  8
LAYER_1
 10
136.1378
 20
-53.492
  0
SEQEND
  0
POLYLINE
  8
LAYER_1
 40
0.1058
 41
0.1058
 66
1
 10
0
 20
0
 30
0
  0
VERTEX
  8
LAYER_1
 10
136.0544
 20
-53.492
  0
VERTEX
  8
LAYER_1
 10
136.0758
 20
-53.492
  0
SEQEND
  0
POLYLINE
  8
LAYER_1
 40
0.1058
 41
0.1058
 66
1
 10
0
 20
0
 30
0
  0
VERTEX
  8
LAYER_1
 10
135.5163
 20
-53.492
  0
VERTEX
  8
LAYER_1
 10
135.519
 20
-53.492
  0
SEQEND
  0
POLYLINE
  8
LAYER_1
 40
0.1058
 41
0.1058
 66
1
 10
0
 20
0
 30
0
  0
VERTEX
  8
LAYER_1
 10
150.6154
 20
-53.492
 42
0.48530986
  0
VERTEX
  8
LAYER_1
 10
150.8166
 20
-53.2901
  0
SEQEND
  0
POLYLINE
  8
LAYER_1
 40
0.1058
 41
0.1058
 66
1
 10
0
 20
0
 30
0
  0
VERTEX
  8
LAYER_1
 10
135.313
 20
-53.2901
  0
VERTEX
  8
LAYER_1
 10
135.313
 20
-47.7545
  0
SEQEND
  0
POLYLINE
  8
LAYER_1
 40
0.1058
 41
0.1058
 66
1
 10
0
 20
0
 30
0
  0
VERTEX
  8
LAYER_1
 10
135.5163
 20
-53.492
  0
SEQEND
  0
POLYLINE
  8
LAYER_1
 40
0.1058
 41
0.1058
 66
1
 10
0
 20
0
 30
0
  0
VERTEX
  8
LAYER_1
 10
136.0544
 20
-53.492
  0
VERTEX
  8
LAYER_1
 10
135.5183
 20
-53.492
  0
SEQEND
  0
POLYLINE
  8
LAYER_1
 40
0.1058
 41
0.1058
 66
1
 10
0
 20
0
 30
0
  0
VERTEX
  8
LAYER_1
 10
136.124
 20
-53.492
  0
VERTEX
  8
LAYER_1
 10
136.0744
 20
-53.492
  0
SEQEND
  0
POLYLINE
  8
LAYER_1
 40
0.1058
 41
0.1058
 66
1
 10
0
 20
0
 30
0
  0
VERTEX
  8
LAYER_1
 10
137.635
 20
-53.492
  0
VERTEX
  8
LAYER_1
 10
136.1364
 20
-53.492
  0
SEQEND
  0
POLYLINE
  8
LAYER_1
 40
0.1058
 41
0.1058
 66
1
 10
0
 20
0
 30
0
  0
VERTEX
  8
LAYER_1
 10
137.7969
 20
-53.492
  0
VERTEX
  8
LAYER_1
 10
137.6564
 20
-53.492
  0
SEQEND
  0
POLYLINE
  8
LAYER_1
 40
0.1058
 41
0.1058
 66
1
 10
0
 20
0
 30
0
  0
VERTEX
  8
LAYER_1
 10
140.1024
 20
-53.492
  0
VERTEX
  8
LAYER_1
 10
137.799
 20
-53.492
  0
SEQEND
  0
POLYLINE
  8
LAYER_1
 40
0.1058
 41
0.1058
 66
1
 10
0
 20
0
 30
0
  0
VERTEX
  8
LAYER_1
 10
140.1796
 20
-53.492
  0
VERTEX
  8
LAYER_1
 10
140.1189
 20
-53.492
  0
SEQEND
  0
POLYLINE
  8
LAYER_1
 40
0.1058
 41
0.1058
 66
1
 10
0
 20
0
 30
0
  0
VERTEX
  8
LAYER_1
 10
140.2615
 20
-53.492
  0
VERTEX
  8
LAYER_1
 10
140.245
 20
-53.492
  0
SEQEND
  0
POLYLINE
  8
LAYER_1
 40
0.1058
 41
0.1058
 66
1
 10
0
 20
0
 30
0
  0
VERTEX
  8
LAYER_1
 10
142.948
 20
-53.492
  0
VERTEX
  8
LAYER_1
 10
140.3291
 20
-53.492
  0
SEQEND
  0
POLYLINE
  8
LAYER_1
 40
0.1058
 41
0.1058
 66
1
 10
0
 20
0
 30
0
  0
VERTEX
  8
LAYER_1
 10
143.1816
 20
-53.492
  0
VERTEX
  8
LAYER_1
 10
142.9515
 20
-53.492
  0
SEQEND
  0
POLYLINE
  8
LAYER_1
 40
0.1058
 41
0.1058
 66
1
 10
0
 20
0
 30
0
  0
VERTEX
  8
LAYER_1
 10
143.2974
 20
-53.492
  0
VERTEX
  8
LAYER_1
 10
143.2106
 20
-53.492
  0
SEQEND
  0
POLYLINE
  8
LAYER_1
 40
0.1058
 41
0.1058
 66
1
 10
0
 20
0
 30
0
  0
VERTEX
  8
LAYER_1
 10
145.8998
 20
-53.492
  0
VERTEX
  8
LAYER_1
 10
143.3001
 20
-53.492
  0
SEQEND
  0
POLYLINE
  8
LAYER_1
 40
0.1058
 41
0.1058
 66
1
 10
0
 20
0
 30
0
  0
VERTEX
  8
LAYER_1
 10
146.0107
 20
-53.492
  0
VERTEX
  8
LAYER_1
 10
145.948
 20
-53.492
  0
SEQEND
  0
POLYLINE
  8
LAYER_1
 40
0.1058
 41
0.1058
 66
1
 10
0
 20
0
 30
0
  0
VERTEX
  8
LAYER_1
 10
148.4733
 20
-53.492
  0
VERTEX
  8
LAYER_1
 10
146.0348
 20
-53.492
  0
SEQEND
  0
POLYLINE
  8
LAYER_1
 40
0.1058
 41
0.1058
 66
1
 10
0
 20
0
 30
0
  0
VERTEX
  8
LAYER_1
 10
149.9912
 20
-53.492
  0
VERTEX
  8
LAYER_1
 10
148.4871
 20
-53.492
  0
SEQEND
  0
POLYLINE
  8
LAYER_1
 40
0.1058
 41
0.1058
 66
1
 10
0
 20
0
 30
0
  0
VERTEX
  8
LAYER_1
 10
150.0539
 20
-53.492
  0
VERTEX
  8
LAYER_1
 10
150.005
 20
-53.492
  0
SEQEND
  0
POLYLINE
  8
LAYER_1
 40
0.1058
 41
0.1058
 66
1
 10
0
 20
0
 30
0
  0
VERTEX
  8
LAYER_1
 10
150.6106
 20
-53.492
  0
VERTEX
  8
LAYER_1
 10
150.0753
 20
-53.492
  0
SEQEND
  0
POLYLINE
  8
LAYER_1
 40
0.1058
 41
0.1058
 66
1
 10
0
 20
0
 30
0
  0
VERTEX
  8
LAYER_1
 10
137.2871
 20
-58.526
  0
VERTEX
  8
LAYER_1
 10
137.2871
 20
-58.4702
  0
SEQEND
  0
POLYLINE
  8
LAYER_1
 40
0.1058
 41
0.1058
 66
1
 10
0
 20
0
 30
0
  0
VERTEX
  8
LAYER_1
 10
137.2905
 20
-58.4619
  0
VERTEX
  8
LAYER_1
 10
137.2857
 20
-58.4695
  0
SEQEND
  0
POLYLINE
  8
LAYER_1
 40
0.1058
 41
0.1058
 66
1
 10
0
 20
0
 30
0
  0
VERTEX
  8
LAYER_1
 10
148.8412
 20
-56.6105
  0
VERTEX
  8
LAYER_1
 10
148.8419
 20
-56.6064
  0
SEQEND
  0
POLYLINE
  8
LAYER_1
 40
0.1058
 41
0.1058
 66
1
 10
0
 20
0
 30
0
  0
VERTEX
  8
LAYER_1
 10
137.2871
 20
-57.2795
  0
VERTEX
  8
LAYER_1
 10
137.2871
 20
-57.1231
  0
SEQEND
  0
POLYLINE
  8
LAYER_1
 40
0.1058
 41
0.1058
 66
1
 10
0
 20
0
 30
0
  0
VERTEX
  8
LAYER_1
 10
148.8433
 20
-56.4548
  0
VERTEX
  8
LAYER_1
 10
148.8412
 20
-56.4555
  0
SEQEND
  0
POLYLINE
  8
LAYER_1
 40
0.1058
 41
0.1058
 66
1
 10
0
 20
0
 30
0
  0
VERTEX
  8
LAYER_1
 10
148.8433
 20
-55.1077
  0
VERTEX
  8
LAYER_1
 10
148.8412
 20
-55.1091
  0
SEQEND
  0
POLYLINE
  8
LAYER_1
 40
0.1058
 41
0.1058
 66
1
 10
0
 20
0
 30
0
  0
VERTEX
  8
LAYER_1
 10
148.8433
 20
-55.1029
  0
VERTEX
  8
LAYER_1
 10
148.844
 20
-55.1036
  0
SEQEND
  0
POLYLINE
  8
LAYER_1
 40
0.1058
 41
0.1058
 66
1
 10
0
 20
0
 30
0
  0
VERTEX
  8
LAYER_1
 10
137.2871
 20
-54.5855
  0
VERTEX
  8
LAYER_1
 10
137.2871
 20
-54.4325
  0
SEQEND
  0
POLYLINE
  8
LAYER_1
 40
0.1058
 41
0.1058
 66
1
 10
0
 20
0
 30
0
  0
VERTEX
  8
LAYER_1
 10
155.1967
 20
-47.7538
  0
VERTEX
  8
LAYER_1
 10
155.1967
 20
-33.558
  0
SEQEND
  0
POLYLINE
  8
LAYER_1
 40
0.1058
 41
0.1058
 66
1
 10
0
 20
0
 30
0
  0
VERTEX
  8
LAYER_1
 10
155.1947
 20
-47.7538
  0
VERTEX
  8
LAYER_1
 10
155.1967
 20
-47.7538
  0
SEQEND
  0
POLYLINE
  8
LAYER_1
 40
0.1058
 41
0.1058
 66
1
 10
0
 20
0
 30
0
  0
VERTEX
  8
LAYER_1
 10
155.1898
 20
-47.7538
  0
VERTEX
  8
LAYER_1
 10
155.1919
 20
-47.7538
  0
SEQEND
  0
POLYLINE
  8
LAYER_1
 40
0.1058
 41
0.1058
 66
1
 10
0
 20
0
 30
0
  0
VERTEX
  8
LAYER_1
 10
154.4154
 20
-47.7538
  0
VERTEX
  8
LAYER_1
 10
154.4581
 20
-47.7538
  0
SEQEND
  0
POLYLINE
  8
LAYER_1
 40
0.1058
 41
0.1058
 66
1
 10
0
 20
0
 30
0
  0
VERTEX
  8
LAYER_1
 10
154.3444
 20
-47.7538
  0
VERTEX
  8
LAYER_1
 10
154.3851
 20
-47.7538
  0
SEQEND
  0
POLYLINE
  8
LAYER_1
 40
0.1058
 41
0.1058
 66
1
 10
0
 20
0
 30
0
  0
VERTEX
  8
LAYER_1
 10
154.2955
 20
-47.7538
  0
VERTEX
  8
LAYER_1
 10
154.3293
 20
-47.7538
  0
SEQEND
  0
POLYLINE
  8
LAYER_1
 40
0.1058
 41
0.1058
 66
1
 10
0
 20
0
 30
0
  0
VERTEX
  8
LAYER_1
 10
154.2459
 20
-47.7538
  0
VERTEX
  8
LAYER_1
 10
154.2714
 20
-47.7538
  0
SEQEND
  0
POLYLINE
  8
LAYER_1
 40
0.1058
 41
0.1058
 66
1
 10
0
 20
0
 30
0
  0
VERTEX
  8
LAYER_1
 10
154.1942
 20
-47.7538
  0
VERTEX
  8
LAYER_1
 10
154.2135
 20
-47.7538
  0
SEQEND
  0
POLYLINE
  8
LAYER_1
 40
0.1058
 41
0.1058
 66
1
 10
0
 20
0
 30
0
  0
VERTEX
  8
LAYER_1
 10
154.1405
 20
-47.7538
  0
VERTEX
  8
LAYER_1
 10
154.1535
 20
-47.7538
  0
SEQEND
  0
POLYLINE
  8
LAYER_1
 40
0.1058
 41
0.1058
 66
1
 10
0
 20
0
 30
0
  0
VERTEX
  8
LAYER_1
 10
151.7537
 20
-47.7538
  0
VERTEX
  8
LAYER_1
 10
151.8529
 20
-47.7538
  0
SEQEND
  0
POLYLINE
  8
LAYER_1
 40
0.1058
 41
0.1058
 66
1
 10
0
 20
0
 30
0
  0
VERTEX
  8
LAYER_1
 10
151.5256
 20
-47.7538
  0
VERTEX
  8
LAYER_1
 10
151.536
 20
-47.7538
  0
SEQEND
  0
POLYLINE
  8
LAYER_1
 40
0.1058
 41
0.1058
 66
1
 10
0
 20
0
 30
0
  0
VERTEX
  8
LAYER_1
 10
147.7746
 20
-47.7538
  0
VERTEX
  8
LAYER_1
 10
147.818
 20
-47.7538
  0
SEQEND
  0
POLYLINE
  8
LAYER_1
 40
0.1058
 41
0.1058
 66
1
 10
0
 20
0
 30
0
  0
VERTEX
  8
LAYER_1
 10
147.6134
 20
-47.7538
  0
VERTEX
  8
LAYER_1
 10
147.665
 20
-47.7538
  0
SEQEND
  0
POLYLINE
  8
LAYER_1
 40
0.1058
 41
0.1058
 66
1
 10
0
 20
0
 30
0
  0
VERTEX
  8
LAYER_1
 10
147.459
 20
-47.7538
  0
VERTEX
  8
LAYER_1
 10
147.5066
 20
-47.7538
  0
SEQEND
  0
POLYLINE
  8
LAYER_1
 40
0.1058
 41
0.1058
 66
1
 10
0
 20
0
 30
0
  0
VERTEX
  8
LAYER_1
 10
143.2395
 20
-47.7538
  0
VERTEX
  8
LAYER_1
 10
143.2595
 20
-47.7538
  0
SEQEND
  0
POLYLINE
  8
LAYER_1
 40
0.1058
 41
0.1058
 66
1
 10
0
 20
0
 30
0
  0
VERTEX
  8
LAYER_1
 10
142.8709
 20
-47.7538
  0
VERTEX
  8
LAYER_1
 10
142.8902
 20
-47.7538
  0
SEQEND
  0
POLYLINE
  8
LAYER_1
 40
0.1058
 41
0.1058
 66
1
 10
0
 20
0
 30
0
  0
VERTEX
  8
LAYER_1
 10
138.6217
 20
-47.7538
  0
VERTEX
  8
LAYER_1
 10
138.6692
 20
-47.7538
  0
SEQEND
  0
POLYLINE
  8
LAYER_1
 40
0.1058
 41
0.1058
 66
1
 10
0
 20
0
 30
0
  0
VERTEX
  8
LAYER_1
 10
138.4646
 20
-47.7538
  0
VERTEX
  8
LAYER_1
 10
138.5176
 20
-47.7538
  0
SEQEND
  0
POLYLINE
  8
LAYER_1
 40
0.1058
 41
0.1058
 66
1
 10
0
 20
0
 30
0
  0
VERTEX
  8
LAYER_1
 10
138.3109
 20
-47.7538
  0
VERTEX
  8
LAYER_1
 10
138.3543
 20
-47.7538
  0
SEQEND
  0
POLYLINE
  8
LAYER_1
 40
0.1058
 41
0.1058
 66
1
 10
0
 20
0
 30
0
  0
VERTEX
  8
LAYER_1
 10
134.5937
 20
-47.7538
  0
VERTEX
  8
LAYER_1
 10
134.6054
 20
-47.7538
  0
SEQEND
  0
POLYLINE
  8
LAYER_1
 40
0.1058
 41
0.1058
 66
1
 10
0
 20
0
 30
0
  0
VERTEX
  8
LAYER_1
 10
134.276
 20
-47.7538
  0
VERTEX
  8
LAYER_1
 10
134.3753
 20
-47.7538
  0
SEQEND
  0
POLYLINE
  8
LAYER_1
 40
0.1058
 41
0.1058
 66
1
 10
0
 20
0
 30
0
  0
VERTEX
  8
LAYER_1
 10
131.9754
 20
-47.7538
  0
VERTEX
  8
LAYER_1
 10
131.9885
 20
-47.7538
  0
SEQEND
  0
POLYLINE
  8
LAYER_1
 40
0.1058
 41
0.1058
 66
1
 10
0
 20
0
 30
0
  0
VERTEX
  8
LAYER_1
 10
131.9168
 20
-47.7538
  0
VERTEX
  8
LAYER_1
 10
131.9361
 20
-47.7538
  0
SEQEND
  0
POLYLINE
  8
LAYER_1
 40
0.1058
 41
0.1058
 66
1
 10
0
 20
0
 30
0
  0
VERTEX
  8
LAYER_1
 10
131.8583
 20
-47.7538
  0
VERTEX
  8
LAYER_1
 10
131.8831
 20
-47.7538
  0
SEQEND
  0
POLYLINE
  8
LAYER_1
 40
0.1058
 41
0.1058
 66
1
 10
0
 20
0
 30
0
  0
VERTEX
  8
LAYER_1
 10
131.7997
 20
-47.7538
  0
VERTEX
  8
LAYER_1
 10
131.8335
 20
-47.7538
  0
SEQEND
  0
POLYLINE
  8
LAYER_1
 40
0.1058
 41
0.1058
 66
1
 10
0
 20
0
 30
0
  0
VERTEX
  8
LAYER_1
 10
131.7453
 20
-47.7538
  0
VERTEX
  8
LAYER_1
 10
131.7853
 20
-47.7538
  0
SEQEND
  0
POLYLINE
  8
LAYER_1
 40
0.1058
 41
0.1058
 66
1
 10
0
 20
0
 30
0
  0
VERTEX
  8
LAYER_1
 10
131.6695
 20
-47.7538
  0
VERTEX
  8
LAYER_1
 10
131.7143
 20
-47.7538
  0
SEQEND
  0
POLYLINE
  8
LAYER_1
 40
0.1058
 41
0.1058
 66
1
 10
0
 20
0
 30
0
  0
VERTEX
  8
LAYER_1
 10
130.9384
 20
-47.7538
  0
VERTEX
  8
LAYER_1
 10
130.9391
 20
-47.7538
  0
SEQEND
  0
POLYLINE
  8
LAYER_1
 40
0.1058
 41
0.1058
 66
1
 10
0
 20
0
 30
0
  0
VERTEX
  8
LAYER_1
 10
130.9384
 20
-47.7538
  0
VERTEX
  8
LAYER_1
 10
130.9336
 20
-47.7538
  0
SEQEND
  0
POLYLINE
  8
LAYER_1
 40
0.1058
 41
0.1058
 66
1
 10
0
 20
0
 30
0
  0
VERTEX
  8
LAYER_1
 10
131.6695
 20
-47.7538
  0
VERTEX
  8
LAYER_1
 10
130.9391
 20
-47.7538
  0
SEQEND
  0
POLYLINE
  8
LAYER_1
 40
0.1058
 41
0.1058
 66
1
 10
0
 20
0
 30
0
  0
VERTEX
  8
LAYER_1
 10
131.7453
 20
-47.7538
  0
VERTEX
  8
LAYER_1
 10
131.7149
 20
-47.7538
  0
SEQEND
  0
POLYLINE
  8
LAYER_1
 40
0.1058
 41
0.1058
 66
1
 10
0
 20
0
 30
0
  0
VERTEX
  8
LAYER_1
 10
131.7997
 20
-47.7538
  0
VERTEX
  8
LAYER_1
 10
131.7853
 20
-47.7538
  0
SEQEND
  0
POLYLINE
  8
LAYER_1
 40
0.1058
 41
0.1058
 66
1
 10
0
 20
0
 30
0
  0
VERTEX
  8
LAYER_1
 10
131.8583
 20
-47.7538
  0
VERTEX
  8
LAYER_1
 10
131.8335
 20
-47.7538
  0
SEQEND
  0
POLYLINE
  8
LAYER_1
 40
0.1058
 41
0.1058
 66
1
 10
0
 20
0
 30
0
  0
VERTEX
  8
LAYER_1
 10
131.9168
 20
-47.7538
  0
VERTEX
  8
LAYER_1
 10
131.8845
 20
-47.7538
  0
SEQEND
  0
POLYLINE
  8
LAYER_1
 40
0.1058
 41
0.1058
 66
1
 10
0
 20
0
 30
0
  0
VERTEX
  8
LAYER_1
 10
131.9754
 20
-47.7538
  0
VERTEX
  8
LAYER_1
 10
131.9354
 20
-47.7538
  0
SEQEND
  0
POLYLINE
  8
LAYER_1
 40
0.1058
 41
0.1058
 66
1
 10
0
 20
0
 30
0
  0
VERTEX
  8
LAYER_1
 10
134.276
 20
-47.7538
  0
VERTEX
  8
LAYER_1
 10
131.9885
 20
-47.7538
  0
SEQEND
  0
POLYLINE
  8
LAYER_1
 40
0.1058
 41
0.1058
 66
1
 10
0
 20
0
 30
0
  0
VERTEX
  8
LAYER_1
 10
134.5937
 20
-47.7538
  0
VERTEX
  8
LAYER_1
 10
134.3767
 20
-47.7538
  0
SEQEND
  0
POLYLINE
  8
LAYER_1
 40
0.1058
 41
0.1058
 66
1
 10
0
 20
0
 30
0
  0
VERTEX
  8
LAYER_1
 10
138.3109
 20
-47.7538
  0
VERTEX
  8
LAYER_1
 10
134.6054
 20
-47.7538
  0
SEQEND
  0
POLYLINE
  8
LAYER_1
 40
0.1058
 41
0.1058
 66
1
 10
0
 20
0
 30
0
  0
VERTEX
  8
LAYER_1
 10
138.4646
 20
-47.7538
  0
VERTEX
  8
LAYER_1
 10
138.3543
 20
-47.7538
  0
SEQEND
  0
POLYLINE
  8
LAYER_1
 40
0.1058
 41
0.1058
 66
1
 10
0
 20
0
 30
0
  0
VERTEX
  8
LAYER_1
 10
138.6217
 20
-47.7538
  0
VERTEX
  8
LAYER_1
 10
138.5163
 20
-47.7538
  0
SEQEND
  0
POLYLINE
  8
LAYER_1
 40
0.1058
 41
0.1058
 66
1
 10
0
 20
0
 30
0
  0
VERTEX
  8
LAYER_1
 10
142.8709
 20
-47.7538
  0
VERTEX
  8
LAYER_1
 10
138.6699
 20
-47.7538
  0
SEQEND
  0
POLYLINE
  8
LAYER_1
 40
0.1058
 41
0.1058
 66
1
 10
0
 20
0
 30
0
  0
VERTEX
  8
LAYER_1
 10
143.2395
 20
-47.7538
  0
VERTEX
  8
LAYER_1
 10
142.8895
 20
-47.7538
  0
SEQEND
  0
POLYLINE
  8
LAYER_1
 40
0.1058
 41
0.1058
 66
1
 10
0
 20
0
 30
0
  0
VERTEX
  8
LAYER_1
 10
147.459
 20
-47.7538
  0
VERTEX
  8
LAYER_1
 10
143.2588
 20
-47.7538
  0
SEQEND
  0
POLYLINE
  8
LAYER_1
 40
0.1058
 41
0.1058
 66
1
 10
0
 20
0
 30
0
  0
VERTEX
  8
LAYER_1
 10
147.6134
 20
-47.7538
  0
VERTEX
  8
LAYER_1
 10
147.5066
 20
-47.7538
  0
SEQEND
  0
POLYLINE
  8
LAYER_1
 40
0.1058
 41
0.1058
 66
1
 10
0
 20
0
 30
0
  0
VERTEX
  8
LAYER_1
 10
147.7746
 20
-47.7538
  0
VERTEX
  8
LAYER_1
 10
147.6644
 20
-47.7538
  0
SEQEND
  0
POLYLINE
  8
LAYER_1
 40
0.1058
 41
0.1058
 66
1
 10
0
 20
0
 30
0
  0
VERTEX
  8
LAYER_1
 10
151.5256
 20
-47.7538
  0
VERTEX
  8
LAYER_1
 10
147.818
 20
-47.7538
  0
SEQEND
  0
POLYLINE
  8
LAYER_1
 40
0.1058
 41
0.1058
 66
1
 10
0
 20
0
 30
0
  0
VERTEX
  8
LAYER_1
 10
151.7537
 20
-47.7538
  0
VERTEX
  8
LAYER_1
 10
151.5366
 20
-47.7538
  0
SEQEND
  0
POLYLINE
  8
LAYER_1
 40
0.1058
 41
0.1058
 66
1
 10
0
 20
0
 30
0
  0
VERTEX
  8
LAYER_1
 10
154.1405
 20
-47.7538
  0
VERTEX
  8
LAYER_1
 10
151.8529
 20
-47.7538
  0
SEQEND
  0
POLYLINE
  8
LAYER_1
 40
0.1058
 41
0.1058
 66
1
 10
0
 20
0
 30
0
  0
VERTEX
  8
LAYER_1
 10
154.1942
 20
-47.7538
  0
VERTEX
  8
LAYER_1
 10
154.1535
 20
-47.7538
  0
SEQEND
  0
POLYLINE
  8
LAYER_1
 40
0.1058
 41
0.1058
 66
1
 10
0
 20
0
 30
0
  0
VERTEX
  8
LAYER_1
 10
154.2459
 20
-47.7538
  0
VERTEX
  8
LAYER_1
 10
154.2135
 20
-47.7538
  0
SEQEND
  0
POLYLINE
  8
LAYER_1
 40
0.1058
 41
0.1058
 66
1
 10
0
 20
0
 30
0
  0
VERTEX
  8
LAYER_1
 10
154.2955
 20
-47.7538
  0
VERTEX
  8
LAYER_1
 10
154.2707
 20
-47.7538
  0
SEQEND
  0
POLYLINE
  8
LAYER_1
 40
0.1058
 41
0.1058
 66
1
 10
0
 20
0
 30
0
  0
VERTEX
  8
LAYER_1
 10
154.3444
 20
-47.7538
  0
VERTEX
  8
LAYER_1
 10
154.3293
 20
-47.7538
  0
SEQEND
  0
POLYLINE
  8
LAYER_1
 40
0.1058
 41
0.1058
 66
1
 10
0
 20
0
 30
0
  0
VERTEX
  8
LAYER_1
 10
154.4154
 20
-47.7538
  0
VERTEX
  8
LAYER_1
 10
154.3851
 20
-47.7538
  0
SEQEND
  0
POLYLINE
  8
LAYER_1
 40
0.1058
 41
0.1058
 66
1
 10
0
 20
0
 30
0
  0
VERTEX
  8
LAYER_1
 10
155.1898
 20
-47.7538
  0
VERTEX
  8
LAYER_1
 10
154.4581
 20
-47.7538
  0
SEQEND
  0
POLYLINE
  8
LAYER_1
 40
0.1058
 41
0.1058
 66
1
 10
0
 20
0
 30
0
  0
VERTEX
  8
LAYER_1
 10
155.1947
 20
-47.7538
  0
VERTEX
  8
LAYER_1
 10
155.1919
 20
-47.7538
  0
SEQEND
  0
POLYLINE
  8
LAYER_1
 40
0.1058
 41
0.1058
 66
1
 10
0
 20
0
 30
0
  0
VERTEX
  8
LAYER_1
 10
122.0749
 20
-30.4374
 42
-0.2006889578
  0
VERTEX
  8
LAYER_1
 10
121.6891
 20
-30.3194
 42
-0.2017395925
  0
VERTEX
  8
LAYER_1
 10
121.5705
 20
-29.9338
  0
SEQEND
  0
POLYLINE
  8
LAYER_1
 40
0.1058
 41
0.1058
 66
1
 10
0
 20
0
 30
0
  0
VERTEX
  8
LAYER_1
 10
124.6208
 20
-30.4388
 42
-0.2030332982
  0
VERTEX
  8
LAYER_1
 10
124.9912
 20
-30.5778
 42
-0.1824629332
  0
VERTEX
  8
LAYER_1
 10
125.0949
 20
-30.9411
  0
SEQEND
  0
POLYLINE
  8
LAYER_1
 40
0.1058
 41
0.1058
 66
1
 10
0
 20
0
 30
0
  0
VERTEX
  8
LAYER_1
 10
125.0956
 20
-30.9404
  0
VERTEX
  8
LAYER_1
 10
125.0956
 20
-31.8458
  0
SEQEND
  0
POLYLINE
  8
LAYER_1
 40
0.1058
 41
0.1058
 66
1
 10
0
 20
0
 30
0
  0
VERTEX
  8
LAYER_1
 10
161.0355
 20
-31.8464
  0
VERTEX
  8
LAYER_1
 10
125.0956
 20
-31.8464
  0
SEQEND
  0
POLYLINE
  8
LAYER_1
 40
0.1058
 41
0.1058
 66
1
 10
0
 20
0
 30
0
  0
VERTEX
  8
LAYER_1
 10
125.0956
 20
-27.8198
  0
VERTEX
  8
LAYER_1
 10
125.0956
 20
-28.7259
  0
SEQEND
  0
POLYLINE
  8
LAYER_1
 40
0.1058
 41
0.1058
 66
1
 10
0
 20
0
 30
0
  0
VERTEX
  8
LAYER_1
 10
125.0956
 20
-28.7259
 42
-0.2034945714
  0
VERTEX
  8
LAYER_1
 10
124.9771
 20
-29.1051
 42
-0.1821300844
  0
VERTEX
  8
LAYER_1
 10
124.6195
 20
-29.2296
  0
SEQEND
  0
POLYLINE
  8
LAYER_1
 40
0.1058
 41
0.1058
 66
1
 10
0
 20
0
 30
0
  0
VERTEX
  8
LAYER_1
 10
121.5712
 20
-29.7326
 42
-0.2010994165
  0
VERTEX
  8
LAYER_1
 10
121.6895
 20
-29.3474
 42
-0.2013663837
  0
VERTEX
  8
LAYER_1
 10
122.0749
 20
-29.2289
  0
SEQEND
  0
POLYLINE
  8
LAYER_1
 40
0.1058
 41
0.1058
 66
1
 10
0
 20
0
 30
0
  0
VERTEX
  8
LAYER_1
 10
159.2723
 20
-32.2495
  0
VERTEX
  8
LAYER_1
 10
159.2723
 20
-31.8458
  0
SEQEND
  0
POLYLINE
  8
LAYER_1
 40
0.1058
 41
0.1058
 66
1
 10
0
 20
0
 30
0
  0
VERTEX
  8
LAYER_1
 10
160.2796
 20
-33.558
  0
VERTEX
  8
LAYER_1
 10
160.2796
 20
-32.2502
  0
SEQEND
  0
POLYLINE
  8
LAYER_1
 40
0.1058
 41
0.1058
 66
1
 10
0
 20
0
 30
0
  0
VERTEX
  8
LAYER_1
 10
160.2796
 20
-33.558
  0
VERTEX
  8
LAYER_1
 10
125.8507
 20
-33.558
  0
SEQEND
  0
INSERT
  8
LAYER_1
  2
AIGNBL01010002
 10
0
 20
0
 30
0
  0
POLYLINE
  8
LAYER_1
 40
0.1058
 41
0.1058
 66
1
 10
0
 20
0
 30
0
  0
VERTEX
  8
LAYER_1
 10
122.684
 20
-89.8226
  0
VERTEX
  8
LAYER_1
 10
122.6819
 20
-89.8226
  0
VERTEX
  8
LAYER_1
 10
122.6792
 20
-89.8226
  0
VERTEX
  8
LAYER_1
 10
122.6778
 20
-89.8226
  0
SEQEND
  0
POLYLINE
  8
LAYER_1
 40
0.1058
 41
0.1058
 66
1
 10
0
 20
0
 30
0
  0
VERTEX
  8
LAYER_1
 10
122.684
 20
-89.8226
  0
VERTEX
  8
LAYER_1
 10
163.4512
 20
-89.8226
  0
SEQEND
  0
POLYLINE
  8
LAYER_1
 40
0.1058
 41
0.1058
 66
1
 10
0
 20
0
 30
0
  0
VERTEX
  8
LAYER_1
 10
168.9881
 20
-82.776
  0
VERTEX
  8
LAYER_1
 10
143.0624
 20
-82.776
  0
VERTEX
  8
LAYER_1
 10
130.1033
 20
-82.776
  0
VERTEX
  8
LAYER_1
 10
123.6197
 20
-82.776
  0
VERTEX
  8
LAYER_1
 10
119.099
 20
-82.776
  0
VERTEX
  8
LAYER_1
 10
117.1408
 20
-82.776
  0
SEQEND
  0
INSERT
  8
LAYER_1
  2
AIGNBL01010003
 10
0
 20
0
 30
0
  0
INSERT
  8
LAYER_1
  2
AIGNBL01010007
 10
0
 20
0
 30
0
  0
INSERT
  8
LAYER_1
  2
AIGNBL01010008
 10
0
 20
0
 30
0
  0
TEXT
  8
LAYER_1
 10
140.7495
 20
6.9555
 11
140.7495
 21
6.9555
 40
3.5541
 41
0.5
  1
72
  0
INSERT
  8
LAYER_1
  2
AIGNBL01010009
 10
0
 20
0
 30
0
  0
INSERT
  8
LAYER_1
  2
AIGNBL0101000D
 10
0
 20
0
 30
0
  0
INSERT
  8
LAYER_1
  2
AIGNBL0101000E
 10
0
 20
0
 30
0
  0
INSERT
  8
LAYER_1
  2
AIGNBL0101000F
 10
0
 20
0
 30
0
  0
INSERT
  8
LAYER_1
  2
AIGNBL01010013
 10
0
 20
0
 30
0
  0
INSERT
  8
LAYER_1
  2
AIGNBL01010014
 10
0
 20
0
 30
0
  0
TEXT
  8
LAYER_1
 10
141.2027
 20
-152.4387
 11
141.2027
 21
-152.4387
 40
2.9723
 41
0.5
  1
60
  0
INSERT
  8
LAYER_1
  2
AIGNBL01010015
 10
0
 20
0
 30
0
  0
INSERT
  8
LAYER_1
  2
AIGNBL01010016
 10
0
 20
0
 30
0
  0
INSERT
  8
LAYER_1
  2
AIGNBL01010017
 10
0
 20
0
 30
0
  0
INSERT
  8
LAYER_1
  2
AIGNBL0101001B
 10
0
 20
0
 30
0
  0
INSERT
  8
LAYER_1
  2
AIGNBL0101001F
 10
0
 20
0
 30
0
  0
INSERT
  8
LAYER_1
  2
AIGNBL01010020
 10
0
 20
0
 30
0
  0
TEXT
  8
LAYER_1
 10
184.3713
 20
-178.5975
 11
184.3713
 21
-178.5975
 40
3.5541
 41
0.5
  1
22
  0
TEXT
  8
LAYER_1
 10
184.3713
 20
-196.119
 11
184.3713
 21
-196.119
 40
3.5541
 41
0.5
  1
10
  0
INSERT
  8
LAYER_1
  2
AIGNBL01010021
 10
0
 20
0
 30
0
  0
INSERT
  8
LAYER_1
  2
AIGNBL01010025
 10
0
 20
0
 30
0
  0
TEXT
  8
LAYER_1
 10
184.3713
 20
-22.2955
 11
184.3713
 21
-22.2955
 40
3.5541
 41
0.5
  1
10-17
  0
INSERT
  8
LAYER_1
  2
AIGNBL01010026
 10
0
 20
0
 30
0
  0
TEXT
  8
LAYER_1
 10
136.5515
 20
-209.2222
 11
136.5515
 21
-209.2222
 40
3.5541
 41
0.5
  1
G1 １／４
  0
TEXT
  8
LAYER_1
 10
81.5757
 20
-106.198
 11
81.5757
 21
-106.198
 40
3.5541
 41
0.5
  1
ロッド80mm
  0
INSERT
  8
LAYER_4
  2
AIGNBL04010002
 10
0
 20
0
 30
0
  0
POLYLINE
  8
LAYER_4
 40
0.3528
 41
0.3528
 66
1
 10
0
 20
0
 30
0
  0
VERTEX
  8
LAYER_4
 10
34.7876
 20
-258.3332
  0
VERTEX
  8
LAYER_4
 10
229.7955
 20
-258.3332
  0
VERTEX
  8
LAYER_4
 10
229.7955
 20
21.6583
  0
VERTEX
  8
LAYER_4
 10
34.7876
 20
21.6583
  0
VERTEX
  8
LAYER_4
 10
34.7876
 20
-258.3332
  0
SEQEND
  0
TEXT
  8
LAYER_4
 10
166.4505
 20
-248.7955
 11
166.4505
 21
-248.7955
 40
3.3853
 41
0.5
  1
●TEL 0120-65-1232●FAX 06-6532-1580
  0
TEXT
  8
LAYER_4
 10
166.4505
 20
-252.3102
 11
166.4505
 21
-252.3102
 40
3.3853
 41
0.5
  1
hits@hiratatile.co.jp
  0
INSERT
  8
LAYER_4
  2
AIGNBL04010003
 10
0
 20
0
 30
0
  0
TEXT
  8
LAYER_4
 10
218.9756
 20
18.4461
 11
218.9756
 21
18.4461
 40
2.0732
 41
0.5
  1
150705RT
  0
TEXT
  8
LAYER_4
 10
37.8495
 20
-250.3797
 11
37.8495
 21
-250.3797
 40
3.2995
 41
0.5
  1
仕様
  0
POLYLINE
  8
LAYER_4
 40
0.3528
 41
0.3528
 66
1
 10
0
 20
0
 30
0
  0
VERTEX
  8
LAYER_4
 10
229.7955
 20
-241.6001
  0
VERTEX
  8
LAYER_4
 10
34.7874
 20
-241.6001
  0
SEQEND
  0
POLYLINE
  8
LAYER_4
 40
0.3528
 41
0.3528
 66
1
 10
0
 20
0
 30
0
  0
VERTEX
  8
LAYER_4
 10
229.7955
 20
-233.091
  0
VERTEX
  8
LAYER_4
 10
34.7874
 20
-233.091
  0
SEQEND
  0
TEXT
  8
LAYER_4
 10
35.9444
 20
-235.5675
 11
35.9444
 21
-235.5675
 40
2.1997
 41
0.5
  1
品名
  0
TEXT
  8
LAYER_4
 10
48.7479
 20
-238.6599
 11
48.7479
 21
-238.6599
 40
3.6373
 41
0.5
  1
プッシュ式排水金具（オーバーフローあり／なし兼用）
  0
TEXT
  8
LAYER_4
 10
48.4217
 20
-250.3883
 11
48.4217
 21
-250.3883
 40
3.1177
 41
0.5
  1
●オーバーフローあり／なし兼用　●欧州仕様
  0
TEXT
  8
LAYER_4
 10
151.5017
 20
-235.5677
 11
151.5017
 21
-235.5677
 40
2.1997
 41
0.5
  1
品番
  0
TEXT
  8
LAYER_4
 10
157.5237
 20
-240.0443
 11
157.5237
 21
-240.0443
 40
5.9385
 41
0.5
  1
CIE-PIL01N/
  0
TEXT
  8
LAYER_4
 10
37.5245
 20
-211.2067
 11
37.5245
 21
-211.2067
 40
2.3382
 41
0.5
  1
※洗面器を挟む位置・トラップ接続部にはシリコンコーキング等にて止水処理を行ってください。
  0
TEXT
  8
LAYER_4
 10
37.5245
 20
-215.7067
 11
37.5245
 21
-215.7067
 40
2.3382
 41
0.5
  1
※漏水および洗面器の破損防止のため、パッキン類が弾性を保てる範囲で締め付けてください。
  0
TEXT
  8
LAYER_4
 10
37.5245
 20
-220.2067
 11
37.5245
 21
-220.2067
 40
2.3382
 41
0.5
  1
※オーバーフローあり／なし兼用の排水目皿です。
  0
TEXT
  8
LAYER_4
 10
37.5245
 20
-224.7067
 11
37.5245
 21
-224.7067
 40
2.3382
 41
0.5
  1
水が溜まらないようにするには、排水カバー下のシーリングガスケットを取り外してください。
  0
TEXT
  8
LAYER_4
 10
37.5245
 20
-229.2067
 11
37.5245
 21
-229.2067
 40
2.3382
 41
0.5
  1
※欧州仕様の排水金具のため、日米仕様のトラップとは接続できません。
  0
INSERT
  8
LAYER_4
  2
AIGNBL04010006
 10
0
 20
0
 30
0
  0
INSERT
  8
LAYER_4
  2
AIGNBL04010007
 10
0
 20
0
 30
0
  0
INSERT
  8
LAYER_4
  2
AIGNBL0401000B
 10
0
 20
0
 30
0
  0
TEXT
  8
LAYER_4
 10
183.9915
 20
-93.0779
 11
183.9915
 21
-93.0779
 40
3.5541
 41
0.5
  1
23
  0
INSERT
  8
LAYER_4
  2
AIGNBL0401000C
 10
0
 20
0
 30
0
  0
ENDSEC
  0
EOF
