  0
SECTION
  2
HEADER
  9
$ACADVER
  1
AC1018
  9
$ACADMAINTVER
 70
     0
  9
$DWGCODEPAGE
  3
ANSI_932
  9
$INSBASE
 10
0.0
 20
0.0
 30
0.0
  9
$EXTMIN
 10
1.000000000000000E+20
 20
1.000000000000000E+20
 30
1.000000000000000E+20
  9
$EXTMAX
 10
-1.000000000000000E+20
 20
-1.000000000000000E+20
 30
-1.000000000000000E+20
  9
$LIMMIN
 10
0.0
 20
0.0
  9
$LIMMAX
 10
12.0
 20
9.0
  9
$ORTHOMODE
 70
     0
  9
$REGENMODE
 70
     1
  9
$FILLMODE
 70
     1
  9
$QTEXTMODE
 70
     0
  9
$MIRRTEXT
 70
     1
  9
$LTSCALE
 40
1.0
  9
$ATTMODE
 70
     1
  9
$TEXTSIZE
 40
0.2
  9
$TRACEWID
 40
0.05
  9
$TEXTSTYLE
  7
Standard
  9
$CLAYER
  8
0
  9
$CELTYPE
  6
ByLayer
  9
$CECOLOR
 62
   256
  9
$CELTSCALE
 40
1.0
  9
$DISPSILH
 70
     0
  9
$DIMSCALE
 40
1.0
  9
$DIMASZ
 40
0.18
  9
$DIMEXO
 40
0.0625
  9
$DIMDLI
 40
0.38
  9
$DIMRND
 40
0.0
  9
$DIMDLE
 40
0.0
  9
$DIMEXE
 40
0.18
  9
$DIMTP
 40
0.0
  9
$DIMTM
 40
0.0
  9
$DIMTXT
 40
0.18
  9
$DIMCEN
 40
0.09
  9
$DIMTSZ
 40
0.0
  9
$DIMTOL
 70
     0
  9
$DIMLIM
 70
     0
  9
$DIMTIH
 70
     1
  9
$DIMTOH
 70
     1
  9
$DIMSE1
 70
     0
  9
$DIMSE2
 70
     0
  9
$DIMTAD
 70
     0
  9
$DIMZIN
 70
     0
  9
$DIMBLK
  1

  9
$DIMASO
 70
     1
  9
$DIMSHO
 70
     1
  9
$DIMPOST
  1

  9
$DIMAPOST
  1

  9
$DIMALT
 70
     0
  9
$DIMALTD
 70
     2
  9
$DIMALTF
 40
25.4
  9
$DIMLFAC
 40
1.0
  9
$DIMTOFL
 70
     0
  9
$DIMTVP
 40
0.0
  9
$DIMTIX
 70
     0
  9
$DIMSOXD
 70
     0
  9
$DIMSAH
 70
     0
  9
$DIMBLK1
  1

  9
$DIMBLK2
  1

  9
$DIMSTYLE
  2
Standard
  9
$DIMCLRD
 70
     0
  9
$DIMCLRE
 70
     0
  9
$DIMCLRT
 70
     0
  9
$DIMTFAC
 40
1.0
  9
$DIMGAP
 40
0.09
  9
$DIMJUST
 70
     0
  9
$DIMSD1
 70
     0
  9
$DIMSD2
 70
     0
  9
$DIMTOLJ
 70
     1
  9
$DIMTZIN
 70
     0
  9
$DIMALTZ
 70
     0
  9
$DIMALTTZ
 70
     0
  9
$DIMUPT
 70
     0
  9
$DIMDEC
 70
     4
  9
$DIMTDEC
 70
     4
  9
$DIMALTU
 70
     2
  9
$DIMALTTD
 70
     2
  9
$DIMTXSTY
  7
Standard
  9
$DIMAUNIT
 70
     0
  9
$DIMADEC
 70
     0
  9
$DIMALTRND
 40
0.0
  9
$DIMAZIN
 70
     0
  9
$DIMDSEP
 70
    46
  9
$DIMATFIT
 70
     3
  9
$DIMFRAC
 70
     0
  9
$DIMLDRBLK
  1

  9
$DIMLUNIT
 70
     2
  9
$DIMLWD
 70
    -2
  9
$DIMLWE
 70
    -2
  9
$DIMTMOVE
 70
     0
  9
$LUNITS
 70
     2
  9
$LUPREC
 70
     4
  9
$SKETCHINC
 40
0.1
  9
$FILLETRAD
 40
0.5
  9
$AUNITS
 70
     0
  9
$AUPREC
 70
     0
  9
$MENU
  1
.
  9
$ELEVATION
 40
0.0
  9
$PELEVATION
 40
0.0
  9
$THICKNESS
 40
0.0
  9
$LIMCHECK
 70
     0
  9
$CHAMFERA
 40
0.5
  9
$CHAMFERB
 40
0.5
  9
$CHAMFERC
 40
1.0
  9
$CHAMFERD
 40
0.0
  9
$SKPOLY
 70
     0
  9
$TDCREATE
 40
2457533.821516204
  9
$TDUCREATE
 40
2457533.446516204
  9
$TDUPDATE
 40
2457533.821516215
  9
$TDUUPDATE
 40
2457533.446516215
  9
$TDINDWG
 40
0.0000000116
  9
$TDUSRTIMER
 40
0.0000000116
  9
$USRTIMER
 70
     1
  9
$ANGBASE
 50
0.0
  9
$ANGDIR
 70
     0
  9
$PDMODE
 70
     0
  9
$PDSIZE
 40
0.0
  9
$PLINEWID
 40
0.0
  9
$SPLFRAME
 70
     0
  9
$SPLINETYPE
 70
     6
  9
$SPLINESEGS
 70
     8
  9
$HANDSEED
  5
1D8
  9
$SURFTAB1
 70
     6
  9
$SURFTAB2
 70
     6
  9
$SURFTYPE
 70
     6
  9
$SURFU
 70
     6
  9
$SURFV
 70
     6
  9
$UCSBASE
  2

  9
$UCSNAME
  2

  9
$UCSORG
 10
0.0
 20
0.0
 30
0.0
  9
$UCSXDIR
 10
1.0
 20
0.0
 30
0.0
  9
$UCSYDIR
 10
0.0
 20
1.0
 30
0.0
  9
$UCSORTHOREF
  2

  9
$UCSORTHOVIEW
 70
     0
  9
$UCSORGTOP
 10
0.0
 20
0.0
 30
0.0
  9
$UCSORGBOTTOM
 10
0.0
 20
0.0
 30
0.0
  9
$UCSORGLEFT
 10
0.0
 20
0.0
 30
0.0
  9
$UCSORGRIGHT
 10
0.0
 20
0.0
 30
0.0
  9
$UCSORGFRONT
 10
0.0
 20
0.0
 30
0.0
  9
$UCSORGBACK
 10
0.0
 20
0.0
 30
0.0
  9
$PUCSBASE
  2

  9
$PUCSNAME
  2

  9
$PUCSORG
 10
0.0
 20
0.0
 30
0.0
  9
$PUCSXDIR
 10
1.0
 20
0.0
 30
0.0
  9
$PUCSYDIR
 10
0.0
 20
1.0
 30
0.0
  9
$PUCSORTHOREF
  2

  9
$PUCSORTHOVIEW
 70
     0
  9
$PUCSORGTOP
 10
0.0
 20
0.0
 30
0.0
  9
$PUCSORGBOTTOM
 10
0.0
 20
0.0
 30
0.0
  9
$PUCSORGLEFT
 10
0.0
 20
0.0
 30
0.0
  9
$PUCSORGRIGHT
 10
0.0
 20
0.0
 30
0.0
  9
$PUCSORGFRONT
 10
0.0
 20
0.0
 30
0.0
  9
$PUCSORGBACK
 10
0.0
 20
0.0
 30
0.0
  9
$USERI1
 70
     0
  9
$USERI2
 70
     0
  9
$USERI3
 70
     0
  9
$USERI4
 70
     0
  9
$USERI5
 70
     0
  9
$USERR1
 40
0.0
  9
$USERR2
 40
0.0
  9
$USERR3
 40
0.0
  9
$USERR4
 40
0.0
  9
$USERR5
 40
0.0
  9
$WORLDVIEW
 70
     1
  9
$SHADEDGE
 70
     3
  9
$SHADEDIF
 70
    70
  9
$TILEMODE
 70
     1
  9
$MAXACTVP
 70
    64
  9
$PINSBASE
 10
0.0
 20
0.0
 30
0.0
  9
$PLIMCHECK
 70
     0
  9
$PEXTMIN
 10
1.000000000000000E+20
 20
1.000000000000000E+20
 30
1.000000000000000E+20
  9
$PEXTMAX
 10
-1.000000000000000E+20
 20
-1.000000000000000E+20
 30
-1.000000000000000E+20
  9
$PLIMMIN
 10
0.0
 20
0.0
  9
$PLIMMAX
 10
12.0
 20
9.0
  9
$UNITMODE
 70
     0
  9
$VISRETAIN
 70
     1
  9
$PLINEGEN
 70
     0
  9
$PSLTSCALE
 70
     1
  9
$TREEDEPTH
 70
  3020
  9
$CMLSTYLE
  2
Standard
  9
$CMLJUST
 70
     0
  9
$CMLSCALE
 40
1.0
  9
$PROXYGRAPHICS
 70
     1
  9
$MEASUREMENT
 70
     0
  9
$CELWEIGHT
370
    -1
  9
$ENDCAPS
280
     0
  9
$JOINSTYLE
280
     0
  9
$LWDISPLAY
290
     1
  9
$INSUNITS
 70
     1
  9
$HYPERLINKBASE
  1

  9
$STYLESHEET
  1

  9
$XEDIT
290
     1
  9
$CEPSNTYPE
380
     0
  9
$PSTYLEMODE
290
     1
  9
$FINGERPRINTGUID
  2
{AA8936D4-F4CD-C9C1-8C20-C0CBD1BFC6A5}
  9
$VERSIONGUID
  2
{FAEB1C32-E019-11D5-929B-00C0DF256EC4}
  9
$EXTNAMES
290
     1
  9
$PSVPSCALE
 40
0.0
  9
$OLESTARTUP
290
     0
  9
$SORTENTS
280
   127
  9
$INDEXCTL
280
     0
  9
$HIDETEXT
280
     1
  9
$XCLIPFRAME
290
     0
  9
$HALOGAP
280
     0
  9
$OBSCOLOR
 70
   257
  9
$OBSLTYPE
280
     0
  9
$INTERSECTIONDISPLAY
280
     0
  9
$INTERSECTIONCOLOR
 70
   257
  9
$DIMASSOC
280
     2
  9
$PROJECTNAME
  1

  0
ENDSEC
  0
SECTION
  2
CLASSES
  0
CLASS
  1
ACDBDICTIONARYWDFLT
  2
AcDbDictionaryWithDefault
  3
ObjectDBX Classes
 90
        0
 91
        3
280
     0
281
     0
  0
CLASS
  1
VISUALSTYLE
  2
AcDbVisualStyle
  3
ObjectDBX Classes
 90
     4095
 91
        3
280
     0
281
     0
  0
CLASS
  1
IMAGEDEF
  2
AcDbRasterImageDef
  3
ISM
 90
        0
 91
        3
280
     0
281
     0
  0
CLASS
  1
RASTERVARIABLES
  2
AcDbRasterVariables
  3
ISM
 90
        0
 91
        3
280
     0
281
     0
  0
CLASS
  1
IMAGE
  2
AcDbRasterImage
  3
ISM
 90
      127
 91
        4
280
     0
281
     1
  0
CLASS
  1
IMAGEDEF_REACTOR
  2
AcDbRasterImageDefReactor
  3
ISM
 90
        1
 91
        3
280
     0
281
     0
  0
ENDSEC
  0
SECTION
  2
TABLES
  0
TABLE
  2
VPORT
  5
8
330
0
100
AcDbSymbolTable
 70
     1
  0
VPORT
  5
29
330
8
100
AcDbSymbolTableRecord
100
AcDbViewportTableRecord
  2
*Active
 70
     0
 10
0.0
 20
0.0
 11
1.0
 21
1.0
 12
0.0
 22
0.0
 13
0.0
 23
0.0
 14
0.5
 24
0.5
 15
0.5
 25
0.5
 16
0.0
 26
0.0
 36
1.0
 17
110.9000352370319
 27
130.8998480575528
 37
0.0
 40
210.3527071956757
 41
1.413592843596152
 42
50.0
 43
0.0
 44
0.0
 50
0.0
 51
0.0
 71
     0
 72
   100
 73
     1
 74
     3
 75
     0
 76
     0
 77
     0
 78
     0
281
     0
 65
     1
110
0.0
120
0.0
130
0.0
111
1.0
121
0.0
131
0.0
112
0.0
122
1.0
132
0.0
 79
     0
146
0.0
  0
ENDTAB
  0
TABLE
  2
LTYPE
  5
5
330
0
100
AcDbSymbolTable
 70
    14
  0
LTYPE
  5
14
330
5
100
AcDbSymbolTableRecord
100
AcDbLinetypeTableRecord
  2
ByBlock
 70
     0
  3

 72
    65
 73
     0
 40
0.0
  0
LTYPE
  5
15
330
5
100
AcDbSymbolTableRecord
100
AcDbLinetypeTableRecord
  2
ByLayer
 70
     0
  3

 72
    65
 73
     0
 40
0.0
  0
LTYPE
  5
16
330
5
100
AcDbSymbolTableRecord
100
AcDbLinetypeTableRecord
  2
Continuous
 70
     0
  3
Solid line
 72
    65
 73
     0
 40
0.0
  0
LTYPE
  5
7F
330
5
100
AcDbSymbolTableRecord
100
AcDbLinetypeTableRecord
  2
AI-Linetype-1
 70
     0
  3
Adobe Illustrator Linetype No. 1
 72
    65
 73
     2
 40
1.411816783393129
 49
0.7059083916965647
 74
     0
 49
-0.7059083916965647
 74
     0
  0
LTYPE
  5
8D
330
5
100
AcDbSymbolTableRecord
100
AcDbLinetypeTableRecord
  2
AI-Linetype-2
 70
     0
  3
Adobe Illustrator Linetype No. 2
 72
    65
 73
     2
 40
1.221528330471044
 49
0.6107641652355222
 74
     0
 49
-0.6107641652355222
 74
     0
  0
LTYPE
  5
8F
330
5
100
AcDbSymbolTableRecord
100
AcDbLinetypeTableRecord
  2
AI-Linetype-3
 70
     0
  3
Adobe Illustrator Linetype No. 3
 72
    65
 73
     2
 40
1.221528330471044
 49
0.6107641652355222
 74
     0
 49
-0.6107641652355222
 74
     0
  0
LTYPE
  5
94
330
5
100
AcDbSymbolTableRecord
100
AcDbLinetypeTableRecord
  2
AI-Linetype-4
 70
     0
  3
Adobe Illustrator Linetype No. 4
 72
    65
 73
     2
 40
1.221528330471044
 49
0.6107641652355222
 74
     0
 49
-0.6107641652355222
 74
     0
  0
LTYPE
  5
99
330
5
100
AcDbSymbolTableRecord
100
AcDbLinetypeTableRecord
  2
AI-Linetype-5
 70
     0
  3
Adobe Illustrator Linetype No. 5
 72
    65
 73
     2
 40
1.221528330471044
 49
0.6107641652355222
 74
     0
 49
-0.6107641652355222
 74
     0
  0
LTYPE
  5
9E
330
5
100
AcDbSymbolTableRecord
100
AcDbLinetypeTableRecord
  2
AI-Linetype-6
 70
     0
  3
Adobe Illustrator Linetype No. 6
 72
    65
 73
     2
 40
1.221528330471044
 49
0.6107641652355222
 74
     0
 49
-0.6107641652355222
 74
     0
  0
LTYPE
  5
A3
330
5
100
AcDbSymbolTableRecord
100
AcDbLinetypeTableRecord
  2
AI-Linetype-7
 70
     0
  3
Adobe Illustrator Linetype No. 7
 72
    65
 73
     2
 40
1.221528330471044
 49
0.6107641652355222
 74
     0
 49
-0.6107641652355222
 74
     0
  0
LTYPE
  5
15C
330
5
100
AcDbSymbolTableRecord
100
AcDbLinetypeTableRecord
  2
AI-Linetype-8
 70
     0
  3
Adobe Illustrator Linetype No. 8
 72
    65
 73
     2
 40
1.221528330471044
 49
0.6107641652355222
 74
     0
 49
-0.6107641652355222
 74
     0
  0
LTYPE
  5
15E
330
5
100
AcDbSymbolTableRecord
100
AcDbLinetypeTableRecord
  2
AI-Linetype-9
 70
     0
  3
Adobe Illustrator Linetype No. 9
 72
    65
 73
     2
 40
1.221528330471044
 49
0.6107641652355222
 74
     0
 49
-0.6107641652355222
 74
     0
  0
LTYPE
  5
163
330
5
100
AcDbSymbolTableRecord
100
AcDbLinetypeTableRecord
  2
AI-Linetype-10
 70
     0
  3
Adobe Illustrator Linetype No. 10
 72
    65
 73
     2
 40
1.221528330471044
 49
0.6107641652355222
 74
     0
 49
-0.6107641652355222
 74
     0
  0
LTYPE
  5
168
330
5
100
AcDbSymbolTableRecord
100
AcDbLinetypeTableRecord
  2
AI-Linetype-11
 70
     0
  3
Adobe Illustrator Linetype No. 11
 72
    65
 73
     2
 40
1.221528330471044
 49
0.6107641652355222
 74
     0
 49
-0.6107641652355222
 74
     0
  0
LTYPE
  5
16D
330
5
100
AcDbSymbolTableRecord
100
AcDbLinetypeTableRecord
  2
AI-Linetype-12
 70
     0
  3
Adobe Illustrator Linetype No. 12
 72
    65
 73
     2
 40
1.221528330471044
 49
0.6107641652355222
 74
     0
 49
-0.6107641652355222
 74
     0
  0
LTYPE
  5
172
330
5
100
AcDbSymbolTableRecord
100
AcDbLinetypeTableRecord
  2
AI-Linetype-13
 70
     0
  3
Adobe Illustrator Linetype No. 13
 72
    65
 73
     2
 40
1.221528330471044
 49
0.6107641652355222
 74
     0
 49
-0.6107641652355222
 74
     0
  0
ENDTAB
  0
TABLE
  2
LAYER
  5
2
330
0
100
AcDbSymbolTable
 70
     2
  0
LAYER
  5
10
330
2
100
AcDbSymbolTableRecord
100
AcDbLayerTableRecord
  2
0
 70
     0
 62
     7
  6
Continuous
370
    -3
390
F
  0
LAYER
  5
3B
330
2
100
AcDbSymbolTableRecord
100
AcDbLayerTableRecord
  2
\U+30EC\U+30A4\U+30E4\U+30FC 1
 70
     0
 62
     7
  6
Continuous
370
    -3
390
F
  0
ENDTAB
  0
TABLE
  2
STYLE
  5
3
330
0
100
AcDbSymbolTable
 70
     1
  0
STYLE
  5
11
330
3
100
AcDbSymbolTableRecord
100
AcDbTextStyleTableRecord
  2
Standard
 70
     0
 40
0.0
 41
1.0
 50
0.0
 71
     0
 42
0.2
  3
txt
  4

  0
ENDTAB
  0
TABLE
  2
VIEW
  5
6
330
0
100
AcDbSymbolTable
 70
     0
  0
ENDTAB
  0
TABLE
  2
UCS
  5
7
330
0
100
AcDbSymbolTable
 70
     0
  0
ENDTAB
  0
TABLE
  2
APPID
  5
9
330
0
100
AcDbSymbolTable
 70
     1
  0
APPID
  5
12
330
9
100
AcDbSymbolTableRecord
100
AcDbRegAppTableRecord
  2
ACAD
 70
     0
  0
ENDTAB
  0
TABLE
  2
DIMSTYLE
  5
A
330
0
100
AcDbSymbolTable
 70
     1
100
AcDbDimStyleTable
  0
DIMSTYLE
105
27
330
A
100
AcDbSymbolTableRecord
100
AcDbDimStyleTableRecord
  2
Standard
 70
     0
340
11
  0
ENDTAB
  0
TABLE
  2
BLOCK_RECORD
  5
1
330
0
100
AcDbSymbolTable
 70
     1
  0
BLOCK_RECORD
  5
1F
330
1
100
AcDbSymbolTableRecord
100
AcDbBlockTableRecord
  2
*Model_Space
340
22
  0
BLOCK_RECORD
  5
1B
330
1
100
AcDbSymbolTableRecord
100
AcDbBlockTableRecord
  2
*Paper_Space
340
1E
  0
BLOCK_RECORD
  5
23
330
1
100
AcDbSymbolTableRecord
100
AcDbBlockTableRecord
  2
*Paper_Space0
340
26
  0
ENDTAB
  0
ENDSEC
  0
SECTION
  2
BLOCKS
  0
BLOCK
  5
20
330
1F
100
AcDbEntity
  8
0
100
AcDbBlockBegin
  2
*Model_Space
 70
     0
 71
     0
 10
0.0
 20
0.0
 30
0.0
  3
*Model_Space
  1

  0
ENDBLK
  5
21
330
1F
100
AcDbEntity
  8
0
100
AcDbBlockEnd
  0
BLOCK
  5
1C
330
1B
100
AcDbEntity
 67
     1
  8
0
100
AcDbBlockBegin
  2
*Paper_Space
 70
     0
 71
     0
 10
0.0
 20
0.0
 30
0.0
  3
*Paper_Space
  1

  0
ENDBLK
  5
1D
330
1B
100
AcDbEntity
 67
     1
  8
0
100
AcDbBlockEnd
  0
BLOCK
  5
24
330
23
100
AcDbEntity
  8
0
100
AcDbBlockBegin
  2
*Paper_Space0
 70
     0
 71
     0
 10
0.0
 20
0.0
 30
0.0
  3
*Paper_Space0
  1

  0
ENDBLK
  5
25
330
23
100
AcDbEntity
  8
0
100
AcDbBlockEnd
  0
ENDSEC
  0
SECTION
  2
ENTITIES
  0
MTEXT
  5
3C
330
1F
100
AcDbEntity
  8
\U+30EC\U+30A4\U+30E4\U+30FC 1
 62
     7
420
 16777215
100
AcDbMText
 10
-26.2555894574118
 20
43.17118054476276
 30
0.0
 40
2.15899999946025
 41
0.0
 71
     7
 72
     1
  1
\fATC-65b030b44c2d5357495353|b0|i0|c0|p34;\W1;\U+4ED5\U+69D8
 73
     1
 44
1.0
  0
POLYLINE
  5
3D
330
1F
100
AcDbEntity
  8
\U+30EC\U+30A4\U+30E4\U+30FC 1
 62
     7
420
 16777215
370
    35
100
AcDb2dPolyline
 66
     1
 10
0.0
 20
0.0
 30
0.0
  0
VERTEX
  5
3E
330
3D
100
AcDbEntity
  8
\U+30EC\U+30A4\U+30E4\U+30FC 1
 62
     7
420
 16777215
370
    35
100
AcDbVertex
100
AcDb2dVertex
 10
250.6747937741369
 20
51.95066187937345
 30
0.0
  0
VERTEX
  5
3F
330
3D
100
AcDbEntity
  8
\U+30EC\U+30A4\U+30E4\U+30FC 1
 62
     7
420
 16777215
370
    35
100
AcDbVertex
100
AcDb2dVertex
 10
-29.31776257947612
 20
51.95066187937345
 30
0.0
  0
SEQEND
  5
40
330
3D
100
AcDbEntity
  8
\U+30EC\U+30A4\U+30E4\U+30FC 1
370
    35
  0
POLYLINE
  5
41
330
1F
100
AcDbEntity
  8
\U+30EC\U+30A4\U+30E4\U+30FC 1
 62
     7
420
 16777215
370
    70
100
AcDb2dPolyline
 66
     1
 10
0.0
 20
0.0
 30
0.0
  0
VERTEX
  5
42
330
41
100
AcDbEntity
  8
\U+30EC\U+30A4\U+30E4\U+30FC 1
 62
     7
420
 16777215
370
    70
100
AcDbVertex
100
AcDb2dVertex
 10
251.6749049935049
 20
230.337017086513
 30
0.0
  0
VERTEX
  5
43
330
41
100
AcDbEntity
  8
\U+30EC\U+30A4\U+30E4\U+30FC 1
 62
     7
420
 16777215
370
    70
100
AcDbVertex
100
AcDb2dVertex
 10
251.6749049935049
 20
33.32854274340398
 30
0.0
  0
VERTEX
  5
44
330
41
100
AcDbEntity
  8
\U+30EC\U+30A4\U+30E4\U+30FC 1
 62
     7
420
 16777215
370
    70
100
AcDbVertex
100
AcDb2dVertex
 10
-30.31770154406988
 20
33.32854274340398
 30
0.0
  0
VERTEX
  5
45
330
41
100
AcDbEntity
  8
\U+30EC\U+30A4\U+30E4\U+30FC 1
 62
     7
420
 16777215
370
    70
100
AcDbVertex
100
AcDb2dVertex
 10
-30.31770154406988
 20
230.337017086513
 30
0.0
  0
VERTEX
  5
46
330
41
100
AcDbEntity
  8
\U+30EC\U+30A4\U+30E4\U+30FC 1
 62
     7
420
 16777215
370
    70
100
AcDbVertex
100
AcDb2dVertex
 10
251.6749049935049
 20
230.337017086513
 30
0.0
  0
SEQEND
  5
47
330
41
100
AcDbEntity
  8
\U+30EC\U+30A4\U+30E4\U+30FC 1
370
    70
  0
POLYLINE
  5
48
330
1F
100
AcDbEntity
  8
\U+30EC\U+30A4\U+30E4\U+30FC 1
 62
     7
420
 16777215
370
    35
100
AcDb2dPolyline
 66
     1
 10
0.0
 20
0.0
 30
0.0
  0
VERTEX
  5
49
330
48
100
AcDbEntity
  8
\U+30EC\U+30A4\U+30E4\U+30FC 1
 62
     7
420
 16777215
370
    35
100
AcDbVertex
100
AcDb2dVertex
 10
-29.31776257947612
 20
229.336905867145
 30
0.0
  0
VERTEX
  5
4A
330
48
100
AcDbEntity
  8
\U+30EC\U+30A4\U+30E4\U+30FC 1
 62
     7
420
 16777215
370
    35
100
AcDbVertex
100
AcDb2dVertex
 10
-29.31776257947612
 20
34.32830945322348
 30
0.0
  0
VERTEX
  5
4B
330
48
100
AcDbEntity
  8
\U+30EC\U+30A4\U+30E4\U+30FC 1
 62
     7
420
 16777215
370
    35
100
AcDbVertex
100
AcDb2dVertex
 10
250.6747937741369
 20
34.32830945322348
 30
0.0
  0
VERTEX
  5
4C
330
48
100
AcDbEntity
  8
\U+30EC\U+30A4\U+30E4\U+30FC 1
 62
     7
420
 16777215
370
    35
100
AcDbVertex
100
AcDb2dVertex
 10
250.6747937741369
 20
229.336905867145
 30
0.0
  0
VERTEX
  5
4D
330
48
100
AcDbEntity
  8
\U+30EC\U+30A4\U+30E4\U+30FC 1
 62
     7
420
 16777215
370
    35
100
AcDbVertex
100
AcDb2dVertex
 10
-29.31776257947612
 20
229.336905867145
 30
0.0
  0
SEQEND
  5
4E
330
48
100
AcDbEntity
  8
\U+30EC\U+30A4\U+30E4\U+30FC 1
370
    35
  0
POLYLINE
  5
4F
330
1F
100
AcDbEntity
  8
\U+30EC\U+30A4\U+30E4\U+30FC 1
 62
     7
420
 16777215
370
    35
100
AcDb2dPolyline
 66
     1
 10
0.0
 20
0.0
 30
0.0
  0
VERTEX
  5
50
330
4F
100
AcDbEntity
  8
\U+30EC\U+30A4\U+30E4\U+30FC 1
 62
     7
420
 16777215
370
    35
100
AcDbVertex
100
AcDb2dVertex
 10
250.6747937741369
 20
60.45970321839202
 30
0.0
  0
VERTEX
  5
51
330
4F
100
AcDbEntity
  8
\U+30EC\U+30A4\U+30E4\U+30FC 1
 62
     7
420
 16777215
370
    35
100
AcDbVertex
100
AcDb2dVertex
 10
-29.31776257947612
 20
60.45970321839202
 30
0.0
  0
SEQEND
  5
52
330
4F
100
AcDbEntity
  8
\U+30EC\U+30A4\U+30E4\U+30FC 1
370
    35
  0
POLYLINE
  5
53
330
1F
100
AcDbEntity
  8
\U+30EC\U+30A4\U+30E4\U+30FC 1
 62
     7
420
 16777215
370
    35
100
AcDb2dPolyline
 66
     1
 10
0.0
 20
0.0
 30
0.0
  0
VERTEX
  5
54
330
53
100
AcDbEntity
  8
\U+30EC\U+30A4\U+30E4\U+30FC 1
 62
     7
420
 16777215
370
    35
100
AcDbVertex
100
AcDb2dVertex
 10
250.6747937741369
 20
43.44162054035488
 30
0.0
  0
VERTEX
  5
55
330
53
100
AcDbEntity
  8
\U+30EC\U+30A4\U+30E4\U+30FC 1
 62
     7
420
 16777215
370
    35
100
AcDbVertex
100
AcDb2dVertex
 10
143.5340467306096
 20
43.44162054035488
 30
0.0
  0
SEQEND
  5
56
330
53
100
AcDbEntity
  8
\U+30EC\U+30A4\U+30E4\U+30FC 1
370
    35
  0
MTEXT
  5
57
330
1F
100
AcDbEntity
  8
\U+30EC\U+30A4\U+30E4\U+30FC 1
 62
     7
420
 16777215
100
AcDbMText
 10
188.1724934425402
 20
45.71745061791092
 30
0.0
 40
2.461259968499943
 41
0.0
 71
     7
 72
     1
  1
\fATC-65b030b44c2d5357495353|b0|i0|c0|p34;\W1.02;-
 73
     1
 44
1.0
  0
MTEXT
  5
58
330
1F
100
AcDbEntity
  8
\U+30EC\U+30A4\U+30E4\U+30FC 1
 62
     7
420
 16777215
100
AcDbMText
 10
182.8808267771965
 20
49.47432724457587
 30
0.0
 40
1.4393333329735
 41
0.0
 71
     7
 72
     1
  1
\fATC-65b030b44c2d5357495353|b0|i0|c0|p34;\W1;\U+7E2E\U+5C3A
 73
     1
 44
1.0
  0
POLYLINE
  5
59
330
1F
100
AcDbEntity
  8
\U+30EC\U+30A4\U+30E4\U+30FC 1
 62
     7
420
 16777215
370
    35
100
AcDb2dPolyline
 66
     1
 10
0.0
 20
0.0
 30
0.0
  0
VERTEX
  5
5A
330
59
100
AcDbEntity
  8
\U+30EC\U+30A4\U+30E4\U+30FC 1
 62
     7
420
 16777215
370
    35
100
AcDbVertex
100
AcDb2dVertex
 10
181.3525824199396
 20
43.44162054035488
 30
0.0
  0
VERTEX
  5
5B
330
59
100
AcDbEntity
  8
\U+30EC\U+30A4\U+30E4\U+30FC 1
 62
     7
420
 16777215
370
    35
100
AcDbVertex
100
AcDb2dVertex
 10
181.3525824199396
 20
51.95066187937345
 30
0.0
  0
SEQEND
  5
5C
330
59
100
AcDbEntity
  8
\U+30EC\U+30A4\U+30E4\U+30FC 1
370
    35
  0
MTEXT
  5
5D
330
1F
100
AcDbEntity
  8
\U+30EC\U+30A4\U+30E4\U+30FC 1
 62
     7
420
 16777215
100
AcDbMText
 10
144.2327120950182
 20
57.98336858359444
 30
0.0
 40
1.4393333329735
 41
0.0
 71
     7
 72
     1
  1
\fATC-65b030b44c2d5357495353|b0|i0|c0|p34;\W1;\U+54C1\U+756A
 73
     1
 44
1.0
  0
MTEXT
  5
5E
330
1F
100
AcDbEntity
  8
\U+30EC\U+30A4\U+30E4\U+30FC 1
 62
     7
420
 16777215
100
AcDbMText
 10
-28.16089951552922
 20
57.98336858359444
 30
0.0
 40
1.4393333329735
 41
0.0
 71
     7
 72
     1
  1
\fATC-65b030b44c2d5357495353|b0|i0|c0|p34;\W1;\U+54C1\U+540D
 73
     1
 44
1.0
  0
MTEXT
  5
5F
330
1F
100
AcDbEntity
  8
\U+30EC\U+30A4\U+30E4\U+30FC 1
 62
     7
420
 16777215
100
AcDbMText
 10
144.2327120950182
 20
49.47432724457587
 30
0.0
 40
1.4393333329735
 41
0.0
 71
     7
 72
     1
  1
\fATC-65b030b44c2d5357495353|b0|i0|c0|p34;\W1;\U+91CD\U+91CF
 73
     1
 44
1.0
  0
MTEXT
  5
60
330
1F
100
AcDbEntity
  8
\U+30EC\U+30A4\U+30E4\U+30FC 1
 62
   179
420
  2234388
100
AcDbMText
 10
150.2547390032349
 20
54.15138887535105
 30
0.0
 40
3.488400945125171
 41
0.0
 71
     7
 72
     1
  1
\fATC-30d230e930ae30ce7736206675747572612d626f6c64|b0|i0|c0|p34;\W1;CIE-SHCOLAR60/
 73
     1
 44
1.0
  0
MTEXT
  5
61
330
1F
100
AcDbEntity
  8
\U+30EC\U+30A4\U+30E4\U+30FC 1
 62
     7
420
 16777215
100
AcDbMText
 10
149.545393842822
 20
45.71745061791092
 30
0.0
 40
2.461259968499943
 41
0.0
 71
     7
 72
     1
  1
\fATC-65b030b44c2d5357495353|b0|i0|c0|p34;\W1.02;-
 73
     1
 44
1.0
  0
POLYLINE
  5
62
330
1F
100
AcDbEntity
  8
\U+30EC\U+30A4\U+30E4\U+30FC 1
 62
     7
420
 16777215
370
    35
100
AcDb2dPolyline
 66
     1
 10
0.0
 20
0.0
 30
0.0
  0
VERTEX
  5
63
330
62
100
AcDbEntity
  8
\U+30EC\U+30A4\U+30E4\U+30FC 1
 62
     7
420
 16777215
370
    35
100
AcDbVertex
100
AcDb2dVertex
 10
143.5340467306096
 20
34.95393879334485
 30
0.0
  0
VERTEX
  5
64
330
62
100
AcDbEntity
  8
\U+30EC\U+30A4\U+30E4\U+30FC 1
 62
     7
420
 16777215
370
    35
100
AcDbVertex
100
AcDb2dVertex
 10
143.5340467306096
 20
60.45970321839202
 30
0.0
  0
SEQEND
  5
65
330
62
100
AcDbEntity
  8
\U+30EC\U+30A4\U+30E4\U+30FC 1
370
    35
  0
MTEXT
  5
66
330
1F
100
AcDbEntity
  8
\U+30EC\U+30A4\U+30E4\U+30FC 1
 62
     7
420
 16777215
100
AcDbMText
 10
-15.34721136769098
 20
54.89105087603419
 30
0.0
 40
2.380000008411924
 41
0.0
 71
     7
 72
     1
  1
\fATC-65b030b44c2d5357495353|b0|i0|c0|p34;\W0.94;\U+30B7\U+30E5\U+30A4\U+30B3\U+30F3\U+30D5\U+30A9\U+30FC\U+30C8\H2.7132;\W0.9588; \H2.38;\W0.94;\U+30AB\U+30A6\U+30F3\U+30BF\U+30FC\U+7F6E\U+304D\U+578B\U+624B\U+6D17\U+5668\H2.7132;\W0.9588;600\H2.38;\W0.94;\U+FF4D\U+FF4D
 73
     1
 44
1.0
  0
IMAGE
  5
6A
330
1F
100
AcDbEntity
  8
\U+30EC\U+30A4\U+30E4\U+30FC 1
 92
        8
310
0800000000000000
100
AcDbRasterImage
 90
        0
 10
144.9916687011719
 20
35.63055419921875
 30
0.0
 11
0.3527777700713187
 21
0.0
 31
0.0
 12
0.0
 22
0.3527777671813965
 32
0.0
 13
33.0
 23
20.0
340
68
 70
     3
280
     0
281
    50
282
    50
283
     0
360
6B
 71
     1
 91
        2
 14
-0.5
 24
-0.5
 14
32.5
 24
19.5
  0
MTEXT
  5
6C
330
1F
100
AcDbEntity
  8
\U+30EC\U+30A4\U+30E4\U+30FC 1
 62
   179
420
  2234388
100
AcDbMText
 10
159.6212646085322
 20
39.53591578872713
 30
0.0
 40
1.943100091024574
 41
0.0
 71
     7
 72
     1
  1
\fATC-65b030b44c2d5357495353|b0|i0|c0|p34;\W1;\U+25CF\H2.21513;\W1.02;TEL 0120-65-1232\H1.9431;\W1;\U+25CF\H2.21513;\W1.02;FAX 06-6532-1580
 73
     1
 44
1.0
  0
MTEXT
  5
6D
330
1F
100
AcDbEntity
  8
\U+30EC\U+30A4\U+30E4\U+30FC 1
 62
   179
420
  2234388
100
AcDbMText
 10
159.6212646085322
 20
36.02122937467525
 30
0.0
 40
2.215134075971745
 41
0.0
 71
     7
 72
     1
  1
\fATC-65b030b44c2d5357495353|b0|i0|c0|p34;\W1.02;hits@hiratatile.co.jp
 73
     1
 44
1.0
  0
IMAGE
  5
6F
330
1F
100
AcDbEntity
  8
\U+30EC\U+30A4\U+30E4\U+30FC 1
 92
        8
310
0800000000000000
100
AcDbRasterImage
 90
        0
 10
-25.04722213745117
 20
210.9611053466797
 30
0.0
 11
0.3527777684877997
 21
0.0
 31
0.0
 12
0.0
 22
0.3527777808053153
 32
0.0
 13
73.0
 23
35.0
340
6E
 70
     3
280
     0
281
    50
282
    50
283
     0
360
70
 71
     1
 91
        2
 14
-0.5
 24
-0.5
 14
72.5
 24
34.5
  0
MTEXT
  5
71
330
1F
100
AcDbEntity
  8
\U+30EC\U+30A4\U+30E4\U+30FC 1
 62
   179
420
  2234388
100
AcDbMText
 10
-15.68345268705136
 20
43.96251897772465
 30
0.0
 40
2.040000628173302
 41
0.0
 71
     7
 72
     1
  1
\fATC-65b030b44c2d5357495353|b0|i0|c0|p34;\W1;\U+25CF\U+8A2D\U+7F6E\U+65B9\U+6CD5\U+FF1A\U+30AB\U+30A6\U+30F3\U+30BF\U+30FC\U+7F6E\U+304D\U+25CF\U+6C34\U+6813\U+53D6\U+4ED8\U+7A74\U+FF1A\U+306A\U+3057\U+25CF\U+30AA\U+30FC\U+30D0\U+30FC\U+30D5\U+30ED\U+30FC\U+306A\U+3057
 73
     1
 44
1.0
  0
MTEXT
  5
72
330
1F
100
AcDbEntity
  8
\U+30EC\U+30A4\U+30E4\U+30FC 1
 62
   179
420
  2234388
100
AcDbMText
 10
-15.68345268705136
 20
39.21242132266217
 30
0.0
 40
2.040000628173302
 41
0.0
 71
     7
 72
     1
  1
\fATC-65b030b44c2d5357495353|b0|i0|c0|p34;\W1;\U+25CF\U+6392\U+6C34\U+91D1\U+5177\U+5225\U+9014
 73
     1
 44
1.0
  0
MTEXT
  5
73
330
1F
100
AcDbEntity
  8
\U+30EC\U+30A4\U+30E4\U+30FC 1
 62
   179
420
  2234388
100
AcDbMText
 10
237.2630370500592
 20
63.25815428106046
 30
0.0
 40
1.699998960175959
 41
0.0
 71
     7
 72
     1
  1
\fATC-65b030b44c2d5357495353|b0|i0|c0|p34;\W1;\U+5358\U+4F4D\U+FF1A\H1.938;\W1.02;mm
 73
     1
 44
1.0
  0
MTEXT
  5
74
330
1F
100
AcDbEntity
  8
\U+30EC\U+30A4\U+30E4\U+30FC 1
 62
   179
420
  2234388
100
AcDbMText
 10
6.521738008352204
 20
219.7385253356904
 30
0.0
 40
1.699998960175959
 41
0.0
 71
     7
 72
     1
  1
\fATC-65b030b44c2d5357495353|b0|i0|c0|p34;\W1;\U+203B\U+9676\U+5668\U+88FD\U+54C1\U+306F\U+5BF8\U+6CD5\U+516C\U+5DEE\U+304C\U+767A\U+751F\U+3057\U+307E\U+3059\U+3002
 73
     1
 44
1.0
  0
MTEXT
  5
75
330
1F
100
AcDbEntity
  8
\U+30EC\U+30A4\U+30E4\U+30FC 1
 62
   179
420
  2234388
100
AcDbMText
 10
6.406844073919123
 20
214.9885999354022
 30
0.0
 40
1.699998960175959
 41
0.0
 71
     7
 72
     1
  1
\fATC-65b030b44c2d5357495353|b0|i0|c0|p34;\W1;\U+30AB\U+30A6\U+30F3\U+30BF\U+30FC\U+5207\U+308A\U+8FBC\U+307F\U+306E\U+969B\U+306F\U+5FC5\U+305A\U+73FE\U+7269\U+3092\U+5408\U+308F\U+305B\U+3066\U+3054\U+78BA\U+8A8D\U+304F\U+3060\U+3055\U+3044\U+3002
 73
     1
 44
1.0
  0
MTEXT
  5
76
330
1F
100
AcDbEntity
  8
\U+30EC\U+30A4\U+30E4\U+30FC 1
 62
   179
420
  2234388
100
AcDbMText
 10
6.521738008352204
 20
210.2385022803397
 30
0.0
 40
1.699998960175959
 41
0.0
 71
     7
 72
     1
  1
\fATC-65b030b44c2d5357495353|b0|i0|c0|p34;\W1;\U+203B\U+56FA\U+5B9A\U+306B\U+306F\U+3001\U+30B7\U+30EA\U+30B3\U+30F3\U+30B3\U+30FC\U+30AD\U+30F3\U+30B0\U+6750\U+7B49\U+3092\U+624B\U+6D17\U+5668\U+3068
 73
     1
 44
1.0
  0
MTEXT
  5
77
330
1F
100
AcDbEntity
  8
\U+30EC\U+30A4\U+30E4\U+30FC 1
 62
   179
420
  2234388
100
AcDbMText
 10
6.406844073919123
 20
205.4885768800515
 30
0.0
 40
1.699998960175959
 41
0.0
 71
     7
 72
     1
  1
\fATC-65b030b44c2d5357495353|b0|i0|c0|p34;\W1;\U+30AB\U+30A6\U+30F3\U+30BF\U+30FC\U+306E\U+63A5\U+5730\U+9762\U+306B\U+5857\U+5E03\U+304F\U+3060\U+3055\U+3044\U+3002
 73
     1
 44
1.0
  0
MTEXT
  5
78
330
1F
100
AcDbEntity
  8
\U+30EC\U+30A4\U+30E4\U+30FC 1
 62
   179
420
  2234388
100
AcDbMText
 10
240.3591443626533
 20
225.8432345355531
 30
0.0
 40
1.35659998777171
 41
0.0
 71
     7
 72
     1
  1
\fATC-65b030b44c2d5357495353|b0|i0|c0|p34;\W1.02;150910RT
 73
     1
 44
1.0
  0
MTEXT
  5
79
330
1F
100
AcDbEntity
  8
\U+30EC\U+30A4\U+30E4\U+30FC 1
 62
   179
420
  2234388
100
AcDbMText
 10
154.0925753738032
 20
160.2081366244445
 30
0.0
 40
2.296262091062593
 41
0.0
 71
     7
 72
     1
  1
\fATC-65b030b44c2d5357495353|b0|i0|c0|p34;\W1;\U+30AB\U+30A6\U+30F3\U+30BF\U+30FC\U+958B\U+53E3\U+5BF8\U+6CD5\U+FF1A\H2.61774;\W1.02;\U+00F8100
 73
     1
 44
1.0
  0
POLYLINE
  5
7A
330
1F
100
AcDbEntity
  8
\U+30EC\U+30A4\U+30E4\U+30FC 1
 62
   179
420
  2234388
370
    18
100
AcDb2dPolyline
 66
     1
 10
0.0
 20
0.0
 30
0.0
  0
VERTEX
  5
7B
330
7A
100
AcDbEntity
  8
\U+30EC\U+30A4\U+30E4\U+30FC 1
 62
   179
420
  2234388
370
    18
100
AcDbVertex
100
AcDb2dVertex
 10
195.9845919648928
 20
157.151131145608
 30
0.0
  0
VERTEX
  5
7C
330
7A
100
AcDbEntity
  8
\U+30EC\U+30A4\U+30E4\U+30FC 1
 62
   179
420
  2234388
370
    18
100
AcDbVertex
100
AcDb2dVertex
 10
154.1135904562633
 20
157.151131145608
 30
0.0
  0
SEQEND
  5
7D
330
7A
100
AcDbEntity
  8
\U+30EC\U+30A4\U+30E4\U+30FC 1
370
    18
  0
SPLINE
  5
7E
330
1F
100
AcDbEntity
  8
\U+30EC\U+30A4\U+30E4\U+30FC 1
  6
AI-Linetype-1
 62
   179
420
  2234388
370
    25
100
AcDbSpline
210
0.0
220
0.0
230
1.0
 70
    11
 71
     3
 72
    17
 73
    13
 74
     0
 42
0.0000000001
 43
0.0000000001
 40
0.0
 40
0.0
 40
0.0
 40
0.0
 40
1.0
 40
1.0
 40
1.0
 40
2.0
 40
2.0
 40
2.0
 40
3.0
 40
3.0
 40
3.0
 40
4.0
 40
4.0
 40
4.0
 40
4.0
 10
205.9843261203789
 20
157.151131145608
 30
0.0
 10
205.9843261203789
 20
154.3895426046318
 30
0.0
 10
203.7457030740636
 20
152.151264067865
 30
0.0
 10
200.9841145330873
 20
152.151264067865
 30
0.0
 10
198.222525992111
 20
152.151264067865
 30
0.0
 10
195.9845919648928
 20
154.3895426046318
 30
0.0
 10
195.9845919648928
 20
157.151131145608
 30
0.0
 10
195.9845919648928
 20
159.9130641961329
 30
0.0
 10
198.222525992111
 20
162.1513427328997
 30
0.0
 10
200.9841145330873
 20
162.1513427328997
 30
0.0
 10
203.7457030740636
 20
162.1513427328997
 30
0.0
 10
205.9843261203789
 20
159.9130641961329
 30
0.0
 10
205.9843261203789
 20
157.151131145608
 30
0.0
  0
POLYLINE
  5
80
330
1F
100
AcDbEntity
  8
\U+30EC\U+30A4\U+30E4\U+30FC 1
 62
   179
420
  2234388
370
    70
100
AcDb2dPolyline
 66
     1
 10
0.0
 20
0.0
 30
0.0
  0
VERTEX
  5
81
330
80
100
AcDbEntity
  8
\U+30EC\U+30A4\U+30E4\U+30FC 1
 62
   179
420
  2234388
370
    70
100
AcDbVertex
100
AcDb2dVertex
 10
77.06713051458739
 20
97.2826063124849
 30
0.0
  0
VERTEX
  5
82
330
80
100
AcDbEntity
  8
\U+30EC\U+30A4\U+30E4\U+30FC 1
 62
   179
420
  2234388
370
    70
100
AcDbVertex
100
AcDb2dVertex
 10
137.0338405690402
 20
97.2826063124849
 30
0.0
  0
SEQEND
  5
83
330
80
100
AcDbEntity
  8
\U+30EC\U+30A4\U+30E4\U+30FC 1
370
    70
  0
SPLINE
  5
84
330
1F
100
AcDbEntity
  8
\U+30EC\U+30A4\U+30E4\U+30FC 1
 62
   179
420
  2234388
370
     9
100
AcDbSpline
210
0.0
220
0.0
230
1.0
 70
    11
 71
     3
 72
    29
 73
    25
 74
     0
 42
0.0000000001
 43
0.0000000001
 40
0.0
 40
0.0
 40
0.0
 40
0.0
 40
1.0
 40
1.0
 40
1.0
 40
2.0
 40
2.0
 40
2.0
 40
3.0
 40
3.0
 40
3.0
 40
4.0
 40
4.0
 40
4.0
 40
5.0
 40
5.0
 40
5.0
 40
6.0
 40
6.0
 40
6.0
 40
7.0
 40
7.0
 40
7.0
 40
8.0
 40
8.0
 40
8.0
 40
8.0
 10
109.3108126896862
 20
157.1447577189603
 30
0.0
 10
109.3108126896862
 20
157.1447577189603
 30
0.0
 10
109.2825629067071
 20
157.5068372544601
 30
0.0
 10
109.2825629067071
 20
157.5068372544601
 30
0.0
 10
109.2825629067071
 20
157.5068372544601
 30
0.0
 10
109.1995361055126
 20
157.8410115165293
 30
0.0
 10
109.1995361055126
 20
157.8410115165293
 30
0.0
 10
108.4519503852134
 20
160.0827351487814
 30
0.0
 10
105.2576578512898
 20
159.8315876879067
 30
0.0
 10
104.8452799217054
 20
157.5068372544601
 30
0.0
 10
104.8452799217054
 20
157.5068372544601
 30
0.0
 10
104.8173746482748
 20
157.1447577189603
 30
0.0
 10
104.8173746482748
 20
157.1447577189603
 30
0.0
 10
104.8173746482748
 20
157.1447577189603
 30
0.0
 10
104.8452799217054
 20
156.7968030749501
 30
0.0
 10
104.8452799217054
 20
156.7968030749501
 30
0.0
 10
105.2497341316737
 20
154.4689520555668
 30
0.0
 10
108.4405815701121
 20
154.2167710660465
 30
0.0
 10
109.1995361055126
 20
156.4488484309399
 30
0.0
 10
109.1995361055126
 20
156.4488484309399
 30
0.0
 10
109.2825629067071
 20
156.7968030749501
 30
0.0
 10
109.2825629067071
 20
156.7968030749501
 30
0.0
 10
109.2825629067071
 20
156.7968030749501
 30
0.0
 10
109.3108126896862
 20
157.1447577189603
 30
0.0
 10
109.3108126896862
 20
157.1447577189603
 30
0.0
  0
SPLINE
  5
85
330
1F
100
AcDbEntity
  8
\U+30EC\U+30A4\U+30E4\U+30FC 1
 62
   179
420
  2234388
370
     9
100
AcDbSpline
210
0.0
220
0.0
230
1.0
 70
    11
 71
     3
 72
    29
 73
    25
 74
     0
 42
0.0000000001
 43
0.0000000001
 40
0.0
 40
0.0
 40
0.0
 40
0.0
 40
1.0
 40
1.0
 40
1.0
 40
2.0
 40
2.0
 40
2.0
 40
3.0
 40
3.0
 40
3.0
 40
4.0
 40
4.0
 40
4.0
 40
5.0
 40
5.0
 40
5.0
 40
6.0
 40
6.0
 40
6.0
 40
7.0
 40
7.0
 40
7.0
 40
8.0
 40
8.0
 40
8.0
 40
8.0
 10
110.3116129281513
 20
157.1447577189603
 30
0.0
 10
110.3116129281513
 20
157.1447577189603
 30
0.0
 10
110.2840521642693
 20
157.5764281832622
 30
0.0
 10
110.2840521642693
 20
157.5764281832622
 30
0.0
 10
110.2840521642693
 20
157.5764281832622
 30
0.0
 10
110.2013698726233
 20
157.994318265623
 30
0.0
 10
110.2013698726233
 20
157.994318265623
 30
0.0
 10
109.1657741697572
 20
161.4177096493157
 30
0.0
 10
104.4239447438593
 20
161.0959377309934
 30
0.0
 10
103.8434461545947
 20
157.5764281832622
 30
0.0
 10
103.8434461545947
 20
157.5764281832622
 30
0.0
 10
103.8158853907127
 20
157.1447577189603
 30
0.0
 10
103.8158853907127
 20
157.1447577189603
 30
0.0
 10
103.8158853907127
 20
157.1447577189603
 30
0.0
 10
103.8434461545947
 20
156.7272121461481
 30
0.0
 10
103.8434461545947
 20
156.7272121461481
 30
0.0
 10
104.3991400563655
 20
153.1925441782817
 30
0.0
 10
109.2067708060316
 20
152.8966104760988
 30
0.0
 10
110.2013698726233
 20
156.3096665733358
 30
0.0
 10
110.2013698726233
 20
156.3096665733358
 30
0.0
 10
110.2840521642693
 20
156.7272121461481
 30
0.0
 10
110.2840521642693
 20
156.7272121461481
 30
0.0
 10
110.2840521642693
 20
156.7272121461481
 30
0.0
 10
110.3116129281513
 20
157.1447577189603
 30
0.0
 10
110.3116129281513
 20
157.1447577189603
 30
0.0
  0
SPLINE
  5
86
330
1F
100
AcDbEntity
  8
\U+30EC\U+30A4\U+30E4\U+30FC 1
 62
   179
420
  2234388
370
     9
100
AcDbSpline
210
0.0
220
0.0
230
1.0
 70
    11
 71
     3
 72
    95
 73
    91
 74
     0
 42
0.0000000001
 43
0.0000000001
 40
0.0
 40
0.0
 40
0.0
 40
0.0
 40
1.0
 40
1.0
 40
1.0
 40
2.0
 40
2.0
 40
2.0
 40
3.0
 40
3.0
 40
3.0
 40
4.0
 40
4.0
 40
4.0
 40
5.0
 40
5.0
 40
5.0
 40
6.0
 40
6.0
 40
6.0
 40
7.0
 40
7.0
 40
7.0
 40
8.0
 40
8.0
 40
8.0
 40
9.0
 40
9.0
 40
9.0
 40
10.0
 40
10.0
 40
10.0
 40
11.0
 40
11.0
 40
11.0
 40
12.0
 40
12.0
 40
12.0
 40
13.0
 40
13.0
 40
13.0
 40
14.0
 40
14.0
 40
14.0
 40
15.0
 40
15.0
 40
15.0
 40
16.0
 40
16.0
 40
16.0
 40
17.0
 40
17.0
 40
17.0
 40
18.0
 40
18.0
 40
18.0
 40
19.0
 40
19.0
 40
19.0
 40
20.0
 40
20.0
 40
20.0
 40
21.0
 40
21.0
 40
21.0
 40
22.0
 40
22.0
 40
22.0
 40
23.0
 40
23.0
 40
23.0
 40
24.0
 40
24.0
 40
24.0
 40
25.0
 40
25.0
 40
25.0
 40
26.0
 40
26.0
 40
26.0
 40
27.0
 40
27.0
 40
27.0
 40
28.0
 40
28.0
 40
28.0
 40
29.0
 40
29.0
 40
29.0
 40
30.0
 40
30.0
 40
30.0
 40
30.0
 10
77.56598034085157
 20
167.4890014229715
 30
0.0
 10
77.56598034085157
 20
167.4890014229715
 30
0.0
 10
77.35720755444542
 20
165.1918117534069
 30
0.0
 10
77.35720755444542
 20
165.1918117534069
 30
0.0
 10
76.92450356149804
 20
159.7874904656955
 30
0.0
 10
76.92484807104657
 20
154.5027139913223
 30
0.0
 10
77.35720755444542
 20
149.0980481940623
 30
0.0
 10
77.35720755444542
 20
149.0980481940623
 30
0.0
 10
77.56598034085157
 20
146.8149834159872
 30
0.0
 10
77.56598034085157
 20
146.8149834159872
 30
0.0
 10
77.56598034085157
 20
146.8149834159872
 30
0.0
 10
77.67656790592808
 20
146.0777329821438
 30
0.0
 10
77.67656790592808
 20
146.0777329821438
 30
0.0
 10
78.45240340920634
 20
141.7882445934592
 30
0.0
 10
81.81895071739248
 20
138.570008645913
 30
0.0
 10
86.12084144982396
 20
137.9326659811418
 30
0.0
 10
86.12084144982396
 20
137.9326659811418
 30
0.0
 10
86.85843639321595
 20
137.8630750523398
 30
0.0
 10
86.85843639321595
 20
137.8630750523398
 30
0.0
 10
86.85843639321595
 20
137.8630750523398
 30
0.0
 10
90.89229869689498
 20
137.5984917190726
 30
0.0
 10
90.89229869689498
 20
137.5984917190726
 30
0.0
 10
101.6409966108745
 20
137.0128254865801
 30
0.0
 10
112.4871907270865
 20
136.9873317799893
 30
0.0
 10
123.2348551124205
 20
137.6122721010136
 30
0.0
 10
123.2348551124205
 20
137.6122721010136
 30
0.0
 10
127.268372906551
 20
137.8630750523398
 30
0.0
 10
127.268372906551
 20
137.8630750523398
 30
0.0
 10
127.268372906551
 20
137.8630750523398
 30
0.0
 10
127.2129068692385
 20
137.8630750523398
 30
0.0
 10
127.2129068692385
 20
137.8630750523398
 30
0.0
 10
127.2129068692385
 20
137.8630750523398
 30
0.0
 10
127.9505018126304
 20
137.9326659811418
 30
0.0
 10
127.9505018126304
 20
137.9326659811418
 30
0.0
 10
132.2455023540914
 20
138.5672525695249
 30
0.0
 10
135.6220404391848
 20
141.7954792939782
 30
0.0
 10
136.3944308469778
 20
146.0777329821438
 30
0.0
 10
136.3944308469778
 20
146.0777329821438
 30
0.0
 10
136.5050184120543
 20
146.8149834159872
 30
0.0
 10
136.5050184120543
 20
146.8149834159872
 30
0.0
 10
136.5050184120543
 20
146.8149834159872
 30
0.0
 10
136.7137911984605
 20
149.0980481940623
 30
0.0
 10
136.7137911984605
 20
149.0980481940623
 30
0.0
 10
137.0104139197405
 20
152.9355400550821
 30
0.0
 10
137.1234130516567
 20
156.7499497763507
 30
0.0
 10
136.9787190412762
 20
160.5977769238262
 30
0.0
 10
136.9787190412762
 20
160.5977769238262
 30
0.0
 10
136.8670979475541
 20
162.8949665933908
 30
0.0
 10
136.8670979475541
 20
162.8949665933908
 30
0.0
 10
136.8670979475541
 20
162.8949665933908
 30
0.0
 10
136.7137911984605
 20
165.1918117534069
 30
0.0
 10
136.7137911984605
 20
165.1918117534069
 30
0.0
 10
136.5794324745357
 20
166.9670694569562
 30
0.0
 10
136.486414896434
 20
168.6958183714545
 30
0.0
 10
135.7677679782109
 20
170.343263032501
 30
0.0
 10
135.7677679782109
 20
170.343263032501
 30
0.0
 10
135.4618434991206
 20
171.0109225375424
 30
0.0
 10
135.4618434991206
 20
171.0109225375424
 30
0.0
 10
135.4618434991206
 20
171.0109225375424
 30
0.0
 10
135.1007974922665
 20
171.6513657882504
 30
0.0
 10
135.1007974922665
 20
171.6513657882504
 30
0.0
 10
133.6710828658878
 20
173.9960977755114
 30
0.0
 10
131.3535671329602
 20
175.644920474752
 30
0.0
 10
128.6739718645329
 20
176.23162023589
 30
0.0
 10
128.6739718645329
 20
176.23162023589
 30
0.0
 10
127.9505018126304
 20
176.3570217115531
 30
0.0
 10
127.9505018126304
 20
176.3570217115531
 30
0.0
 10
127.9505018126304
 20
176.3570217115531
 30
0.0
 10
127.2129068692385
 20
176.4403930222961
 30
0.0
 10
127.2129068692385
 20
176.4403930222961
 30
0.0
 10
127.2129068692385
 20
176.4403930222961
 30
0.0
 10
127.268372906551
 20
176.4262681308066
 30
0.0
 10
127.268372906551
 20
176.4262681308066
 30
0.0
 10
127.268372906551
 20
176.4262681308066
 30
0.0
 10
123.2348551124205
 20
176.6911959736223
 30
0.0
 10
123.2348551124205
 20
176.6911959736223
 30
0.0
 10
112.4654866255295
 20
177.2961547408322
 30
0.0
 10
101.6606336551404
 20
177.3161362946467
 30
0.0
 10
90.89229869689498
 20
176.6911959736223
 30
0.0
 10
90.89229869689498
 20
176.6911959736223
 30
0.0
 10
86.85843639321595
 20
176.4403930222961
 30
0.0
 10
86.85843639321595
 20
176.4403930222961
 30
0.0
 10
86.85843639321595
 20
176.4403930222961
 30
0.0
 10
86.12084144982396
 20
176.3570217115531
 30
0.0
 10
86.12084144982396
 20
176.3570217115531
 30
0.0
 10
81.85340167224498
 20
175.7648097976387
 30
0.0
 10
78.42036402119352
 20
172.467508908706
 30
0.0
 10
77.67656790592808
 20
168.2128159844225
 30
0.0
 10
77.67656790592808
 20
168.2128159844225
 30
0.0
 10
77.56598034085157
 20
167.4890014229715
 30
0.0
 10
77.56598034085157
 20
167.4890014229715
 30
0.0
  0
SPLINE
  5
87
330
1F
100
AcDbEntity
  8
\U+30EC\U+30A4\U+30E4\U+30FC 1
 62
   179
420
  2234388
370
     9
100
AcDbSpline
210
0.0
220
0.0
230
1.0
 70
    11
 71
     3
 72
   107
 73
   103
 74
     0
 42
0.0000000001
 43
0.0000000001
 40
0.0
 40
0.0
 40
0.0
 40
0.0
 40
1.0
 40
1.0
 40
1.0
 40
2.0
 40
2.0
 40
2.0
 40
3.0
 40
3.0
 40
3.0
 40
4.0
 40
4.0
 40
4.0
 40
5.0
 40
5.0
 40
5.0
 40
6.0
 40
6.0
 40
6.0
 40
7.0
 40
7.0
 40
7.0
 40
8.0
 40
8.0
 40
8.0
 40
9.0
 40
9.0
 40
9.0
 40
10.0
 40
10.0
 40
10.0
 40
11.0
 40
11.0
 40
11.0
 40
12.0
 40
12.0
 40
12.0
 40
13.0
 40
13.0
 40
13.0
 40
14.0
 40
14.0
 40
14.0
 40
15.0
 40
15.0
 40
15.0
 40
16.0
 40
16.0
 40
16.0
 40
17.0
 40
17.0
 40
17.0
 40
18.0
 40
18.0
 40
18.0
 40
19.0
 40
19.0
 40
19.0
 40
20.0
 40
20.0
 40
20.0
 40
21.0
 40
21.0
 40
21.0
 40
22.0
 40
22.0
 40
22.0
 40
23.0
 40
23.0
 40
23.0
 40
24.0
 40
24.0
 40
24.0
 40
25.0
 40
25.0
 40
25.0
 40
26.0
 40
26.0
 40
26.0
 40
27.0
 40
27.0
 40
27.0
 40
28.0
 40
28.0
 40
28.0
 40
29.0
 40
29.0
 40
29.0
 40
30.0
 40
30.0
 40
30.0
 40
31.0
 40
31.0
 40
31.0
 40
32.0
 40
32.0
 40
32.0
 40
33.0
 40
33.0
 40
33.0
 40
34.0
 40
34.0
 40
34.0
 40
34.0
 10
78.06689722440689
 20
146.8566690713588
 30
0.0
 10
78.06689722440689
 20
146.8566690713588
 30
0.0
 10
78.16439342663946
 20
146.1745401652793
 30
0.0
 10
78.16439342663946
 20
146.1745401652793
 30
0.0
 10
78.87993975892586
 20
142.123452384174
 30
0.0
 10
82.13107636835612
 20
139.0130479253162
 30
0.0
 10
86.19008786907749
 20
138.4335828646972
 30
0.0
 10
86.19008786907749
 20
138.4335828646972
 30
0.0
 10
86.88599715709795
 20
138.3646809549922
 30
0.0
 10
86.88599715709795
 20
138.3646809549922
 30
0.0
 10
86.88599715709795
 20
138.3646809549922
 30
0.0
 10
90.92089298942255
 20
138.0994086026279
 30
0.0
 10
90.92089298942255
 20
138.0994086026279
 30
0.0
 10
101.6940510813473
 20
137.4861816062535
 30
0.0
 10
112.4337917470652
 20
137.4861816062535
 30
0.0
 10
123.2072943485385
 20
138.0994086026279
 30
0.0
 10
123.2072943485385
 20
138.0994086026279
 30
0.0
 10
127.2418456713146
 20
138.3646809549922
 30
0.0
 10
127.2418456713146
 20
138.3646809549922
 30
0.0
 10
127.2418456713146
 20
138.3646809549922
 30
0.0
 10
127.1853461053564
 20
138.3646809549922
 30
0.0
 10
127.1853461053564
 20
138.3646809549922
 30
0.0
 10
127.1853461053564
 20
138.3646809549922
 30
0.0
 10
127.8815999029254
 20
138.4335828646972
 30
0.0
 10
127.8815999029254
 20
138.4335828646972
 30
0.0
 10
131.9419894418409
 20
139.0151149826073
 30
0.0
 10
135.1779676311361
 20
142.1124280786212
 30
0.0
 10
135.9072943453635
 20
146.1607597833383
 30
0.0
 10
135.9072943453635
 20
146.1607597833383
 30
0.0
 10
136.004790547596
 20
146.8566690713588
 30
0.0
 10
136.004790547596
 20
146.8566690713588
 30
0.0
 10
136.004790547596
 20
146.8566690713588
 30
0.0
 10
136.2139078435507
 20
149.1400783589824
 30
0.0
 10
136.2139078435507
 20
149.1400783589824
 30
0.0
 10
136.6455783078525
 20
154.5164943732632
 30
0.0
 10
136.6462673269496
 20
159.7737100837545
 30
0.0
 10
136.2139078435507
 20
165.1501260980354
 30
0.0
 10
136.2139078435507
 20
165.1501260980354
 30
0.0
 10
136.004790547596
 20
167.4328463665619
 30
0.0
 10
136.004790547596
 20
167.4328463665619
 30
0.0
 10
136.004790547596
 20
167.4328463665619
 30
0.0
 10
135.9072943453635
 20
168.1291001641309
 30
0.0
 10
135.9072943453635
 20
168.1291001641309
 30
0.0
 10
135.1572970582246
 20
172.2077487091182
 30
0.0
 10
131.9767849062419
 20
175.2576917422099
 30
0.0
 10
127.8815999029254
 20
175.8698852099388
 30
0.0
 10
127.8815999029254
 20
175.8698852099388
 30
0.0
 10
127.1853461053564
 20
175.9398206482894
 30
0.0
 10
127.1853461053564
 20
175.9398206482894
 30
0.0
 10
127.1853461053564
 20
175.9398206482894
 30
0.0
 10
127.2418456713146
 20
175.9398206482894
 30
0.0
 10
127.2418456713146
 20
175.9398206482894
 30
0.0
 10
127.2418456713146
 20
175.9398206482894
 30
0.0
 10
123.2072943485385
 20
176.190279090067
 30
0.0
 10
123.2072943485385
 20
176.190279090067
 30
0.0
 10
112.4968369944452
 20
176.8066066723782
 30
0.0
 10
101.6306613244187
 20
176.8066066723782
 30
0.0
 10
90.92089298942255
 20
176.190279090067
 30
0.0
 10
90.92089298942255
 20
176.190279090067
 30
0.0
 10
86.88599715709795
 20
175.9398206482894
 30
0.0
 10
86.88599715709795
 20
175.9398206482894
 30
0.0
 10
86.88599715709795
 20
175.9398206482894
 30
0.0
 10
86.19008786907749
 20
175.8698852099388
 30
0.0
 10
86.19008786907749
 20
175.8698852099388
 30
0.0
 10
86.19008786907749
 20
175.8698852099388
 30
0.0
 10
85.5089924916436
 20
175.7444837342757
 30
0.0
 10
85.5089924916436
 20
175.7444837342757
 30
0.0
 10
82.98924965373186
 20
175.1970580616695
 30
0.0
 10
80.72306584353451
 20
173.6099025716149
 30
0.0
 10
79.40290525358678
 20
171.3874714740802
 30
0.0
 10
79.40290525358678
 20
171.3874714740802
 30
0.0
 10
79.05495060957654
 20
170.7742444777058
 30
0.0
 10
79.05495060957654
 20
170.7742444777058
 30
0.0
 10
79.05495060957654
 20
170.7742444777058
 30
0.0
 10
78.76246200287883
 20
170.1479261184873
 30
0.0
 10
78.76246200287883
 20
170.1479261184873
 30
0.0
 10
78.76246200287883
 20
170.1479261184873
 30
0.0
 10
78.51269258019822
 20
169.4799221038974
 30
0.0
 10
78.51269258019822
 20
169.4799221038974
 30
0.0
 10
78.51269258019822
 20
169.4799221038974
 30
0.0
 10
78.31735566618455
 20
168.8115735797589
 30
0.0
 10
78.31735566618455
 20
168.8115735797589
 30
0.0
 10
78.31735566618455
 20
168.8115735797589
 30
0.0
 10
78.16439342663946
 20
168.1291001641309
 30
0.0
 10
78.16439342663946
 20
168.1291001641309
 30
0.0
 10
78.16439342663946
 20
168.1291001641309
 30
0.0
 10
78.06689722440689
 20
167.4328463665619
 30
0.0
 10
78.06689722440689
 20
167.4328463665619
 30
0.0
 10
78.06689722440689
 20
167.4328463665619
 30
0.0
 10
77.85846894754927
 20
165.1501260980354
 30
0.0
 10
77.85846894754927
 20
165.1501260980354
 30
0.0
 10
77.85846894754927
 20
165.1501260980354
 30
0.0
 10
77.7058512175527
 20
162.8667168104118
 30
0.0
 10
77.7058512175527
 20
162.8667168104118
 30
0.0
 10
77.47227374365276
 20
159.0560966941769
 30
0.0
 10
77.47434080094392
 20
155.2337632532923
 30
0.0
 10
77.7058512175527
 20
151.4231431370574
 30
0.0
 10
77.7058512175527
 20
151.4231431370574
 30
0.0
 10
77.85846894754927
 20
149.1400783589824
 30
0.0
 10
77.85846894754927
 20
149.1400783589824
 30
0.0
 10
77.85846894754927
 20
149.1400783589824
 30
0.0
 10
78.06689722440689
 20
146.8566690713588
 30
0.0
 10
78.06689722440689
 20
146.8566690713588
 30
0.0
  0
SPLINE
  5
88
330
1F
100
AcDbEntity
  8
\U+30EC\U+30A4\U+30E4\U+30FC 1
 62
   179
420
  2234388
370
     9
100
AcDbSpline
210
0.0
220
0.0
230
1.0
 70
    11
 71
     3
 72
    95
 73
    91
 74
     0
 42
0.0000000001
 43
0.0000000001
 40
0.0
 40
0.0
 40
0.0
 40
0.0
 40
1.0
 40
1.0
 40
1.0
 40
2.0
 40
2.0
 40
2.0
 40
3.0
 40
3.0
 40
3.0
 40
4.0
 40
4.0
 40
4.0
 40
5.0
 40
5.0
 40
5.0
 40
6.0
 40
6.0
 40
6.0
 40
7.0
 40
7.0
 40
7.0
 40
8.0
 40
8.0
 40
8.0
 40
9.0
 40
9.0
 40
9.0
 40
10.0
 40
10.0
 40
10.0
 40
11.0
 40
11.0
 40
11.0
 40
12.0
 40
12.0
 40
12.0
 40
13.0
 40
13.0
 40
13.0
 40
14.0
 40
14.0
 40
14.0
 40
15.0
 40
15.0
 40
15.0
 40
16.0
 40
16.0
 40
16.0
 40
17.0
 40
17.0
 40
17.0
 40
18.0
 40
18.0
 40
18.0
 40
19.0
 40
19.0
 40
19.0
 40
20.0
 40
20.0
 40
20.0
 40
21.0
 40
21.0
 40
21.0
 40
22.0
 40
22.0
 40
22.0
 40
23.0
 40
23.0
 40
23.0
 40
24.0
 40
24.0
 40
24.0
 40
25.0
 40
25.0
 40
25.0
 40
26.0
 40
26.0
 40
26.0
 40
27.0
 40
27.0
 40
27.0
 40
28.0
 40
28.0
 40
28.0
 40
29.0
 40
29.0
 40
29.0
 40
30.0
 40
30.0
 40
30.0
 40
30.0
 10
132.4528971023034
 20
97.2826063124849
 30
0.0
 10
132.4528971023034
 20
97.2826063124849
 30
0.0
 10
111.1708197421726
 20
97.2826063124849
 30
0.0
 10
111.1708197421726
 20
97.2826063124849
 30
0.0
 10
101.2282741717415
 20
97.2826063124849
 30
0.0
 10
91.285384091762
 20
97.2826063124849
 30
0.0
 10
81.34283852133096
 20
97.2826063124849
 30
0.0
 10
81.34283852133096
 20
97.2826063124849
 30
0.0
 10
80.01372068312158
 20
97.2826063124849
 30
0.0
 10
80.01372068312158
 20
97.2826063124849
 30
0.0
 10
80.01372068312158
 20
97.2826063124849
 30
0.0
 10
79.97237953729858
 20
97.72909068737329
 30
0.0
 10
79.97237953729858
 20
97.72909068737329
 30
0.0
 10
79.97237953729858
 20
97.72909068737329
 30
0.0
 10
79.93069388192706
 20
97.89514428976233
 30
0.0
 10
79.93069388192706
 20
97.89514428976233
 30
0.0
 10
79.93069388192706
 20
97.89514428976233
 30
0.0
 10
79.83319767969448
 20
98.03432614736643
 30
0.0
 10
79.83319767969448
 20
98.03432614736643
 30
0.0
 10
79.83319767969448
 20
98.03432614736643
 30
0.0
 10
79.67954642105234
 20
98.13216685914752
 30
0.0
 10
79.67954642105234
 20
98.13216685914752
 30
0.0
 10
79.67954642105234
 20
98.13216685914752
 30
0.0
 10
79.51314830911477
 20
98.17350800497051
 30
0.0
 10
79.51314830911477
 20
98.17350800497051
 30
0.0
 10
79.51314830911477
 20
98.17350800497051
 30
0.0
 10
78.32872448128587
 20
98.27134871675162
 30
0.0
 10
78.32872448128587
 20
98.27134871675162
 30
0.0
 10
78.32872448128587
 20
98.27134871675162
 30
0.0
 10
78.10548229384169
 20
98.29959849973066
 30
0.0
 10
78.10548229384169
 20
98.29959849973066
 30
0.0
 10
77.68655868283531
 20
98.3857258868619
 30
0.0
 10
77.32895777146638
 20
98.81085066974174
 30
0.0
 10
77.32585718552966
 20
99.24631073907732
 30
0.0
 10
77.32585718552966
 20
99.24631073907732
 30
0.0
 10
77.03336857883194
 20
109.5740179847593
 30
0.0
 10
77.03336857883194
 20
109.5740179847593
 30
0.0
 10
77.03336857883194
 20
109.5740179847593
 30
0.0
 10
77.06092934271393
 20
109.6718586965404
 30
0.0
 10
77.06092934271393
 20
109.6718586965404
 30
0.0
 10
77.06092934271393
 20
109.6718586965404
 30
0.0
 10
77.13120929061303
 20
109.7552300072834
 30
0.0
 10
77.13120929061303
 20
109.7552300072834
 30
0.0
 10
77.13120929061303
 20
109.7552300072834
 30
0.0
 10
77.22836098329708
 20
109.7834797902625
 30
0.0
 10
77.22836098329708
 20
109.7834797902625
 30
0.0
 10
77.22836098329708
 20
109.7834797902625
 30
0.0
 10
136.8398816932206
 20
109.7834797902625
 30
0.0
 10
136.8398816932206
 20
109.7834797902625
 30
0.0
 10
136.8398816932206
 20
109.7834797902625
 30
0.0
 10
136.9373778954532
 20
109.7552300072834
 30
0.0
 10
136.9373778954532
 20
109.7552300072834
 30
0.0
 10
136.9373778954532
 20
109.7552300072834
 30
0.0
 10
137.0207492061962
 20
109.6718586965404
 30
0.0
 10
137.0207492061962
 20
109.6718586965404
 30
0.0
 10
137.0207492061962
 20
109.6718586965404
 30
0.0
 10
137.0348740976857
 20
109.5740179847593
 30
0.0
 10
137.0348740976857
 20
109.5740179847593
 30
0.0
 10
137.0348740976857
 20
109.5740179847593
 30
0.0
 10
136.742385490988
 20
99.24631073907732
 30
0.0
 10
136.742385490988
 20
99.24631073907732
 30
0.0
 10
136.742385490988
 20
99.24631073907732
 30
0.0
 10
136.7144802175575
 20
99.03684893357412
 30
0.0
 10
136.7144802175575
 20
99.03684893357412
 30
0.0
 10
136.6197400917131
 20
98.6820040985934
 30
0.0
 10
136.3251844277243
 20
98.37814667679436
 30
0.0
 10
135.962760382676
 20
98.29959849973066
 30
0.0
 10
135.962760382676
 20
98.29959849973066
 30
0.0
 10
135.7388291761347
 20
98.27134871675162
 30
0.0
 10
135.7388291761347
 20
98.27134871675162
 30
0.0
 10
135.7388291761347
 20
98.27134871675162
 30
0.0
 10
134.5561278960485
 20
98.17350800497051
 30
0.0
 10
134.5561278960485
 20
98.17350800497051
 30
0.0
 10
134.5561278960485
 20
98.17350800497051
 30
0.0
 10
134.3883517459168
 20
98.13216685914752
 30
0.0
 10
134.3883517459168
 20
98.13216685914752
 30
0.0
 10
134.3883517459168
 20
98.13216685914752
 30
0.0
 10
134.2491698883127
 20
98.03432614736643
 30
0.0
 10
134.2491698883127
 20
98.03432614736643
 30
0.0
 10
134.2491698883127
 20
98.03432614736643
 30
0.0
 10
134.1509846669831
 20
97.89514428976233
 30
0.0
 10
134.1509846669831
 20
97.89514428976233
 30
0.0
 10
134.1509846669831
 20
97.89514428976233
 30
0.0
 10
134.0958631392191
 20
97.72909068737329
 30
0.0
 10
134.0958631392191
 20
97.72909068737329
 30
0.0
 10
134.0958631392191
 20
97.72909068737329
 30
0.0
 10
134.0541774838476
 20
97.2826063124849
 30
0.0
 10
134.0541774838476
 20
97.2826063124849
 30
0.0
 10
134.0541774838476
 20
97.2826063124849
 30
0.0
 10
132.4528971023034
 20
97.2826063124849
 30
0.0
 10
132.4528971023034
 20
97.2826063124849
 30
0.0
  0
POLYLINE
  5
89
330
1F
100
AcDbEntity
  8
\U+30EC\U+30A4\U+30E4\U+30FC 1
  6
AI-Linetype-2
 62
   179
420
  2234388
370
     9
100
AcDb2dPolyline
 66
     1
 10
0.0
 20
0.0
 30
0.0
  0
VERTEX
  5
8A
330
89
100
AcDbEntity
  8
\U+30EC\U+30A4\U+30E4\U+30FC 1
  6
AI-Linetype-2
 62
   179
420
  2234388
370
     9
100
AcDbVertex
100
AcDb2dVertex
 10
110.8225205886138
 20
99.77478838651464
 30
0.0
  0
VERTEX
  5
8B
330
89
100
AcDbEntity
  8
\U+30EC\U+30A4\U+30E4\U+30FC 1
  6
AI-Linetype-2
 62
   179
420
  2234388
370
     9
100
AcDbVertex
100
AcDb2dVertex
 10
109.5688503415314
 20
98.77226560030694
 30
0.0
  0
SEQEND
  5
8C
330
89
100
AcDbEntity
  8
\U+30EC\U+30A4\U+30E4\U+30FC 1
  6
AI-Linetype-2
370
     9
  0
SPLINE
  5
8E
330
1F
100
AcDbEntity
  8
\U+30EC\U+30A4\U+30E4\U+30FC 1
  6
AI-Linetype-3
 62
   179
420
  2234388
370
     9
100
AcDbSpline
210
0.0
220
0.0
230
1.0
 70
     8
 71
     3
 72
    50
 73
    46
 74
     0
 42
0.0000000001
 43
0.0000000001
 40
0.0
 40
0.0
 40
0.0
 40
0.0
 40
1.0
 40
1.0
 40
1.0
 40
2.0
 40
2.0
 40
2.0
 40
3.0
 40
3.0
 40
3.0
 40
4.0
 40
4.0
 40
4.0
 40
5.0
 40
5.0
 40
5.0
 40
6.0
 40
6.0
 40
6.0
 40
7.0
 40
7.0
 40
7.0
 40
8.0
 40
8.0
 40
8.0
 40
9.0
 40
9.0
 40
9.0
 40
10.0
 40
10.0
 40
10.0
 40
11.0
 40
11.0
 40
11.0
 40
12.0
 40
12.0
 40
12.0
 40
13.0
 40
13.0
 40
13.0
 40
14.0
 40
14.0
 40
14.0
 40
15.0
 40
15.0
 40
15.0
 40
15.0
 10
136.7151692366546
 20
109.7834797902625
 30
0.0
 10
136.7151692366546
 20
109.7834797902625
 30
0.0
 10
136.6311089068145
 20
109.7552300072834
 30
0.0
 10
136.6311089068145
 20
109.7552300072834
 30
0.0
 10
136.6311089068145
 20
109.7552300072834
 30
0.0
 10
136.5615179780124
 20
109.7001084795194
 30
0.0
 10
136.5615179780124
 20
109.7001084795194
 30
0.0
 10
136.5615179780124
 20
109.7001084795194
 30
0.0
 10
136.5191433035438
 20
109.6022677677383
 30
0.0
 10
136.5191433035438
 20
109.6022677677383
 30
0.0
 10
136.5191433035438
 20
109.6022677677383
 30
0.0
 10
135.349188876753
 20
101.9327961984751
 30
0.0
 10
135.349188876753
 20
101.9327961984751
 30
0.0
 10
135.349188876753
 20
101.9327961984751
 30
0.0
 10
135.2799424574995
 20
101.6261827002879
 30
0.0
 10
135.2799424574995
 20
101.6261827002879
 30
0.0
 10
135.0260389202365
 20
100.8207193758365
 30
0.0
 10
134.2536485124435
 20
100.248144506188
 30
0.0
 10
133.4133897235911
 20
100.2336751051499
 30
0.0
 10
133.4133897235911
 20
100.2336751051499
 30
0.0
 10
110.8221760790653
 20
99.77409936741759
 30
0.0
 10
110.8221760790653
 20
99.77409936741759
 30
0.0
 10
110.8221760790653
 20
99.77409936741759
 30
0.0
 10
103.5027262111035
 20
99.77409936741759
 30
0.0
 10
103.5027262111035
 20
99.77409936741759
 30
0.0
 10
103.5027262111035
 20
99.77409936741759
 30
0.0
 10
103.3149685071574
 20
99.77409936741759
 30
0.0
 10
103.3149685071574
 20
99.77409936741759
 30
0.0
 10
103.3149685071574
 20
99.77409936741759
 30
0.0
 10
80.65450844337805
 20
100.2336751051499
 30
0.0
 10
80.65450844337805
 20
100.2336751051499
 30
0.0
 10
80.65450844337805
 20
100.2336751051499
 30
0.0
 10
80.3478949451908
 20
100.261924888129
 30
0.0
 10
80.3478949451908
 20
100.261924888129
 30
0.0
 10
79.60754392541062
 20
100.414198108577
 30
0.0
 10
79.02566729795193
 20
100.9034016674825
 30
0.0
 10
78.78830021901821
 20
101.6261827002879
 30
0.0
 10
78.78830021901821
 20
101.6261827002879
 30
0.0
 10
78.71802027111912
 20
101.9327961984751
 30
0.0
 10
78.71802027111912
 20
101.9327961984751
 30
0.0
 10
78.71802027111912
 20
101.9327961984751
 30
0.0
 10
77.54806584432826
 20
109.6022677677383
 30
0.0
 10
77.54806584432826
 20
109.6022677677383
 30
0.0
 10
77.54806584432826
 20
109.6022677677383
 30
0.0
 10
77.52050508044627
 20
109.7001084795194
 30
0.0
 10
77.52050508044627
 20
109.7001084795194
 30
0.0
  0
POLYLINE
  5
90
330
1F
100
AcDbEntity
  8
\U+30EC\U+30A4\U+30E4\U+30FC 1
  6
AI-Linetype-4
 62
   179
420
  2234388
370
     9
100
AcDb2dPolyline
 66
     1
 10
0.0
 20
0.0
 30
0.0
  0
VERTEX
  5
91
330
90
100
AcDbEntity
  8
\U+30EC\U+30A4\U+30E4\U+30FC 1
  6
AI-Linetype-4
 62
   179
420
  2234388
370
     9
100
AcDbVertex
100
AcDb2dVertex
 10
104.5693277733368
 20
98.77226560030694
 30
0.0
  0
VERTEX
  5
92
330
90
100
AcDbEntity
  8
\U+30EC\U+30A4\U+30E4\U+30FC 1
  6
AI-Linetype-4
 62
   179
420
  2234388
370
     9
100
AcDbVertex
100
AcDb2dVertex
 10
103.3153130167059
 20
99.77409936741759
 30
0.0
  0
SEQEND
  5
93
330
90
100
AcDbEntity
  8
\U+30EC\U+30A4\U+30E4\U+30FC 1
  6
AI-Linetype-4
370
     9
  0
POLYLINE
  5
95
330
1F
100
AcDbEntity
  8
\U+30EC\U+30A4\U+30E4\U+30FC 1
  6
AI-Linetype-5
 62
   179
420
  2234388
370
     9
100
AcDb2dPolyline
 66
     1
 10
0.0
 20
0.0
 30
0.0
  0
VERTEX
  5
96
330
95
100
AcDbEntity
  8
\U+30EC\U+30A4\U+30E4\U+30FC 1
  6
AI-Linetype-5
 62
   179
420
  2234388
370
     9
100
AcDbVertex
100
AcDb2dVertex
 10
109.5691948510799
 20
98.77226560030694
 30
0.0
  0
VERTEX
  5
97
330
95
100
AcDbEntity
  8
\U+30EC\U+30A4\U+30E4\U+30FC 1
  6
AI-Linetype-5
 62
   179
420
  2234388
370
     9
100
AcDbVertex
100
AcDb2dVertex
 10
109.5691948510799
 20
97.2826063124849
 30
0.0
  0
SEQEND
  5
98
330
95
100
AcDbEntity
  8
\U+30EC\U+30A4\U+30E4\U+30FC 1
  6
AI-Linetype-5
370
     9
  0
POLYLINE
  5
9A
330
1F
100
AcDbEntity
  8
\U+30EC\U+30A4\U+30E4\U+30FC 1
  6
AI-Linetype-6
 62
   179
420
  2234388
370
     9
100
AcDb2dPolyline
 66
     1
 10
0.0
 20
0.0
 30
0.0
  0
VERTEX
  5
9B
330
9A
100
AcDbEntity
  8
\U+30EC\U+30A4\U+30E4\U+30FC 1
  6
AI-Linetype-6
 62
   179
420
  2234388
370
     9
100
AcDbVertex
100
AcDb2dVertex
 10
109.5691948510799
 20
98.77226560030694
 30
0.0
  0
VERTEX
  5
9C
330
9A
100
AcDbEntity
  8
\U+30EC\U+30A4\U+30E4\U+30FC 1
  6
AI-Linetype-6
 62
   179
420
  2234388
370
     9
100
AcDbVertex
100
AcDb2dVertex
 10
104.5686387542398
 20
98.77226560030694
 30
0.0
  0
SEQEND
  5
9D
330
9A
100
AcDbEntity
  8
\U+30EC\U+30A4\U+30E4\U+30FC 1
  6
AI-Linetype-6
370
     9
  0
POLYLINE
  5
9F
330
1F
100
AcDbEntity
  8
\U+30EC\U+30A4\U+30E4\U+30FC 1
  6
AI-Linetype-7
 62
   179
420
  2234388
370
     9
100
AcDb2dPolyline
 66
     1
 10
0.0
 20
0.0
 30
0.0
  0
VERTEX
  5
A0
330
9F
100
AcDbEntity
  8
\U+30EC\U+30A4\U+30E4\U+30FC 1
  6
AI-Linetype-7
 62
   179
420
  2234388
370
     9
100
AcDbVertex
100
AcDb2dVertex
 10
104.5693277733368
 20
98.77226560030694
 30
0.0
  0
VERTEX
  5
A1
330
9F
100
AcDbEntity
  8
\U+30EC\U+30A4\U+30E4\U+30FC 1
  6
AI-Linetype-7
 62
   179
420
  2234388
370
     9
100
AcDbVertex
100
AcDb2dVertex
 10
104.5693277733368
 20
97.2826063124849
 30
0.0
  0
SEQEND
  5
A2
330
9F
100
AcDbEntity
  8
\U+30EC\U+30A4\U+30E4\U+30FC 1
  6
AI-Linetype-7
370
     9
  0
POLYLINE
  5
A4
330
1F
100
AcDbEntity
  8
\U+30EC\U+30A4\U+30E4\U+30FC 1
 62
   179
420
  2234388
370
     9
100
AcDb2dPolyline
 66
     1
 10
0.0
 20
0.0
 30
0.0
  0
VERTEX
  5
A5
330
A4
100
AcDbEntity
  8
\U+30EC\U+30A4\U+30E4\U+30FC 1
 62
   179
420
  2234388
370
     9
100
AcDbVertex
100
AcDb2dVertex
 10
68.87572697930885
 20
158.5451890337144
 30
0.0
  0
VERTEX
  5
A6
330
A4
100
AcDbEntity
  8
\U+30EC\U+30A4\U+30E4\U+30FC 1
 62
   179
420
  2234388
370
     9
100
AcDbVertex
100
AcDb2dVertex
 10
68.87572697930885
 20
175.5763630745955
 30
0.0
  0
SEQEND
  5
A7
330
A4
100
AcDbEntity
  8
\U+30EC\U+30A4\U+30E4\U+30FC 1
370
     9
  0
POLYLINE
  5
A8
330
1F
100
AcDbEntity
  8
\U+30EC\U+30A4\U+30E4\U+30FC 1
370
     0
100
AcDb2dPolyline
 66
     1
 10
0.0
 20
0.0
 30
0.0
  0
VERTEX
  5
A9
330
A8
100
AcDbEntity
  8
\U+30EC\U+30A4\U+30E4\U+30FC 1
370
     0
100
AcDbVertex
100
AcDb2dVertex
 10
69.36665308595695
 20
158.8945217159187
 30
0.0
  0
VERTEX
  5
AA
330
A8
100
AcDbEntity
  8
\U+30EC\U+30A4\U+30E4\U+30FC 1
370
     0
100
AcDbVertex
100
AcDb2dVertex
 10
68.85471189684883
 20
156.9824937216051
 30
0.0
  0
VERTEX
  5
AB
330
A8
100
AcDbEntity
  8
\U+30EC\U+30A4\U+30E4\U+30FC 1
370
     0
100
AcDbVertex
100
AcDb2dVertex
 10
68.34173717909512
 20
158.8945217159187
 30
0.0
  0
SEQEND
  5
AC
330
A8
100
AcDbEntity
  8
\U+30EC\U+30A4\U+30E4\U+30FC 1
370
     0
  0
HATCH
  5
AD
330
1F
100
AcDbEntity
  8
\U+30EC\U+30A4\U+30E4\U+30FC 1
 62
   179
420
  2234388
100
AcDbHatch
 10
0.0
 20
0.0
 30
0.0
210
0.0
220
0.0
230
1.0
  2
SOLID
 70
     1
 71
     0
 91
        1
 92
        1
 93
        3
 72
     1
 10
69.36665308595695
 20
158.8945217159187
 11
68.85471189684883
 21
156.9824937216051
 72
     1
 10
68.85471189684883
 20
156.9824937216051
 11
68.34173717909512
 21
158.8945217159187
 72
     1
 10
68.34173717909512
 20
158.8945217159187
 11
69.36665308595695
 21
158.8945217159187
 97
        0
 75
     2
 76
     1
 98
        0
  0
POLYLINE
  5
AE
330
1F
100
AcDbEntity
  8
\U+30EC\U+30A4\U+30E4\U+30FC 1
370
     0
100
AcDb2dPolyline
 66
     1
 10
0.0
 20
0.0
 30
0.0
  0
VERTEX
  5
AF
330
AE
100
AcDbEntity
  8
\U+30EC\U+30A4\U+30E4\U+30FC 1
370
     0
100
AcDbVertex
100
AcDb2dVertex
 10
69.36665308595695
 20
175.2277194114882
 30
0.0
  0
VERTEX
  5
B0
330
AE
100
AcDbEntity
  8
\U+30EC\U+30A4\U+30E4\U+30FC 1
370
     0
100
AcDbVertex
100
AcDb2dVertex
 10
68.85471189684883
 20
177.1397474058019
 30
0.0
  0
VERTEX
  5
B1
330
AE
100
AcDbEntity
  8
\U+30EC\U+30A4\U+30E4\U+30FC 1
370
     0
100
AcDbVertex
100
AcDb2dVertex
 10
68.34173717909512
 20
175.2277194114882
 30
0.0
  0
SEQEND
  5
B2
330
AE
100
AcDbEntity
  8
\U+30EC\U+30A4\U+30E4\U+30FC 1
370
     0
  0
HATCH
  5
B3
330
1F
100
AcDbEntity
  8
\U+30EC\U+30A4\U+30E4\U+30FC 1
 62
   179
420
  2234388
100
AcDbHatch
 10
0.0
 20
0.0
 30
0.0
210
0.0
220
0.0
230
1.0
  2
SOLID
 70
     1
 71
     0
 91
        1
 92
        1
 93
        3
 72
     1
 10
69.36665308595695
 20
175.2277194114882
 11
68.85471189684883
 21
177.1397474058019
 72
     1
 10
68.85471189684883
 20
177.1397474058019
 11
68.34173717909512
 21
175.2277194114882
 72
     1
 10
68.34173717909512
 20
175.2277194114882
 11
69.36665308595695
 21
175.2277194114882
 97
        0
 75
     2
 76
     1
 98
        0
  0
POLYLINE
  5
B4
330
1F
100
AcDbEntity
  8
\U+30EC\U+30A4\U+30E4\U+30FC 1
 62
   179
420
  2234388
370
     9
100
AcDb2dPolyline
 66
     1
 10
0.0
 20
0.0
 30
0.0
  0
VERTEX
  5
B5
330
B4
100
AcDbEntity
  8
\U+30EC\U+30A4\U+30E4\U+30FC 1
 62
   179
420
  2234388
370
     9
100
AcDbVertex
100
AcDb2dVertex
 10
68.87572697930885
 20
177.1397474058019
 30
0.0
  0
VERTEX
  5
B6
330
B4
100
AcDbEntity
  8
\U+30EC\U+30A4\U+30E4\U+30FC 1
 62
   179
420
  2234388
370
     9
100
AcDbVertex
100
AcDb2dVertex
 10
74.16773815420112
 20
177.1397474058019
 30
0.0
  0
SEQEND
  5
B7
330
B4
100
AcDbEntity
  8
\U+30EC\U+30A4\U+30E4\U+30FC 1
370
     9
  0
POLYLINE
  5
B8
330
1F
100
AcDbEntity
  8
\U+30EC\U+30A4\U+30E4\U+30FC 1
 62
   179
420
  2234388
370
     9
100
AcDb2dPolyline
 66
     1
 10
0.0
 20
0.0
 30
0.0
  0
VERTEX
  5
B9
330
B8
100
AcDbEntity
  8
\U+30EC\U+30A4\U+30E4\U+30FC 1
 62
   179
420
  2234388
370
     9
100
AcDbVertex
100
AcDb2dVertex
 10
74.16773815420112
 20
156.9828382311536
 30
0.0
  0
VERTEX
  5
BA
330
B8
100
AcDbEntity
  8
\U+30EC\U+30A4\U+30E4\U+30FC 1
 62
   179
420
  2234388
370
     9
100
AcDbVertex
100
AcDb2dVertex
 10
68.87572697930885
 20
156.9828382311536
 30
0.0
  0
SEQEND
  5
BB
330
B8
100
AcDbEntity
  8
\U+30EC\U+30A4\U+30E4\U+30FC 1
370
     9
  0
MTEXT
  5
BC
330
1F
100
AcDbEntity
  8
\U+30EC\U+30A4\U+30E4\U+30FC 1
 62
   179
420
  2234388
100
AcDbMText
 10
67.17522784778953
 20
163.1938286267363
 30
0.0
 40
3.3039706570313
 41
0.0
 71
     7
 72
     1
  1
\fATC-65b030b44c2d5357495353|b0|i0|c0|p34;\W1.02;200
 11
-4.371139000186241E-8
 21
0.999999999999999
 31
0.0
 73
     1
 44
1.0
  0
POLYLINE
  5
BD
330
1F
100
AcDbEntity
  8
\U+30EC\U+30A4\U+30E4\U+30FC 1
 62
   179
420
  2234388
370
     9
100
AcDb2dPolyline
 66
     1
 10
0.0
 20
0.0
 30
0.0
  0
VERTEX
  5
BE
330
BD
100
AcDbEntity
  8
\U+30EC\U+30A4\U+30E4\U+30FC 1
 62
   179
420
  2234388
370
     9
100
AcDbVertex
100
AcDb2dVertex
 10
59.10061304946096
 20
138.6864528733145
 30
0.0
  0
VERTEX
  5
BF
330
BD
100
AcDbEntity
  8
\U+30EC\U+30A4\U+30E4\U+30FC 1
 62
   179
420
  2234388
370
     9
100
AcDbVertex
100
AcDb2dVertex
 10
59.10061304946096
 20
175.5615491640089
 30
0.0
  0
SEQEND
  5
C0
330
BD
100
AcDbEntity
  8
\U+30EC\U+30A4\U+30E4\U+30FC 1
370
     9
  0
POLYLINE
  5
C1
330
1F
100
AcDbEntity
  8
\U+30EC\U+30A4\U+30E4\U+30FC 1
370
     0
100
AcDb2dPolyline
 66
     1
 10
0.0
 20
0.0
 30
0.0
  0
VERTEX
  5
C2
330
C1
100
AcDbEntity
  8
\U+30EC\U+30A4\U+30E4\U+30FC 1
370
     0
100
AcDbVertex
100
AcDb2dVertex
 10
59.59119464656054
 20
139.0357855555188
 30
0.0
  0
VERTEX
  5
C3
330
C1
100
AcDbEntity
  8
\U+30EC\U+30A4\U+30E4\U+30FC 1
370
     0
100
AcDbVertex
100
AcDb2dVertex
 10
59.07959796700094
 20
137.1237575612052
 30
0.0
  0
VERTEX
  5
C4
330
C1
100
AcDbEntity
  8
\U+30EC\U+30A4\U+30E4\U+30FC 1
370
     0
100
AcDbVertex
100
AcDb2dVertex
 10
58.56662324924724
 20
139.0357855555188
 30
0.0
  0
SEQEND
  5
C5
330
C1
100
AcDbEntity
  8
\U+30EC\U+30A4\U+30E4\U+30FC 1
370
     0
  0
HATCH
  5
C6
330
1F
100
AcDbEntity
  8
\U+30EC\U+30A4\U+30E4\U+30FC 1
 62
   179
420
  2234388
100
AcDbHatch
 10
0.0
 20
0.0
 30
0.0
210
0.0
220
0.0
230
1.0
  2
SOLID
 70
     1
 71
     0
 91
        1
 92
        1
 93
        3
 72
     1
 10
59.59119464656054
 20
139.0357855555188
 11
59.07959796700094
 21
137.1237575612052
 72
     1
 10
59.07959796700094
 20
137.1237575612052
 11
58.56662324924724
 21
139.0357855555188
 72
     1
 10
58.56662324924724
 20
139.0357855555188
 11
59.59119464656054
 21
139.0357855555188
 97
        0
 75
     2
 76
     1
 98
        0
  0
POLYLINE
  5
C7
330
1F
100
AcDbEntity
  8
\U+30EC\U+30A4\U+30E4\U+30FC 1
370
     0
100
AcDb2dPolyline
 66
     1
 10
0.0
 20
0.0
 30
0.0
  0
VERTEX
  5
C8
330
C7
100
AcDbEntity
  8
\U+30EC\U+30A4\U+30E4\U+30FC 1
370
     0
100
AcDbVertex
100
AcDb2dVertex
 10
59.59119464656054
 20
175.2125609913531
 30
0.0
  0
VERTEX
  5
C9
330
C7
100
AcDbEntity
  8
\U+30EC\U+30A4\U+30E4\U+30FC 1
370
     0
100
AcDbVertex
100
AcDb2dVertex
 10
59.07959796700094
 20
177.1245889856668
 30
0.0
  0
VERTEX
  5
CA
330
C7
100
AcDbEntity
  8
\U+30EC\U+30A4\U+30E4\U+30FC 1
370
     0
100
AcDbVertex
100
AcDb2dVertex
 10
58.56662324924724
 20
175.2125609913531
 30
0.0
  0
SEQEND
  5
CB
330
C7
100
AcDbEntity
  8
\U+30EC\U+30A4\U+30E4\U+30FC 1
370
     0
  0
HATCH
  5
CC
330
1F
100
AcDbEntity
  8
\U+30EC\U+30A4\U+30E4\U+30FC 1
 62
   179
420
  2234388
100
AcDbHatch
 10
0.0
 20
0.0
 30
0.0
210
0.0
220
0.0
230
1.0
  2
SOLID
 70
     1
 71
     0
 91
        1
 92
        1
 93
        3
 72
     1
 10
59.59119464656054
 20
175.2125609913531
 11
59.07959796700094
 21
177.1245889856668
 72
     1
 10
59.07959796700094
 20
177.1245889856668
 11
58.56662324924724
 21
175.2125609913531
 72
     1
 10
58.56662324924724
 20
175.2125609913531
 11
59.59119464656054
 21
175.2125609913531
 97
        0
 75
     2
 76
     1
 98
        0
  0
POLYLINE
  5
CD
330
1F
100
AcDbEntity
  8
\U+30EC\U+30A4\U+30E4\U+30FC 1
 62
   179
420
  2234388
370
     9
100
AcDb2dPolyline
 66
     1
 10
0.0
 20
0.0
 30
0.0
  0
VERTEX
  5
CE
330
CD
100
AcDbEntity
  8
\U+30EC\U+30A4\U+30E4\U+30FC 1
 62
   179
420
  2234388
370
     9
100
AcDbVertex
100
AcDb2dVertex
 10
59.10061304946096
 20
177.1249334952153
 30
0.0
  0
VERTEX
  5
CF
330
CD
100
AcDbEntity
  8
\U+30EC\U+30A4\U+30E4\U+30FC 1
 62
   179
420
  2234388
370
     9
100
AcDbVertex
100
AcDb2dVertex
 10
64.39262422435324
 20
177.1249334952153
 30
0.0
  0
SEQEND
  5
D0
330
CD
100
AcDbEntity
  8
\U+30EC\U+30A4\U+30E4\U+30FC 1
370
     9
  0
POLYLINE
  5
D1
330
1F
100
AcDbEntity
  8
\U+30EC\U+30A4\U+30E4\U+30FC 1
 62
   179
420
  2234388
370
     9
100
AcDb2dPolyline
 66
     1
 10
0.0
 20
0.0
 30
0.0
  0
VERTEX
  5
D2
330
D1
100
AcDbEntity
  8
\U+30EC\U+30A4\U+30E4\U+30FC 1
 62
   179
420
  2234388
370
     9
100
AcDbVertex
100
AcDb2dVertex
 10
64.39262422435324
 20
137.1237575612052
 30
0.0
  0
VERTEX
  5
D3
330
D1
100
AcDbEntity
  8
\U+30EC\U+30A4\U+30E4\U+30FC 1
 62
   179
420
  2234388
370
     9
100
AcDbVertex
100
AcDb2dVertex
 10
59.10026853991243
 20
137.1237575612052
 30
0.0
  0
SEQEND
  5
D4
330
D1
100
AcDbEntity
  8
\U+30EC\U+30A4\U+30E4\U+30FC 1
370
     9
  0
MTEXT
  5
D5
330
1F
100
AcDbEntity
  8
\U+30EC\U+30A4\U+30E4\U+30FC 1
 62
   179
420
  2234388
100
AcDbMText
 10
57.75220267653417
 20
153.2567952090816
 30
0.0
 40
3.3039706570313
 41
0.0
 71
     7
 72
     1
  1
\fATC-65b030b44c2d5357495353|b0|i0|c0|p34;\W1.02;400
 11
-4.371139000186241E-8
 21
0.999999999999999
 31
0.0
 73
     1
 44
1.0
  0
POLYLINE
  5
D6
330
1F
100
AcDbEntity
  8
\U+30EC\U+30A4\U+30E4\U+30FC 1
 62
   179
420
  2234388
370
     9
100
AcDb2dPolyline
 66
     1
 10
0.0
 20
0.0
 30
0.0
  0
VERTEX
  5
D7
330
D6
100
AcDbEntity
  8
\U+30EC\U+30A4\U+30E4\U+30FC 1
 62
   179
420
  2234388
370
     9
100
AcDbVertex
100
AcDb2dVertex
 10
78.62982582669672
 20
184.5218980115952
 30
0.0
  0
VERTEX
  5
D8
330
D6
100
AcDbEntity
  8
\U+30EC\U+30A4\U+30E4\U+30FC 1
 62
   179
420
  2234388
370
     9
100
AcDbVertex
100
AcDb2dVertex
 10
135.5055962117833
 20
184.5218980115952
 30
0.0
  0
SEQEND
  5
D9
330
D6
100
AcDbEntity
  8
\U+30EC\U+30A4\U+30E4\U+30FC 1
370
     9
  0
POLYLINE
  5
DA
330
1F
100
AcDbEntity
  8
\U+30EC\U+30A4\U+30E4\U+30FC 1
370
     0
100
AcDb2dPolyline
 66
     1
 10
0.0
 20
0.0
 30
0.0
  0
VERTEX
  5
DB
330
DA
100
AcDbEntity
  8
\U+30EC\U+30A4\U+30E4\U+30FC 1
370
     0
100
AcDbVertex
100
AcDb2dVertex
 10
78.97915850890105
 20
184.0313164144956
 30
0.0
  0
VERTEX
  5
DC
330
DA
100
AcDbEntity
  8
\U+30EC\U+30A4\U+30E4\U+30FC 1
370
     0
100
AcDbVertex
100
AcDb2dVertex
 10
77.06713051458739
 20
184.5432576036038
 30
0.0
  0
VERTEX
  5
DD
330
DA
100
AcDbEntity
  8
\U+30EC\U+30A4\U+30E4\U+30FC 1
370
     0
100
AcDbVertex
100
AcDb2dVertex
 10
78.97915850890105
 20
185.0562323213575
 30
0.0
  0
SEQEND
  5
DE
330
DA
100
AcDbEntity
  8
\U+30EC\U+30A4\U+30E4\U+30FC 1
370
     0
  0
HATCH
  5
DF
330
1F
100
AcDbEntity
  8
\U+30EC\U+30A4\U+30E4\U+30FC 1
 62
   179
420
  2234388
100
AcDbHatch
 10
0.0
 20
0.0
 30
0.0
210
0.0
220
0.0
230
1.0
  2
SOLID
 70
     1
 71
     0
 91
        1
 92
        1
 93
        3
 72
     1
 10
78.97915850890105
 20
184.0313164144956
 11
77.06713051458739
 21
184.5432576036038
 72
     1
 10
77.06713051458739
 20
184.5432576036038
 11
78.97915850890105
 21
185.0562323213575
 72
     1
 10
78.97915850890105
 20
185.0562323213575
 11
78.97915850890105
 21
184.0313164144956
 97
        0
 75
     2
 76
     1
 98
        0
  0
POLYLINE
  5
E0
330
1F
100
AcDbEntity
  8
\U+30EC\U+30A4\U+30E4\U+30FC 1
370
     0
100
AcDb2dPolyline
 66
     1
 10
0.0
 20
0.0
 30
0.0
  0
VERTEX
  5
E1
330
E0
100
AcDbEntity
  8
\U+30EC\U+30A4\U+30E4\U+30FC 1
370
     0
100
AcDbVertex
100
AcDb2dVertex
 10
135.1566080391275
 20
184.0313164144956
 30
0.0
  0
VERTEX
  5
E2
330
E0
100
AcDbEntity
  8
\U+30EC\U+30A4\U+30E4\U+30FC 1
370
     0
100
AcDbVertex
100
AcDb2dVertex
 10
137.0686360334412
 20
184.5432576036038
 30
0.0
  0
VERTEX
  5
E3
330
E0
100
AcDbEntity
  8
\U+30EC\U+30A4\U+30E4\U+30FC 1
370
     0
100
AcDbVertex
100
AcDb2dVertex
 10
135.1566080391275
 20
185.0562323213575
 30
0.0
  0
SEQEND
  5
E4
330
E0
100
AcDbEntity
  8
\U+30EC\U+30A4\U+30E4\U+30FC 1
370
     0
  0
HATCH
  5
E5
330
1F
100
AcDbEntity
  8
\U+30EC\U+30A4\U+30E4\U+30FC 1
 62
   179
420
  2234388
100
AcDbHatch
 10
0.0
 20
0.0
 30
0.0
210
0.0
220
0.0
230
1.0
  2
SOLID
 70
     1
 71
     0
 91
        1
 92
        1
 93
        3
 72
     1
 10
135.1566080391275
 20
184.0313164144956
 11
137.0686360334412
 21
184.5432576036038
 72
     1
 10
137.0686360334412
 20
184.5432576036038
 11
135.1566080391275
 21
185.0562323213575
 72
     1
 10
135.1566080391275
 20
185.0562323213575
 11
135.1566080391275
 21
184.0313164144956
 97
        0
 75
     2
 76
     1
 98
        0
  0
POLYLINE
  5
E6
330
1F
100
AcDbEntity
  8
\U+30EC\U+30A4\U+30E4\U+30FC 1
 62
   179
420
  2234388
370
     9
100
AcDb2dPolyline
 66
     1
 10
0.0
 20
0.0
 30
0.0
  0
VERTEX
  5
E7
330
E6
100
AcDbEntity
  8
\U+30EC\U+30A4\U+30E4\U+30FC 1
 62
   179
420
  2234388
370
     9
100
AcDbVertex
100
AcDb2dVertex
 10
137.0686360334412
 20
184.5218980115952
 30
0.0
  0
VERTEX
  5
E8
330
E6
100
AcDbEntity
  8
\U+30EC\U+30A4\U+30E4\U+30FC 1
 62
   179
420
  2234388
370
     9
100
AcDbVertex
100
AcDb2dVertex
 10
137.0686360334412
 20
179.2302313462515
 30
0.0
  0
SEQEND
  5
E9
330
E6
100
AcDbEntity
  8
\U+30EC\U+30A4\U+30E4\U+30FC 1
370
     9
  0
POLYLINE
  5
EA
330
1F
100
AcDbEntity
  8
\U+30EC\U+30A4\U+30E4\U+30FC 1
 62
   179
420
  2234388
370
     9
100
AcDb2dPolyline
 66
     1
 10
0.0
 20
0.0
 30
0.0
  0
VERTEX
  5
EB
330
EA
100
AcDbEntity
  8
\U+30EC\U+30A4\U+30E4\U+30FC 1
 62
   179
420
  2234388
370
     9
100
AcDbVertex
100
AcDb2dVertex
 10
77.06781953368444
 20
179.2302313462515
 30
0.0
  0
VERTEX
  5
EC
330
EA
100
AcDbEntity
  8
\U+30EC\U+30A4\U+30E4\U+30FC 1
 62
   179
420
  2234388
370
     9
100
AcDbVertex
100
AcDb2dVertex
 10
77.06781953368444
 20
184.5218980115952
 30
0.0
  0
SEQEND
  5
ED
330
EA
100
AcDbEntity
  8
\U+30EC\U+30A4\U+30E4\U+30FC 1
370
     9
  0
MTEXT
  5
EE
330
1F
100
AcDbEntity
  8
\U+30EC\U+30A4\U+30E4\U+30FC 1
 62
   179
420
  2234388
100
AcDbMText
 10
103.2002468274986
 20
185.5164970781869
 30
0.0
 40
3.3039706570313
 41
0.0
 71
     7
 72
     1
  1
\fATC-65b030b44c2d5357495353|b0|i0|c0|p34;\W1.02;600
 73
     1
 44
1.0
  0
POLYLINE
  5
EF
330
1F
100
AcDbEntity
  8
\U+30EC\U+30A4\U+30E4\U+30FC 1
 62
   179
420
  2234388
370
     9
100
AcDb2dPolyline
 66
     1
 10
0.0
 20
0.0
 30
0.0
  0
VERTEX
  5
F0
330
EF
100
AcDbEntity
  8
\U+30EC\U+30A4\U+30E4\U+30FC 1
 62
   179
420
  2234388
370
     9
100
AcDbVertex
100
AcDb2dVertex
 10
58.79882268495307
 20
98.84943573917653
 30
0.0
  0
VERTEX
  5
F1
330
EF
100
AcDbEntity
  8
\U+30EC\U+30A4\U+30E4\U+30FC 1
 62
   179
420
  2234388
370
     9
100
AcDbVertex
100
AcDb2dVertex
 10
58.79882268495307
 20
108.2207844781531
 30
0.0
  0
SEQEND
  5
F2
330
EF
100
AcDbEntity
  8
\U+30EC\U+30A4\U+30E4\U+30FC 1
370
     9
  0
POLYLINE
  5
F3
330
1F
100
AcDbEntity
  8
\U+30EC\U+30A4\U+30E4\U+30FC 1
370
     0
100
AcDb2dPolyline
 66
     1
 10
0.0
 20
0.0
 30
0.0
  0
VERTEX
  5
F4
330
F3
100
AcDbEntity
  8
\U+30EC\U+30A4\U+30E4\U+30FC 1
370
     0
100
AcDbVertex
100
AcDb2dVertex
 10
59.28974879160118
 20
99.19876842138086
 30
0.0
  0
VERTEX
  5
F5
330
F3
100
AcDbEntity
  8
\U+30EC\U+30A4\U+30E4\U+30FC 1
370
     0
100
AcDbVertex
100
AcDb2dVertex
 10
58.77746309294452
 20
97.2867404270672
 30
0.0
  0
VERTEX
  5
F6
330
F3
100
AcDbEntity
  8
\U+30EC\U+30A4\U+30E4\U+30FC 1
370
     0
100
AcDbVertex
100
AcDb2dVertex
 10
58.26517739428787
 20
99.19876842138086
 30
0.0
  0
SEQEND
  5
F7
330
F3
100
AcDbEntity
  8
\U+30EC\U+30A4\U+30E4\U+30FC 1
370
     0
  0
HATCH
  5
F8
330
1F
100
AcDbEntity
  8
\U+30EC\U+30A4\U+30E4\U+30FC 1
 62
   179
420
  2234388
100
AcDbHatch
 10
0.0
 20
0.0
 30
0.0
210
0.0
220
0.0
230
1.0
  2
SOLID
 70
     1
 71
     0
 91
        1
 92
        1
 93
        3
 72
     1
 10
59.28974879160118
 20
99.19876842138086
 11
58.77746309294452
 21
97.2867404270672
 72
     1
 10
58.77746309294452
 20
97.2867404270672
 11
58.26517739428787
 21
99.19876842138086
 72
     1
 10
58.26517739428787
 20
99.19876842138086
 11
59.28974879160118
 21
99.19876842138086
 97
        0
 75
     2
 76
     1
 98
        0
  0
POLYLINE
  5
F9
330
1F
100
AcDbEntity
  8
\U+30EC\U+30A4\U+30E4\U+30FC 1
370
     0
100
AcDb2dPolyline
 66
     1
 10
0.0
 20
0.0
 30
0.0
  0
VERTEX
  5
FA
330
F9
100
AcDbEntity
  8
\U+30EC\U+30A4\U+30E4\U+30FC 1
370
     0
100
AcDbVertex
100
AcDb2dVertex
 10
59.28974879160118
 20
107.8714517959488
 30
0.0
  0
VERTEX
  5
FB
330
F9
100
AcDbEntity
  8
\U+30EC\U+30A4\U+30E4\U+30FC 1
370
     0
100
AcDbVertex
100
AcDb2dVertex
 10
58.77746309294452
 20
109.7834797902625
 30
0.0
  0
VERTEX
  5
FC
330
F9
100
AcDbEntity
  8
\U+30EC\U+30A4\U+30E4\U+30FC 1
370
     0
100
AcDbVertex
100
AcDb2dVertex
 10
58.26517739428787
 20
107.8714517959488
 30
0.0
  0
SEQEND
  5
FD
330
F9
100
AcDbEntity
  8
\U+30EC\U+30A4\U+30E4\U+30FC 1
370
     0
  0
HATCH
  5
FE
330
1F
100
AcDbEntity
  8
\U+30EC\U+30A4\U+30E4\U+30FC 1
 62
   179
420
  2234388
100
AcDbHatch
 10
0.0
 20
0.0
 30
0.0
210
0.0
220
0.0
230
1.0
  2
SOLID
 70
     1
 71
     0
 91
        1
 92
        1
 93
        3
 72
     1
 10
59.28974879160118
 20
107.8714517959488
 11
58.77746309294452
 21
109.7834797902625
 72
     1
 10
58.77746309294452
 20
109.7834797902625
 11
58.26517739428787
 21
107.8714517959488
 72
     1
 10
58.26517739428787
 20
107.8714517959488
 11
59.28974879160118
 21
107.8714517959488
 97
        0
 75
     2
 76
     1
 98
        0
  0
POLYLINE
  5
FF
330
1F
100
AcDbEntity
  8
\U+30EC\U+30A4\U+30E4\U+30FC 1
 62
   179
420
  2234388
370
     9
100
AcDb2dPolyline
 66
     1
 10
0.0
 20
0.0
 30
0.0
  0
VERTEX
  5
100
330
FF
100
AcDbEntity
  8
\U+30EC\U+30A4\U+30E4\U+30FC 1
 62
   179
420
  2234388
370
     9
100
AcDbVertex
100
AcDb2dVertex
 10
58.79882268495307
 20
109.7841688093595
 30
0.0
  0
VERTEX
  5
101
330
FF
100
AcDbEntity
  8
\U+30EC\U+30A4\U+30E4\U+30FC 1
 62
   179
420
  2234388
370
     9
100
AcDbVertex
100
AcDb2dVertex
 10
64.0901448407483
 20
109.7841688093595
 30
0.0
  0
SEQEND
  5
102
330
FF
100
AcDbEntity
  8
\U+30EC\U+30A4\U+30E4\U+30FC 1
370
     9
  0
POLYLINE
  5
103
330
1F
100
AcDbEntity
  8
\U+30EC\U+30A4\U+30E4\U+30FC 1
 62
   179
420
  2234388
370
     9
100
AcDb2dPolyline
 66
     1
 10
0.0
 20
0.0
 30
0.0
  0
VERTEX
  5
104
330
103
100
AcDbEntity
  8
\U+30EC\U+30A4\U+30E4\U+30FC 1
 62
   179
420
  2234388
370
     9
100
AcDbVertex
100
AcDb2dVertex
 10
64.0901448407483
 20
97.2867404270672
 30
0.0
  0
VERTEX
  5
105
330
103
100
AcDbEntity
  8
\U+30EC\U+30A4\U+30E4\U+30FC 1
 62
   179
420
  2234388
370
     9
100
AcDbVertex
100
AcDb2dVertex
 10
58.79882268495307
 20
97.2867404270672
 30
0.0
  0
SEQEND
  5
106
330
103
100
AcDbEntity
  8
\U+30EC\U+30A4\U+30E4\U+30FC 1
370
     9
  0
MTEXT
  5
107
330
1F
100
AcDbEntity
  8
\U+30EC\U+30A4\U+30E4\U+30FC 1
 62
   179
420
  2234388
100
AcDbMText
 10
57.09832355343376
 20
99.66833493602041
 30
0.0
 40
3.3039706570313
 41
0.0
 71
     7
 72
     1
  1
\fATC-65b030b44c2d5357495353|b0|i0|c0|p34;\W1.02;125
 11
-4.371139000186241E-8
 21
0.999999999999999
 31
0.0
 73
     1
 44
1.0
  0
POLYLINE
  5
108
330
1F
100
AcDbEntity
  8
\U+30EC\U+30A4\U+30E4\U+30FC 1
 62
   179
420
  2234388
370
     9
100
AcDb2dPolyline
 66
     1
 10
0.0
 20
0.0
 30
0.0
  0
VERTEX
  5
109
330
108
100
AcDbEntity
  8
\U+30EC\U+30A4\U+30E4\U+30FC 1
 62
   179
420
  2234388
370
     9
100
AcDbVertex
100
AcDb2dVertex
 10
78.62982582669672
 20
117.4922254480575
 30
0.0
  0
VERTEX
  5
10A
330
108
100
AcDbEntity
  8
\U+30EC\U+30A4\U+30E4\U+30FC 1
 62
   179
420
  2234388
370
     9
100
AcDbVertex
100
AcDb2dVertex
 10
135.5055962117833
 20
117.4922254480575
 30
0.0
  0
SEQEND
  5
10B
330
108
100
AcDbEntity
  8
\U+30EC\U+30A4\U+30E4\U+30FC 1
370
     9
  0
POLYLINE
  5
10C
330
1F
100
AcDbEntity
  8
\U+30EC\U+30A4\U+30E4\U+30FC 1
370
     0
100
AcDb2dPolyline
 66
     1
 10
0.0
 20
0.0
 30
0.0
  0
VERTEX
  5
10D
330
10C
100
AcDbEntity
  8
\U+30EC\U+30A4\U+30E4\U+30FC 1
370
     0
100
AcDbVertex
100
AcDb2dVertex
 10
78.97915850890105
 20
117.0009548318609
 30
0.0
  0
VERTEX
  5
10E
330
10C
100
AcDbEntity
  8
\U+30EC\U+30A4\U+30E4\U+30FC 1
370
     0
100
AcDbVertex
100
AcDb2dVertex
 10
77.06713051458739
 20
117.513585040066
 30
0.0
  0
VERTEX
  5
10F
330
10C
100
AcDbEntity
  8
\U+30EC\U+30A4\U+30E4\U+30FC 1
370
     0
100
AcDbVertex
100
AcDb2dVertex
 10
78.97915850890105
 20
118.0262152482712
 30
0.0
  0
SEQEND
  5
110
330
10C
100
AcDbEntity
  8
\U+30EC\U+30A4\U+30E4\U+30FC 1
370
     0
  0
HATCH
  5
111
330
1F
100
AcDbEntity
  8
\U+30EC\U+30A4\U+30E4\U+30FC 1
 62
   179
420
  2234388
100
AcDbHatch
 10
0.0
 20
0.0
 30
0.0
210
0.0
220
0.0
230
1.0
  2
SOLID
 70
     1
 71
     0
 91
        1
 92
        1
 93
        3
 72
     1
 10
78.97915850890105
 20
117.0009548318609
 11
77.06713051458739
 21
117.513585040066
 72
     1
 10
77.06713051458739
 20
117.513585040066
 11
78.97915850890105
 21
118.0262152482712
 72
     1
 10
78.97915850890105
 20
118.0262152482712
 11
78.97915850890105
 21
117.0009548318609
 97
        0
 75
     2
 76
     1
 98
        0
  0
POLYLINE
  5
112
330
1F
100
AcDbEntity
  8
\U+30EC\U+30A4\U+30E4\U+30FC 1
370
     0
100
AcDb2dPolyline
 66
     1
 10
0.0
 20
0.0
 30
0.0
  0
VERTEX
  5
113
330
112
100
AcDbEntity
  8
\U+30EC\U+30A4\U+30E4\U+30FC 1
370
     0
100
AcDbVertex
100
AcDb2dVertex
 10
135.1566080391275
 20
117.0009548318609
 30
0.0
  0
VERTEX
  5
114
330
112
100
AcDbEntity
  8
\U+30EC\U+30A4\U+30E4\U+30FC 1
370
     0
100
AcDbVertex
100
AcDb2dVertex
 10
137.0686360334412
 20
117.513585040066
 30
0.0
  0
VERTEX
  5
115
330
112
100
AcDbEntity
  8
\U+30EC\U+30A4\U+30E4\U+30FC 1
370
     0
100
AcDbVertex
100
AcDb2dVertex
 10
135.1566080391275
 20
118.0262152482712
 30
0.0
  0
SEQEND
  5
116
330
112
100
AcDbEntity
  8
\U+30EC\U+30A4\U+30E4\U+30FC 1
370
     0
  0
HATCH
  5
117
330
1F
100
AcDbEntity
  8
\U+30EC\U+30A4\U+30E4\U+30FC 1
 62
   179
420
  2234388
100
AcDbHatch
 10
0.0
 20
0.0
 30
0.0
210
0.0
220
0.0
230
1.0
  2
SOLID
 70
     1
 71
     0
 91
        1
 92
        1
 93
        3
 72
     1
 10
135.1566080391275
 20
117.0009548318609
 11
137.0686360334412
 21
117.513585040066
 72
     1
 10
137.0686360334412
 20
117.513585040066
 11
135.1566080391275
 21
118.0262152482712
 72
     1
 10
135.1566080391275
 20
118.0262152482712
 11
135.1566080391275
 21
117.0009548318609
 97
        0
 75
     2
 76
     1
 98
        0
  0
POLYLINE
  5
118
330
1F
100
AcDbEntity
  8
\U+30EC\U+30A4\U+30E4\U+30FC 1
 62
   179
420
  2234388
370
     9
100
AcDb2dPolyline
 66
     1
 10
0.0
 20
0.0
 30
0.0
  0
VERTEX
  5
119
330
118
100
AcDbEntity
  8
\U+30EC\U+30A4\U+30E4\U+30FC 1
 62
   179
420
  2234388
370
     9
100
AcDbVertex
100
AcDb2dVertex
 10
137.0686360334412
 20
117.4922254480575
 30
0.0
  0
VERTEX
  5
11A
330
118
100
AcDbEntity
  8
\U+30EC\U+30A4\U+30E4\U+30FC 1
 62
   179
420
  2234388
370
     9
100
AcDbVertex
100
AcDb2dVertex
 10
137.0686360334412
 20
112.2005587827138
 30
0.0
  0
SEQEND
  5
11B
330
118
100
AcDbEntity
  8
\U+30EC\U+30A4\U+30E4\U+30FC 1
370
     9
  0
POLYLINE
  5
11C
330
1F
100
AcDbEntity
  8
\U+30EC\U+30A4\U+30E4\U+30FC 1
 62
   179
420
  2234388
370
     9
100
AcDb2dPolyline
 66
     1
 10
0.0
 20
0.0
 30
0.0
  0
VERTEX
  5
11D
330
11C
100
AcDbEntity
  8
\U+30EC\U+30A4\U+30E4\U+30FC 1
 62
   179
420
  2234388
370
     9
100
AcDbVertex
100
AcDb2dVertex
 10
77.06781953368444
 20
112.2005587827138
 30
0.0
  0
VERTEX
  5
11E
330
11C
100
AcDbEntity
  8
\U+30EC\U+30A4\U+30E4\U+30FC 1
 62
   179
420
  2234388
370
     9
100
AcDbVertex
100
AcDb2dVertex
 10
77.06781953368444
 20
117.4922254480575
 30
0.0
  0
SEQEND
  5
11F
330
11C
100
AcDbEntity
  8
\U+30EC\U+30A4\U+30E4\U+30FC 1
370
     9
  0
MTEXT
  5
120
330
1F
100
AcDbEntity
  8
\U+30EC\U+30A4\U+30E4\U+30FC 1
 62
   179
420
  2234388
100
AcDbMText
 10
103.2002468274986
 20
118.4871690241977
 30
0.0
 40
3.3039706570313
 41
0.0
 71
     7
 72
     1
  1
\fATC-65b030b44c2d5357495353|b0|i0|c0|p34;\W1.02;600
 73
     1
 44
1.0
  0
POLYLINE
  5
121
330
1F
100
AcDbEntity
  8
\U+30EC\U+30A4\U+30E4\U+30FC 1
 62
   179
420
  2234388
370
     9
100
AcDb2dPolyline
 66
     1
 10
0.0
 20
0.0
 30
0.0
  0
VERTEX
  5
122
330
121
100
AcDbEntity
  8
\U+30EC\U+30A4\U+30E4\U+30FC 1
 62
   179
420
  2234388
370
     9
100
AcDbVertex
100
AcDb2dVertex
 10
132.5782985779665
 20
89.1687174256245
 30
0.0
  0
VERTEX
  5
123
330
121
100
AcDbEntity
  8
\U+30EC\U+30A4\U+30E4\U+30FC 1
 62
   179
420
  2234388
370
     9
100
AcDbVertex
100
AcDb2dVertex
 10
81.57951658116762
 20
89.1687174256245
 30
0.0
  0
SEQEND
  5
124
330
121
100
AcDbEntity
  8
\U+30EC\U+30A4\U+30E4\U+30FC 1
370
     9
  0
POLYLINE
  5
125
330
1F
100
AcDbEntity
  8
\U+30EC\U+30A4\U+30E4\U+30FC 1
370
     0
100
AcDb2dPolyline
 66
     1
 10
0.0
 20
0.0
 30
0.0
  0
VERTEX
  5
126
330
125
100
AcDbEntity
  8
\U+30EC\U+30A4\U+30E4\U+30FC 1
370
     0
100
AcDbVertex
100
AcDb2dVertex
 10
132.2286213862137
 20
89.65998804182112
 30
0.0
  0
VERTEX
  5
127
330
125
100
AcDbEntity
  8
\U+30EC\U+30A4\U+30E4\U+30FC 1
370
     0
100
AcDbVertex
100
AcDb2dVertex
 10
134.1409938900759
 20
89.14735783361594
 30
0.0
  0
VERTEX
  5
128
330
125
100
AcDbEntity
  8
\U+30EC\U+30A4\U+30E4\U+30FC 1
370
     0
100
AcDbVertex
100
AcDb2dVertex
 10
132.2286213862137
 20
88.63541664450781
 30
0.0
  0
SEQEND
  5
129
330
125
100
AcDbEntity
  8
\U+30EC\U+30A4\U+30E4\U+30FC 1
370
     0
  0
HATCH
  5
12A
330
1F
100
AcDbEntity
  8
\U+30EC\U+30A4\U+30E4\U+30FC 1
 62
   179
420
  2234388
100
AcDbHatch
 10
0.0
 20
0.0
 30
0.0
210
0.0
220
0.0
230
1.0
  2
SOLID
 70
     1
 71
     0
 91
        1
 92
        1
 93
        3
 72
     1
 10
132.2286213862137
 20
89.65998804182112
 11
134.1409938900759
 21
89.14735783361594
 72
     1
 10
134.1409938900759
 20
89.14735783361594
 11
132.2286213862137
 21
88.63541664450781
 72
     1
 10
132.2286213862137
 20
88.63541664450781
 11
132.2286213862137
 21
89.65998804182112
 97
        0
 75
     2
 76
     1
 98
        0
  0
POLYLINE
  5
12B
330
1F
100
AcDbEntity
  8
\U+30EC\U+30A4\U+30E4\U+30FC 1
370
     0
100
AcDb2dPolyline
 66
     1
 10
0.0
 20
0.0
 30
0.0
  0
VERTEX
  5
12C
330
12B
100
AcDbEntity
  8
\U+30EC\U+30A4\U+30E4\U+30FC 1
370
     0
100
AcDbVertex
100
AcDb2dVertex
 10
81.92884926337196
 20
89.65998804182112
 30
0.0
  0
VERTEX
  5
12D
330
12B
100
AcDbEntity
  8
\U+30EC\U+30A4\U+30E4\U+30FC 1
370
     0
100
AcDbVertex
100
AcDb2dVertex
 10
80.0168212690583
 20
89.14735783361594
 30
0.0
  0
VERTEX
  5
12E
330
12B
100
AcDbEntity
  8
\U+30EC\U+30A4\U+30E4\U+30FC 1
370
     0
100
AcDbVertex
100
AcDb2dVertex
 10
81.92884926337196
 20
88.63541664450781
 30
0.0
  0
SEQEND
  5
12F
330
12B
100
AcDbEntity
  8
\U+30EC\U+30A4\U+30E4\U+30FC 1
370
     0
  0
HATCH
  5
130
330
1F
100
AcDbEntity
  8
\U+30EC\U+30A4\U+30E4\U+30FC 1
 62
   179
420
  2234388
100
AcDbHatch
 10
0.0
 20
0.0
 30
0.0
210
0.0
220
0.0
230
1.0
  2
SOLID
 70
     1
 71
     0
 91
        1
 92
        1
 93
        3
 72
     1
 10
81.92884926337196
 20
89.65998804182112
 11
80.0168212690583
 21
89.14735783361594
 72
     1
 10
80.0168212690583
 20
89.14735783361594
 11
81.92884926337196
 21
88.63541664450781
 72
     1
 10
81.92884926337196
 20
88.63541664450781
 11
81.92884926337196
 21
89.65998804182112
 97
        0
 75
     2
 76
     1
 98
        0
  0
POLYLINE
  5
131
330
1F
100
AcDbEntity
  8
\U+30EC\U+30A4\U+30E4\U+30FC 1
 62
   179
420
  2234388
370
     9
100
AcDb2dPolyline
 66
     1
 10
0.0
 20
0.0
 30
0.0
  0
VERTEX
  5
132
330
131
100
AcDbEntity
  8
\U+30EC\U+30A4\U+30E4\U+30FC 1
 62
   179
420
  2234388
370
     9
100
AcDbVertex
100
AcDb2dVertex
 10
80.0168212690583
 20
89.1687174256245
 30
0.0
  0
VERTEX
  5
133
330
131
100
AcDbEntity
  8
\U+30EC\U+30A4\U+30E4\U+30FC 1
 62
   179
420
  2234388
370
     9
100
AcDbVertex
100
AcDb2dVertex
 10
80.0168212690583
 20
94.46107311006529
 30
0.0
  0
SEQEND
  5
134
330
131
100
AcDbEntity
  8
\U+30EC\U+30A4\U+30E4\U+30FC 1
370
     9
  0
POLYLINE
  5
135
330
1F
100
AcDbEntity
  8
\U+30EC\U+30A4\U+30E4\U+30FC 1
 62
   179
420
  2234388
370
     9
100
AcDb2dPolyline
 66
     1
 10
0.0
 20
0.0
 30
0.0
  0
VERTEX
  5
136
330
135
100
AcDbEntity
  8
\U+30EC\U+30A4\U+30E4\U+30FC 1
 62
   179
420
  2234388
370
     9
100
AcDbVertex
100
AcDb2dVertex
 10
134.1406493805273
 20
94.46038409096825
 30
0.0
  0
VERTEX
  5
137
330
135
100
AcDbEntity
  8
\U+30EC\U+30A4\U+30E4\U+30FC 1
 62
   179
420
  2234388
370
     9
100
AcDbVertex
100
AcDb2dVertex
 10
134.1406493805273
 20
89.1687174256245
 30
0.0
  0
SEQEND
  5
138
330
135
100
AcDbEntity
  8
\U+30EC\U+30A4\U+30E4\U+30FC 1
370
     9
  0
MTEXT
  5
139
330
1F
100
AcDbEntity
  8
\U+30EC\U+30A4\U+30E4\U+30FC 1
 62
   179
420
  2234388
100
AcDbMText
 10
103.2116156425999
 20
84.16506074284763
 30
0.0
 40
3.3039706570313
 41
0.0
 71
     7
 72
     1
  1
\fATC-65b030b44c2d5357495353|b0|i0|c0|p34;\W1.02;540
 73
     1
 44
1.0
  0
POLYLINE
  5
13A
330
1F
100
AcDbEntity
  8
\U+30EC\U+30A4\U+30E4\U+30FC 1
 62
   179
420
  2234388
370
     9
100
AcDb2dPolyline
 66
     1
 10
0.0
 20
0.0
 30
0.0
  0
VERTEX
  5
13B
330
13A
100
AcDbEntity
  8
\U+30EC\U+30A4\U+30E4\U+30FC 1
 62
   179
420
  2234388
370
     9
100
AcDbVertex
100
AcDb2dVertex
 10
69.48413084200396
 20
101.2603135597544
 30
0.0
  0
VERTEX
  5
13C
330
13A
100
AcDbEntity
  8
\U+30EC\U+30A4\U+30E4\U+30FC 1
 62
   179
420
  2234388
370
     9
100
AcDbVertex
100
AcDb2dVertex
 10
69.48413084200396
 20
108.2221625163472
 30
0.0
  0
SEQEND
  5
13D
330
13A
100
AcDbEntity
  8
\U+30EC\U+30A4\U+30E4\U+30FC 1
370
     9
  0
POLYLINE
  5
13E
330
1F
100
AcDbEntity
  8
\U+30EC\U+30A4\U+30E4\U+30FC 1
370
     0
100
AcDb2dPolyline
 66
     1
 10
0.0
 20
0.0
 30
0.0
  0
VERTEX
  5
13F
330
13E
100
AcDbEntity
  8
\U+30EC\U+30A4\U+30E4\U+30FC 1
370
     0
100
AcDbVertex
100
AcDb2dVertex
 10
69.97505694865207
 20
101.6096462419587
 30
0.0
  0
VERTEX
  5
140
330
13E
100
AcDbEntity
  8
\U+30EC\U+30A4\U+30E4\U+30FC 1
370
     0
100
AcDbVertex
100
AcDb2dVertex
 10
69.46311575954395
 20
99.69761824764504
 30
0.0
  0
VERTEX
  5
141
330
13E
100
AcDbEntity
  8
\U+30EC\U+30A4\U+30E4\U+30FC 1
370
     0
100
AcDbVertex
100
AcDb2dVertex
 10
68.95014104179025
 20
101.6096462419587
 30
0.0
  0
SEQEND
  5
142
330
13E
100
AcDbEntity
  8
\U+30EC\U+30A4\U+30E4\U+30FC 1
370
     0
  0
HATCH
  5
143
330
1F
100
AcDbEntity
  8
\U+30EC\U+30A4\U+30E4\U+30FC 1
 62
   179
420
  2234388
100
AcDbHatch
 10
0.0
 20
0.0
 30
0.0
210
0.0
220
0.0
230
1.0
  2
SOLID
 70
     1
 71
     0
 91
        1
 92
        1
 93
        3
 72
     1
 10
69.97505694865207
 20
101.6096462419587
 11
69.46311575954395
 21
99.69761824764504
 72
     1
 10
69.46311575954395
 20
99.69761824764504
 11
68.95014104179025
 21
101.6096462419587
 72
     1
 10
68.95014104179025
 20
101.6096462419587
 11
69.97505694865207
 21
101.6096462419587
 97
        0
 75
     2
 76
     1
 98
        0
  0
POLYLINE
  5
144
330
1F
100
AcDbEntity
  8
\U+30EC\U+30A4\U+30E4\U+30FC 1
370
     0
100
AcDb2dPolyline
 66
     1
 10
0.0
 20
0.0
 30
0.0
  0
VERTEX
  5
145
330
144
100
AcDbEntity
  8
\U+30EC\U+30A4\U+30E4\U+30FC 1
370
     0
100
AcDbVertex
100
AcDb2dVertex
 10
69.97505694865207
 20
107.8728298341429
 30
0.0
  0
VERTEX
  5
146
330
144
100
AcDbEntity
  8
\U+30EC\U+30A4\U+30E4\U+30FC 1
370
     0
100
AcDbVertex
100
AcDb2dVertex
 10
69.46311575954395
 20
109.7848578284566
 30
0.0
  0
VERTEX
  5
147
330
144
100
AcDbEntity
  8
\U+30EC\U+30A4\U+30E4\U+30FC 1
370
     0
100
AcDbVertex
100
AcDb2dVertex
 10
68.95014104179025
 20
107.8728298341429
 30
0.0
  0
SEQEND
  5
148
330
144
100
AcDbEntity
  8
\U+30EC\U+30A4\U+30E4\U+30FC 1
370
     0
  0
HATCH
  5
149
330
1F
100
AcDbEntity
  8
\U+30EC\U+30A4\U+30E4\U+30FC 1
 62
   179
420
  2234388
100
AcDbHatch
 10
0.0
 20
0.0
 30
0.0
210
0.0
220
0.0
230
1.0
  2
SOLID
 70
     1
 71
     0
 91
        1
 92
        1
 93
        3
 72
     1
 10
69.97505694865207
 20
107.8728298341429
 11
69.46311575954395
 21
109.7848578284566
 72
     1
 10
69.46311575954395
 20
109.7848578284566
 11
68.95014104179025
 21
107.8728298341429
 72
     1
 10
68.95014104179025
 20
107.8728298341429
 11
69.97505694865207
 21
107.8728298341429
 97
        0
 75
     2
 76
     1
 98
        0
  0
POLYLINE
  5
14A
330
1F
100
AcDbEntity
  8
\U+30EC\U+30A4\U+30E4\U+30FC 1
 62
   179
420
  2234388
370
     9
100
AcDb2dPolyline
 66
     1
 10
0.0
 20
0.0
 30
0.0
  0
VERTEX
  5
14B
330
14A
100
AcDbEntity
  8
\U+30EC\U+30A4\U+30E4\U+30FC 1
 62
   179
420
  2234388
370
     9
100
AcDbVertex
100
AcDb2dVertex
 10
69.48413084200396
 20
109.7848578284566
 30
0.0
  0
VERTEX
  5
14C
330
14A
100
AcDbEntity
  8
\U+30EC\U+30A4\U+30E4\U+30FC 1
 62
   179
420
  2234388
370
     9
100
AcDbVertex
100
AcDb2dVertex
 10
74.77579750734772
 20
109.7848578284566
 30
0.0
  0
SEQEND
  5
14D
330
14A
100
AcDbEntity
  8
\U+30EC\U+30A4\U+30E4\U+30FC 1
370
     9
  0
POLYLINE
  5
14E
330
1F
100
AcDbEntity
  8
\U+30EC\U+30A4\U+30E4\U+30FC 1
 62
   179
420
  2234388
370
     9
100
AcDb2dPolyline
 66
     1
 10
0.0
 20
0.0
 30
0.0
  0
VERTEX
  5
14F
330
14E
100
AcDbEntity
  8
\U+30EC\U+30A4\U+30E4\U+30FC 1
 62
   179
420
  2234388
370
     9
100
AcDbVertex
100
AcDb2dVertex
 10
74.77579750734772
 20
99.69761824764504
 30
0.0
  0
VERTEX
  5
150
330
14E
100
AcDbEntity
  8
\U+30EC\U+30A4\U+30E4\U+30FC 1
 62
   179
420
  2234388
370
     9
100
AcDbVertex
100
AcDb2dVertex
 10
69.48344182290693
 20
99.69761824764504
 30
0.0
  0
SEQEND
  5
151
330
14E
100
AcDbEntity
  8
\U+30EC\U+30A4\U+30E4\U+30FC 1
370
     9
  0
MTEXT
  5
152
330
1F
100
AcDbEntity
  8
\U+30EC\U+30A4\U+30E4\U+30FC 1
 62
   179
420
  2234388
100
AcDbMText
 10
67.7843207295817
 20
100.8744628654064
 30
0.0
 40
3.3039706570313
 41
0.0
 71
     7
 72
     1
  1
\fATC-65b030b44c2d5357495353|b0|i0|c0|p34;\W1.02;100
 11
-4.371139000186241E-8
 21
0.999999999999999
 31
0.0
 73
     1
 44
1.0
  0
POLYLINE
  5
153
330
1F
100
AcDbEntity
  8
\U+30EC\U+30A4\U+30E4\U+30FC 1
 62
   179
420
  2234388
370
    70
100
AcDb2dPolyline
 66
     1
 10
0.0
 20
0.0
 30
0.0
  0
VERTEX
  5
154
330
153
100
AcDbEntity
  8
\U+30EC\U+30A4\U+30E4\U+30FC 1
 62
   179
420
  2234388
370
    70
100
AcDbVertex
100
AcDb2dVertex
 10
176.5346163838177
 20
97.2826063124849
 30
0.0
  0
VERTEX
  5
155
330
153
100
AcDbEntity
  8
\U+30EC\U+30A4\U+30E4\U+30FC 1
 62
   179
420
  2234388
370
    70
100
AcDbVertex
100
AcDb2dVertex
 10
216.5011691082011
 20
97.2826063124849
 30
0.0
  0
SEQEND
  5
156
330
153
100
AcDbEntity
  8
\U+30EC\U+30A4\U+30E4\U+30FC 1
370
    70
  0
SPLINE
  5
157
330
1F
100
AcDbEntity
  8
\U+30EC\U+30A4\U+30E4\U+30FC 1
 62
   179
420
  2234388
370
     9
100
AcDbSpline
210
0.0
220
0.0
230
1.0
 70
    11
 71
     3
 72
    95
 73
    91
 74
     0
 42
0.0000000001
 43
0.0000000001
 40
0.0
 40
0.0
 40
0.0
 40
0.0
 40
1.0
 40
1.0
 40
1.0
 40
2.0
 40
2.0
 40
2.0
 40
3.0
 40
3.0
 40
3.0
 40
4.0
 40
4.0
 40
4.0
 40
5.0
 40
5.0
 40
5.0
 40
6.0
 40
6.0
 40
6.0
 40
7.0
 40
7.0
 40
7.0
 40
8.0
 40
8.0
 40
8.0
 40
9.0
 40
9.0
 40
9.0
 40
10.0
 40
10.0
 40
10.0
 40
11.0
 40
11.0
 40
11.0
 40
12.0
 40
12.0
 40
12.0
 40
13.0
 40
13.0
 40
13.0
 40
14.0
 40
14.0
 40
14.0
 40
15.0
 40
15.0
 40
15.0
 40
16.0
 40
16.0
 40
16.0
 40
17.0
 40
17.0
 40
17.0
 40
18.0
 40
18.0
 40
18.0
 40
19.0
 40
19.0
 40
19.0
 40
20.0
 40
20.0
 40
20.0
 40
21.0
 40
21.0
 40
21.0
 40
22.0
 40
22.0
 40
22.0
 40
23.0
 40
23.0
 40
23.0
 40
24.0
 40
24.0
 40
24.0
 40
25.0
 40
25.0
 40
25.0
 40
26.0
 40
26.0
 40
26.0
 40
27.0
 40
27.0
 40
27.0
 40
28.0
 40
28.0
 40
28.0
 40
29.0
 40
29.0
 40
29.0
 40
30.0
 40
30.0
 40
30.0
 40
30.0
 10
211.9202256414644
 20
97.2826063124849
 30
0.0
 10
211.9202256414644
 20
97.2826063124849
 30
0.0
 10
200.6382269463682
 20
97.2826063124849
 30
0.0
 10
200.6382269463682
 20
97.2826063124849
 30
0.0
 10
190.6956813759372
 20
97.2826063124849
 30
0.0
 10
190.7525254514438
 20
97.2826063124849
 30
0.0
 10
180.8096353714643
 20
97.2826063124849
 30
0.0
 10
180.8096353714643
 20
97.2826063124849
 30
0.0
 10
179.4805175332549
 20
97.2826063124849
 30
0.0
 10
179.4805175332549
 20
97.2826063124849
 30
0.0
 10
179.4805175332549
 20
97.2826063124849
 30
0.0
 10
179.4391763874319
 20
97.72909068737329
 30
0.0
 10
179.4391763874319
 20
97.72909068737329
 30
0.0
 10
179.4391763874319
 20
97.72909068737329
 30
0.0
 10
179.3978352416089
 20
97.89514428976233
 30
0.0
 10
179.3978352416089
 20
97.89514428976233
 30
0.0
 10
179.3978352416089
 20
97.89514428976233
 30
0.0
 10
179.2999945298278
 20
98.03432614736643
 30
0.0
 10
179.2999945298278
 20
98.03432614736643
 30
0.0
 10
179.2999945298278
 20
98.03432614736643
 30
0.0
 10
179.1463432711857
 20
98.13216685914752
 30
0.0
 10
179.1463432711857
 20
98.13216685914752
 30
0.0
 10
179.1463432711857
 20
98.13216685914752
 30
0.0
 10
178.9802896687966
 20
98.17350800497051
 30
0.0
 10
178.9802896687966
 20
98.17350800497051
 30
0.0
 10
178.9802896687966
 20
98.17350800497051
 30
0.0
 10
177.7958658409677
 20
98.27134871675162
 30
0.0
 10
177.7958658409677
 20
98.27134871675162
 30
0.0
 10
177.7958658409677
 20
98.27134871675162
 30
0.0
 10
177.5726236535235
 20
98.29959849973066
 30
0.0
 10
177.5726236535235
 20
98.29959849973066
 30
0.0
 10
177.1537000425171
 20
98.3857258868619
 30
0.0
 10
176.7960991311482
 20
98.81085066974174
 30
0.0
 10
176.792654035663
 20
99.24631073907732
 30
0.0
 10
176.792654035663
 20
99.24631073907732
 30
0.0
 10
176.5005099385138
 20
109.5740179847593
 30
0.0
 10
176.5005099385138
 20
109.5740179847593
 30
0.0
 10
176.5005099385138
 20
109.5740179847593
 30
0.0
 10
176.5280707023958
 20
109.6718586965404
 30
0.0
 10
176.5280707023958
 20
109.6718586965404
 30
0.0
 10
176.5280707023958
 20
109.6718586965404
 30
0.0
 10
176.5983506502949
 20
109.7552300072834
 30
0.0
 10
176.5983506502949
 20
109.7552300072834
 30
0.0
 10
176.5983506502949
 20
109.7552300072834
 30
0.0
 10
176.6955023429789
 20
109.7834797902625
 30
0.0
 10
176.6955023429789
 20
109.7834797902625
 30
0.0
 10
176.6955023429789
 20
109.7834797902625
 30
0.0
 10
216.3072102323815
 20
109.7834797902625
 30
0.0
 10
216.3072102323815
 20
109.7834797902625
 30
0.0
 10
216.3072102323815
 20
109.7834797902625
 30
0.0
 10
216.4050509441626
 20
109.7552300072834
 30
0.0
 10
216.4050509441626
 20
109.7552300072834
 30
0.0
 10
216.4050509441626
 20
109.7552300072834
 30
0.0
 10
216.4884222549057
 20
109.6718586965404
 30
0.0
 10
216.4884222549057
 20
109.6718586965404
 30
0.0
 10
216.4884222549057
 20
109.6718586965404
 30
0.0
 10
216.5022026368467
 20
109.5740179847593
 30
0.0
 10
216.5022026368467
 20
109.5740179847593
 30
0.0
 10
216.5022026368467
 20
109.5740179847593
 30
0.0
 10
216.2100585396975
 20
99.24631073907732
 30
0.0
 10
216.2100585396975
 20
99.24631073907732
 30
0.0
 10
216.2100585396975
 20
99.24631073907732
 30
0.0
 10
216.1818087567185
 20
99.03684893357412
 30
0.0
 10
216.1818087567185
 20
99.03684893357412
 30
0.0
 10
216.0874131404226
 20
98.6820040985934
 30
0.0
 10
215.7925129668852
 20
98.37814667679436
 30
0.0
 10
215.4300889218369
 20
98.29959849973066
 30
0.0
 10
215.4300889218369
 20
98.29959849973066
 30
0.0
 10
215.2061577152957
 20
98.27134871675162
 30
0.0
 10
215.2061577152957
 20
98.27134871675162
 30
0.0
 10
215.2061577152957
 20
98.27134871675162
 30
0.0
 10
214.0238009447579
 20
98.17350800497051
 30
0.0
 10
214.0238009447579
 20
98.17350800497051
 30
0.0
 10
214.0238009447579
 20
98.17350800497051
 30
0.0
 10
213.8556802850778
 20
98.13216685914752
 30
0.0
 10
213.8556802850778
 20
98.13216685914752
 30
0.0
 10
213.8556802850778
 20
98.13216685914752
 30
0.0
 10
213.7164984274737
 20
98.03432614736643
 30
0.0
 10
213.7164984274737
 20
98.03432614736643
 30
0.0
 10
213.7164984274737
 20
98.03432614736643
 30
0.0
 10
213.6186577156926
 20
97.89514428976233
 30
0.0
 10
213.6186577156926
 20
97.89514428976233
 30
0.0
 10
213.6186577156926
 20
97.89514428976233
 30
0.0
 10
213.5635361879286
 20
97.72909068737329
 30
0.0
 10
213.5635361879286
 20
97.72909068737329
 30
0.0
 10
213.5635361879286
 20
97.72909068737329
 30
0.0
 10
213.5215060230085
 20
97.2826063124849
 30
0.0
 10
213.5215060230085
 20
97.2826063124849
 30
0.0
 10
213.5215060230085
 20
97.2826063124849
 30
0.0
 10
211.9202256414644
 20
97.2826063124849
 30
0.0
 10
211.9202256414644
 20
97.2826063124849
 30
0.0
  0
POLYLINE
  5
158
330
1F
100
AcDbEntity
  8
\U+30EC\U+30A4\U+30E4\U+30FC 1
  6
AI-Linetype-8
 62
   179
420
  2234388
370
     9
100
AcDb2dPolyline
 66
     1
 10
0.0
 20
0.0
 30
0.0
  0
VERTEX
  5
159
330
158
100
AcDbEntity
  8
\U+30EC\U+30A4\U+30E4\U+30FC 1
  6
AI-Linetype-8
 62
   179
420
  2234388
370
     9
100
AcDbVertex
100
AcDb2dVertex
 10
200.289583283261
 20
99.77478838651464
 30
0.0
  0
VERTEX
  5
15A
330
158
100
AcDbEntity
  8
\U+30EC\U+30A4\U+30E4\U+30FC 1
  6
AI-Linetype-8
 62
   179
420
  2234388
370
     9
100
AcDbVertex
100
AcDb2dVertex
 10
199.0362575457271
 20
98.77226560030694
 30
0.0
  0
SEQEND
  5
15B
330
158
100
AcDbEntity
  8
\U+30EC\U+30A4\U+30E4\U+30FC 1
  6
AI-Linetype-8
370
     9
  0
SPLINE
  5
15D
330
1F
100
AcDbEntity
  8
\U+30EC\U+30A4\U+30E4\U+30FC 1
  6
AI-Linetype-9
 62
   179
420
  2234388
370
     9
100
AcDbSpline
210
0.0
220
0.0
230
1.0
 70
     8
 71
     3
 72
    50
 73
    46
 74
     0
 42
0.0000000001
 43
0.0000000001
 40
0.0
 40
0.0
 40
0.0
 40
0.0
 40
1.0
 40
1.0
 40
1.0
 40
2.0
 40
2.0
 40
2.0
 40
3.0
 40
3.0
 40
3.0
 40
4.0
 40
4.0
 40
4.0
 40
5.0
 40
5.0
 40
5.0
 40
6.0
 40
6.0
 40
6.0
 40
7.0
 40
7.0
 40
7.0
 40
8.0
 40
8.0
 40
8.0
 40
9.0
 40
9.0
 40
9.0
 40
10.0
 40
10.0
 40
10.0
 40
11.0
 40
11.0
 40
11.0
 40
12.0
 40
12.0
 40
12.0
 40
13.0
 40
13.0
 40
13.0
 40
14.0
 40
14.0
 40
14.0
 40
15.0
 40
15.0
 40
15.0
 40
15.0
 10
216.1824977758155
 20
109.7834797902625
 30
0.0
 10
216.1824977758155
 20
109.7834797902625
 30
0.0
 10
216.0984374459754
 20
109.7552300072834
 30
0.0
 10
216.0984374459754
 20
109.7552300072834
 30
0.0
 10
216.0984374459754
 20
109.7552300072834
 30
0.0
 10
216.0288465171733
 20
109.7001084795194
 30
0.0
 10
216.0288465171733
 20
109.7001084795194
 30
0.0
 10
216.0288465171733
 20
109.7001084795194
 30
0.0
 10
215.9868163522533
 20
109.6022677677383
 30
0.0
 10
215.9868163522533
 20
109.6022677677383
 30
0.0
 10
215.9868163522533
 20
109.6022677677383
 30
0.0
 10
214.8168619254625
 20
101.9327961984751
 30
0.0
 10
214.8168619254625
 20
101.9327961984751
 30
0.0
 10
214.8168619254625
 20
101.9327961984751
 30
0.0
 10
214.7472709966604
 20
101.6261827002879
 30
0.0
 10
214.7472709966604
 20
101.6261827002879
 30
0.0
 10
214.493711968946
 20
100.8207193758365
 30
0.0
 10
213.721321561153
 20
100.248144506188
 30
0.0
 10
212.8807182627521
 20
100.2336751051499
 30
0.0
 10
212.8807182627521
 20
100.2336751051499
 30
0.0
 10
200.289583283261
 20
99.77409936741759
 30
0.0
 10
200.289583283261
 20
99.77409936741759
 30
0.0
 10
200.289583283261
 20
99.77409936741759
 30
0.0
 10
192.9701334152991
 20
99.77409936741759
 30
0.0
 10
192.9701334152991
 20
99.77409936741759
 30
0.0
 10
192.9701334152991
 20
99.77409936741759
 30
0.0
 10
192.7820312018045
 20
99.77409936741759
 30
0.0
 10
192.7820312018045
 20
99.77409936741759
 30
0.0
 10
192.7820312018045
 20
99.77409936741759
 30
0.0
 10
180.1213052935113
 20
100.2336751051499
 30
0.0
 10
180.1213052935113
 20
100.2336751051499
 30
0.0
 10
180.1213052935113
 20
100.2336751051499
 30
0.0
 10
179.8146917953241
 20
100.261924888129
 30
0.0
 10
179.8146917953241
 20
100.261924888129
 30
0.0
 10
179.0746852850924
 20
100.414198108577
 30
0.0
 10
178.4924641480852
 20
100.9034016674825
 30
0.0
 10
178.2554415787
 20
101.6261827002879
 30
0.0
 10
178.2554415787
 20
101.6261827002879
 30
0.0
 10
178.1851616308009
 20
101.9327961984751
 30
0.0
 10
178.1851616308009
 20
101.9327961984751
 30
0.0
 10
178.1851616308009
 20
101.9327961984751
 30
0.0
 10
177.0152072040101
 20
109.6022677677383
 30
0.0
 10
177.0152072040101
 20
109.6022677677383
 30
0.0
 10
177.0152072040101
 20
109.6022677677383
 30
0.0
 10
176.9876464401281
 20
109.7001084795194
 30
0.0
 10
176.9876464401281
 20
109.7001084795194
 30
0.0
  0
POLYLINE
  5
15F
330
1F
100
AcDbEntity
  8
\U+30EC\U+30A4\U+30E4\U+30FC 1
  6
AI-Linetype-10
 62
   179
420
  2234388
370
     9
100
AcDb2dPolyline
 66
     1
 10
0.0
 20
0.0
 30
0.0
  0
VERTEX
  5
160
330
15F
100
AcDbEntity
  8
\U+30EC\U+30A4\U+30E4\U+30FC 1
  6
AI-Linetype-10
 62
   179
420
  2234388
370
     9
100
AcDbVertex
100
AcDb2dVertex
 10
194.0367349775325
 20
98.77226560030694
 30
0.0
  0
VERTEX
  5
161
330
15F
100
AcDbEntity
  8
\U+30EC\U+30A4\U+30E4\U+30FC 1
  6
AI-Linetype-10
 62
   179
420
  2234388
370
     9
100
AcDbVertex
100
AcDb2dVertex
 10
192.7827202209016
 20
99.77409936741759
 30
0.0
  0
SEQEND
  5
162
330
15F
100
AcDbEntity
  8
\U+30EC\U+30A4\U+30E4\U+30FC 1
  6
AI-Linetype-10
370
     9
  0
POLYLINE
  5
164
330
1F
100
AcDbEntity
  8
\U+30EC\U+30A4\U+30E4\U+30FC 1
  6
AI-Linetype-11
 62
   179
420
  2234388
370
     9
100
AcDb2dPolyline
 66
     1
 10
0.0
 20
0.0
 30
0.0
  0
VERTEX
  5
165
330
164
100
AcDbEntity
  8
\U+30EC\U+30A4\U+30E4\U+30FC 1
  6
AI-Linetype-11
 62
   179
420
  2234388
370
     9
100
AcDbVertex
100
AcDb2dVertex
 10
199.0362575457271
 20
98.77226560030694
 30
0.0
  0
VERTEX
  5
166
330
164
100
AcDbEntity
  8
\U+30EC\U+30A4\U+30E4\U+30FC 1
  6
AI-Linetype-11
 62
   179
420
  2234388
370
     9
100
AcDbVertex
100
AcDb2dVertex
 10
199.0362575457271
 20
97.2826063124849
 30
0.0
  0
SEQEND
  5
167
330
164
100
AcDbEntity
  8
\U+30EC\U+30A4\U+30E4\U+30FC 1
  6
AI-Linetype-11
370
     9
  0
POLYLINE
  5
169
330
1F
100
AcDbEntity
  8
\U+30EC\U+30A4\U+30E4\U+30FC 1
  6
AI-Linetype-12
 62
   179
420
  2234388
370
     9
100
AcDb2dPolyline
 66
     1
 10
0.0
 20
0.0
 30
0.0
  0
VERTEX
  5
16A
330
169
100
AcDbEntity
  8
\U+30EC\U+30A4\U+30E4\U+30FC 1
  6
AI-Linetype-12
 62
   179
420
  2234388
370
     9
100
AcDbVertex
100
AcDb2dVertex
 10
199.0362575457271
 20
98.77226560030694
 30
0.0
  0
VERTEX
  5
16B
330
169
100
AcDbEntity
  8
\U+30EC\U+30A4\U+30E4\U+30FC 1
  6
AI-Linetype-12
 62
   179
420
  2234388
370
     9
100
AcDbVertex
100
AcDb2dVertex
 10
194.0360459584354
 20
98.77226560030694
 30
0.0
  0
SEQEND
  5
16C
330
169
100
AcDbEntity
  8
\U+30EC\U+30A4\U+30E4\U+30FC 1
  6
AI-Linetype-12
370
     9
  0
POLYLINE
  5
16E
330
1F
100
AcDbEntity
  8
\U+30EC\U+30A4\U+30E4\U+30FC 1
  6
AI-Linetype-13
 62
   179
420
  2234388
370
     9
100
AcDb2dPolyline
 66
     1
 10
0.0
 20
0.0
 30
0.0
  0
VERTEX
  5
16F
330
16E
100
AcDbEntity
  8
\U+30EC\U+30A4\U+30E4\U+30FC 1
  6
AI-Linetype-13
 62
   179
420
  2234388
370
     9
100
AcDbVertex
100
AcDb2dVertex
 10
194.0367349775325
 20
98.77226560030694
 30
0.0
  0
VERTEX
  5
170
330
16E
100
AcDbEntity
  8
\U+30EC\U+30A4\U+30E4\U+30FC 1
  6
AI-Linetype-13
 62
   179
420
  2234388
370
     9
100
AcDbVertex
100
AcDb2dVertex
 10
194.0367349775325
 20
97.2826063124849
 30
0.0
  0
SEQEND
  5
171
330
16E
100
AcDbEntity
  8
\U+30EC\U+30A4\U+30E4\U+30FC 1
  6
AI-Linetype-13
370
     9
  0
POLYLINE
  5
173
330
1F
100
AcDbEntity
  8
\U+30EC\U+30A4\U+30E4\U+30FC 1
 62
   179
420
  2234388
370
     9
100
AcDb2dPolyline
 66
     1
 10
0.0
 20
0.0
 30
0.0
  0
VERTEX
  5
174
330
173
100
AcDbEntity
  8
\U+30EC\U+30A4\U+30E4\U+30FC 1
 62
   179
420
  2234388
370
     9
100
AcDbVertex
100
AcDb2dVertex
 10
158.2659640446349
 20
98.84943573917653
 30
0.0
  0
VERTEX
  5
175
330
173
100
AcDbEntity
  8
\U+30EC\U+30A4\U+30E4\U+30FC 1
 62
   179
420
  2234388
370
     9
100
AcDbVertex
100
AcDb2dVertex
 10
158.2659640446349
 20
108.2207844781531
 30
0.0
  0
SEQEND
  5
176
330
173
100
AcDbEntity
  8
\U+30EC\U+30A4\U+30E4\U+30FC 1
370
     9
  0
POLYLINE
  5
177
330
1F
100
AcDbEntity
  8
\U+30EC\U+30A4\U+30E4\U+30FC 1
370
     0
100
AcDb2dPolyline
 66
     1
 10
0.0
 20
0.0
 30
0.0
  0
VERTEX
  5
178
330
177
100
AcDbEntity
  8
\U+30EC\U+30A4\U+30E4\U+30FC 1
370
     0
100
AcDbVertex
100
AcDb2dVertex
 10
158.7572346608315
 20
99.19876842138086
 30
0.0
  0
VERTEX
  5
179
330
177
100
AcDbEntity
  8
\U+30EC\U+30A4\U+30E4\U+30FC 1
370
     0
100
AcDbVertex
100
AcDb2dVertex
 10
158.2446044526264
 20
97.2867404270672
 30
0.0
  0
VERTEX
  5
17A
330
177
100
AcDbEntity
  8
\U+30EC\U+30A4\U+30E4\U+30FC 1
370
     0
100
AcDbVertex
100
AcDb2dVertex
 10
157.7326632635182
 20
99.19876842138086
 30
0.0
  0
SEQEND
  5
17B
330
177
100
AcDbEntity
  8
\U+30EC\U+30A4\U+30E4\U+30FC 1
370
     0
  0
HATCH
  5
17C
330
1F
100
AcDbEntity
  8
\U+30EC\U+30A4\U+30E4\U+30FC 1
 62
   179
420
  2234388
100
AcDbHatch
 10
0.0
 20
0.0
 30
0.0
210
0.0
220
0.0
230
1.0
  2
SOLID
 70
     1
 71
     0
 91
        1
 92
        1
 93
        3
 72
     1
 10
158.7572346608315
 20
99.19876842138086
 11
158.2446044526264
 21
97.2867404270672
 72
     1
 10
158.2446044526264
 20
97.2867404270672
 11
157.7326632635182
 21
99.19876842138086
 72
     1
 10
157.7326632635182
 20
99.19876842138086
 11
158.7572346608315
 21
99.19876842138086
 97
        0
 75
     2
 76
     1
 98
        0
  0
POLYLINE
  5
17D
330
1F
100
AcDbEntity
  8
\U+30EC\U+30A4\U+30E4\U+30FC 1
370
     0
100
AcDb2dPolyline
 66
     1
 10
0.0
 20
0.0
 30
0.0
  0
VERTEX
  5
17E
330
17D
100
AcDbEntity
  8
\U+30EC\U+30A4\U+30E4\U+30FC 1
370
     0
100
AcDbVertex
100
AcDb2dVertex
 10
158.7572346608315
 20
107.8714517959488
 30
0.0
  0
VERTEX
  5
17F
330
17D
100
AcDbEntity
  8
\U+30EC\U+30A4\U+30E4\U+30FC 1
370
     0
100
AcDbVertex
100
AcDb2dVertex
 10
158.2446044526264
 20
109.7834797902625
 30
0.0
  0
VERTEX
  5
180
330
17D
100
AcDbEntity
  8
\U+30EC\U+30A4\U+30E4\U+30FC 1
370
     0
100
AcDbVertex
100
AcDb2dVertex
 10
157.7326632635182
 20
107.8714517959488
 30
0.0
  0
SEQEND
  5
181
330
17D
100
AcDbEntity
  8
\U+30EC\U+30A4\U+30E4\U+30FC 1
370
     0
  0
HATCH
  5
182
330
1F
100
AcDbEntity
  8
\U+30EC\U+30A4\U+30E4\U+30FC 1
 62
   179
420
  2234388
100
AcDbHatch
 10
0.0
 20
0.0
 30
0.0
210
0.0
220
0.0
230
1.0
  2
SOLID
 70
     1
 71
     0
 91
        1
 92
        1
 93
        3
 72
     1
 10
158.7572346608315
 20
107.8714517959488
 11
158.2446044526264
 21
109.7834797902625
 72
     1
 10
158.2446044526264
 20
109.7834797902625
 11
157.7326632635182
 21
107.8714517959488
 72
     1
 10
157.7326632635182
 20
107.8714517959488
 11
158.7572346608315
 21
107.8714517959488
 97
        0
 75
     2
 76
     1
 98
        0
  0
POLYLINE
  5
183
330
1F
100
AcDbEntity
  8
\U+30EC\U+30A4\U+30E4\U+30FC 1
 62
   179
420
  2234388
370
     9
100
AcDb2dPolyline
 66
     1
 10
0.0
 20
0.0
 30
0.0
  0
VERTEX
  5
184
330
183
100
AcDbEntity
  8
\U+30EC\U+30A4\U+30E4\U+30FC 1
 62
   179
420
  2234388
370
     9
100
AcDbVertex
100
AcDb2dVertex
 10
158.2659640446349
 20
109.7841688093595
 30
0.0
  0
VERTEX
  5
185
330
183
100
AcDbEntity
  8
\U+30EC\U+30A4\U+30E4\U+30FC 1
 62
   179
420
  2234388
370
     9
100
AcDbVertex
100
AcDb2dVertex
 10
163.5576307099787
 20
109.7841688093595
 30
0.0
  0
SEQEND
  5
186
330
183
100
AcDbEntity
  8
\U+30EC\U+30A4\U+30E4\U+30FC 1
370
     9
  0
POLYLINE
  5
187
330
1F
100
AcDbEntity
  8
\U+30EC\U+30A4\U+30E4\U+30FC 1
 62
   179
420
  2234388
370
     9
100
AcDb2dPolyline
 66
     1
 10
0.0
 20
0.0
 30
0.0
  0
VERTEX
  5
188
330
187
100
AcDbEntity
  8
\U+30EC\U+30A4\U+30E4\U+30FC 1
 62
   179
420
  2234388
370
     9
100
AcDbVertex
100
AcDb2dVertex
 10
163.5576307099787
 20
97.2867404270672
 30
0.0
  0
VERTEX
  5
189
330
187
100
AcDbEntity
  8
\U+30EC\U+30A4\U+30E4\U+30FC 1
 62
   179
420
  2234388
370
     9
100
AcDbVertex
100
AcDb2dVertex
 10
158.2659640446349
 20
97.2867404270672
 30
0.0
  0
SEQEND
  5
18A
330
187
100
AcDbEntity
  8
\U+30EC\U+30A4\U+30E4\U+30FC 1
370
     9
  0
MTEXT
  5
18B
330
1F
100
AcDbEntity
  8
\U+30EC\U+30A4\U+30E4\U+30FC 1
 62
   179
420
  2234388
100
AcDbMText
 10
156.5654649131156
 20
99.66833493602041
 30
0.0
 40
3.3039706570313
 41
0.0
 71
     7
 72
     1
  1
\fATC-65b030b44c2d5357495353|b0|i0|c0|p34;\W1.02;125
 11
-4.371139000186241E-8
 21
0.999999999999999
 31
0.0
 73
     1
 44
1.0
  0
POLYLINE
  5
18C
330
1F
100
AcDbEntity
  8
\U+30EC\U+30A4\U+30E4\U+30FC 1
 62
   179
420
  2234388
370
     9
100
AcDb2dPolyline
 66
     1
 10
0.0
 20
0.0
 30
0.0
  0
VERTEX
  5
18D
330
18C
100
AcDbEntity
  8
\U+30EC\U+30A4\U+30E4\U+30FC 1
 62
   179
420
  2234388
370
     9
100
AcDbVertex
100
AcDb2dVertex
 10
178.0973116959271
 20
117.4922254480575
 30
0.0
  0
VERTEX
  5
18E
330
18C
100
AcDbEntity
  8
\U+30EC\U+30A4\U+30E4\U+30FC 1
 62
   179
420
  2234388
370
     9
100
AcDbVertex
100
AcDb2dVertex
 10
214.9729247509443
 20
117.4922254480575
 30
0.0
  0
SEQEND
  5
18F
330
18C
100
AcDbEntity
  8
\U+30EC\U+30A4\U+30E4\U+30FC 1
370
     9
  0
POLYLINE
  5
190
330
1F
100
AcDbEntity
  8
\U+30EC\U+30A4\U+30E4\U+30FC 1
370
     0
100
AcDb2dPolyline
 66
     1
 10
0.0
 20
0.0
 30
0.0
  0
VERTEX
  5
191
330
190
100
AcDbEntity
  8
\U+30EC\U+30A4\U+30E4\U+30FC 1
370
     0
100
AcDbVertex
100
AcDb2dVertex
 10
178.4466443781314
 20
117.0009548318609
 30
0.0
  0
VERTEX
  5
192
330
190
100
AcDbEntity
  8
\U+30EC\U+30A4\U+30E4\U+30FC 1
370
     0
100
AcDbVertex
100
AcDb2dVertex
 10
176.5346163838177
 20
117.513585040066
 30
0.0
  0
VERTEX
  5
193
330
190
100
AcDbEntity
  8
\U+30EC\U+30A4\U+30E4\U+30FC 1
370
     0
100
AcDbVertex
100
AcDb2dVertex
 10
178.4466443781314
 20
118.0262152482712
 30
0.0
  0
SEQEND
  5
194
330
190
100
AcDbEntity
  8
\U+30EC\U+30A4\U+30E4\U+30FC 1
370
     0
  0
HATCH
  5
195
330
1F
100
AcDbEntity
  8
\U+30EC\U+30A4\U+30E4\U+30FC 1
 62
   179
420
  2234388
100
AcDbHatch
 10
0.0
 20
0.0
 30
0.0
210
0.0
220
0.0
230
1.0
  2
SOLID
 70
     1
 71
     0
 91
        1
 92
        1
 93
        3
 72
     1
 10
178.4466443781314
 20
117.0009548318609
 11
176.5346163838177
 21
117.513585040066
 72
     1
 10
176.5346163838177
 20
117.513585040066
 11
178.4466443781314
 21
118.0262152482712
 72
     1
 10
178.4466443781314
 20
118.0262152482712
 11
178.4466443781314
 21
117.0009548318609
 97
        0
 75
     2
 76
     1
 98
        0
  0
POLYLINE
  5
196
330
1F
100
AcDbEntity
  8
\U+30EC\U+30A4\U+30E4\U+30FC 1
370
     0
100
AcDb2dPolyline
 66
     1
 10
0.0
 20
0.0
 30
0.0
  0
VERTEX
  5
197
330
196
100
AcDbEntity
  8
\U+30EC\U+30A4\U+30E4\U+30FC 1
370
     0
100
AcDbVertex
100
AcDb2dVertex
 10
214.62359206874
 20
117.0009548318609
 30
0.0
  0
VERTEX
  5
198
330
196
100
AcDbEntity
  8
\U+30EC\U+30A4\U+30E4\U+30FC 1
370
     0
100
AcDbVertex
100
AcDb2dVertex
 10
216.5356200630536
 20
117.513585040066
 30
0.0
  0
VERTEX
  5
199
330
196
100
AcDbEntity
  8
\U+30EC\U+30A4\U+30E4\U+30FC 1
370
     0
100
AcDbVertex
100
AcDb2dVertex
 10
214.62359206874
 20
118.0262152482712
 30
0.0
  0
SEQEND
  5
19A
330
196
100
AcDbEntity
  8
\U+30EC\U+30A4\U+30E4\U+30FC 1
370
     0
  0
HATCH
  5
19B
330
1F
100
AcDbEntity
  8
\U+30EC\U+30A4\U+30E4\U+30FC 1
 62
   179
420
  2234388
100
AcDbHatch
 10
0.0
 20
0.0
 30
0.0
210
0.0
220
0.0
230
1.0
  2
SOLID
 70
     1
 71
     0
 91
        1
 92
        1
 93
        3
 72
     1
 10
214.62359206874
 20
117.0009548318609
 11
216.5356200630536
 21
117.513585040066
 72
     1
 10
216.5356200630536
 20
117.513585040066
 11
214.62359206874
 21
118.0262152482712
 72
     1
 10
214.62359206874
 20
118.0262152482712
 11
214.62359206874
 21
117.0009548318609
 97
        0
 75
     2
 76
     1
 98
        0
  0
POLYLINE
  5
19C
330
1F
100
AcDbEntity
  8
\U+30EC\U+30A4\U+30E4\U+30FC 1
 62
   179
420
  2234388
370
     9
100
AcDb2dPolyline
 66
     1
 10
0.0
 20
0.0
 30
0.0
  0
VERTEX
  5
19D
330
19C
100
AcDbEntity
  8
\U+30EC\U+30A4\U+30E4\U+30FC 1
 62
   179
420
  2234388
370
     9
100
AcDbVertex
100
AcDb2dVertex
 10
216.5356200630536
 20
117.4922254480575
 30
0.0
  0
VERTEX
  5
19E
330
19C
100
AcDbEntity
  8
\U+30EC\U+30A4\U+30E4\U+30FC 1
 62
   179
420
  2234388
370
     9
100
AcDbVertex
100
AcDb2dVertex
 10
216.5356200630536
 20
112.2005587827138
 30
0.0
  0
SEQEND
  5
19F
330
19C
100
AcDbEntity
  8
\U+30EC\U+30A4\U+30E4\U+30FC 1
370
     9
  0
POLYLINE
  5
1A0
330
1F
100
AcDbEntity
  8
\U+30EC\U+30A4\U+30E4\U+30FC 1
 62
   179
420
  2234388
370
     9
100
AcDb2dPolyline
 66
     1
 10
0.0
 20
0.0
 30
0.0
  0
VERTEX
  5
1A1
330
1A0
100
AcDbEntity
  8
\U+30EC\U+30A4\U+30E4\U+30FC 1
 62
   179
420
  2234388
370
     9
100
AcDbVertex
100
AcDb2dVertex
 10
176.5353054029148
 20
112.2005587827138
 30
0.0
  0
VERTEX
  5
1A2
330
1A0
100
AcDbEntity
  8
\U+30EC\U+30A4\U+30E4\U+30FC 1
 62
   179
420
  2234388
370
     9
100
AcDbVertex
100
AcDb2dVertex
 10
176.5353054029148
 20
117.4922254480575
 30
0.0
  0
SEQEND
  5
1A3
330
1A0
100
AcDbEntity
  8
\U+30EC\U+30A4\U+30E4\U+30FC 1
370
     9
  0
MTEXT
  5
1A4
330
1F
100
AcDbEntity
  8
\U+30EC\U+30A4\U+30E4\U+30FC 1
 62
   179
420
  2234388
100
AcDbMText
 10
192.6676540316942
 20
118.4871690241977
 30
0.0
 40
3.3039706570313
 41
0.0
 71
     7
 72
     1
  1
\fATC-65b030b44c2d5357495353|b0|i0|c0|p34;\W1.02;400
 73
     1
 44
1.0
  0
POLYLINE
  5
1A5
330
1F
100
AcDbEntity
  8
\U+30EC\U+30A4\U+30E4\U+30FC 1
 62
   179
420
  2234388
370
     9
100
AcDb2dPolyline
 66
     1
 10
0.0
 20
0.0
 30
0.0
  0
VERTEX
  5
1A6
330
1A5
100
AcDbEntity
  8
\U+30EC\U+30A4\U+30E4\U+30FC 1
 62
   179
420
  2234388
370
     9
100
AcDbVertex
100
AcDb2dVertex
 10
212.045282607579
 20
89.1687174256245
 30
0.0
  0
VERTEX
  5
1A7
330
1A5
100
AcDbEntity
  8
\U+30EC\U+30A4\U+30E4\U+30FC 1
 62
   179
420
  2234388
370
     9
100
AcDbVertex
100
AcDb2dVertex
 10
181.047002450398
 20
89.1687174256245
 30
0.0
  0
SEQEND
  5
1A8
330
1A5
100
AcDbEntity
  8
\U+30EC\U+30A4\U+30E4\U+30FC 1
370
     9
  0
POLYLINE
  5
1A9
330
1F
100
AcDbEntity
  8
\U+30EC\U+30A4\U+30E4\U+30FC 1
370
     0
100
AcDb2dPolyline
 66
     1
 10
0.0
 20
0.0
 30
0.0
  0
VERTEX
  5
1AA
330
1A9
100
AcDbEntity
  8
\U+30EC\U+30A4\U+30E4\U+30FC 1
370
     0
100
AcDbVertex
100
AcDb2dVertex
 10
211.6959499253746
 20
89.65998804182112
 30
0.0
  0
VERTEX
  5
1AB
330
1A9
100
AcDbEntity
  8
\U+30EC\U+30A4\U+30E4\U+30FC 1
370
     0
100
AcDbVertex
100
AcDb2dVertex
 10
213.6079779196883
 20
89.14735783361594
 30
0.0
  0
VERTEX
  5
1AC
330
1A9
100
AcDbEntity
  8
\U+30EC\U+30A4\U+30E4\U+30FC 1
370
     0
100
AcDbVertex
100
AcDb2dVertex
 10
211.6959499253746
 20
88.63541664450781
 30
0.0
  0
SEQEND
  5
1AD
330
1A9
100
AcDbEntity
  8
\U+30EC\U+30A4\U+30E4\U+30FC 1
370
     0
  0
HATCH
  5
1AE
330
1F
100
AcDbEntity
  8
\U+30EC\U+30A4\U+30E4\U+30FC 1
 62
   179
420
  2234388
100
AcDbHatch
 10
0.0
 20
0.0
 30
0.0
210
0.0
220
0.0
230
1.0
  2
SOLID
 70
     1
 71
     0
 91
        1
 92
        1
 93
        3
 72
     1
 10
211.6959499253746
 20
89.65998804182112
 11
213.6079779196883
 21
89.14735783361594
 72
     1
 10
213.6079779196883
 20
89.14735783361594
 11
211.6959499253746
 21
88.63541664450781
 72
     1
 10
211.6959499253746
 20
88.63541664450781
 11
211.6959499253746
 21
89.65998804182112
 97
        0
 75
     2
 76
     1
 98
        0
  0
POLYLINE
  5
1AF
330
1F
100
AcDbEntity
  8
\U+30EC\U+30A4\U+30E4\U+30FC 1
370
     0
100
AcDb2dPolyline
 66
     1
 10
0.0
 20
0.0
 30
0.0
  0
VERTEX
  5
1B0
330
1AF
100
AcDbEntity
  8
\U+30EC\U+30A4\U+30E4\U+30FC 1
370
     0
100
AcDbVertex
100
AcDb2dVertex
 10
181.3963351326023
 20
89.65998804182112
 30
0.0
  0
VERTEX
  5
1B1
330
1AF
100
AcDbEntity
  8
\U+30EC\U+30A4\U+30E4\U+30FC 1
370
     0
100
AcDbVertex
100
AcDb2dVertex
 10
179.4843071382886
 20
89.14735783361594
 30
0.0
  0
VERTEX
  5
1B2
330
1AF
100
AcDbEntity
  8
\U+30EC\U+30A4\U+30E4\U+30FC 1
370
     0
100
AcDbVertex
100
AcDb2dVertex
 10
181.3963351326023
 20
88.63541664450781
 30
0.0
  0
SEQEND
  5
1B3
330
1AF
100
AcDbEntity
  8
\U+30EC\U+30A4\U+30E4\U+30FC 1
370
     0
  0
HATCH
  5
1B4
330
1F
100
AcDbEntity
  8
\U+30EC\U+30A4\U+30E4\U+30FC 1
 62
   179
420
  2234388
100
AcDbHatch
 10
0.0
 20
0.0
 30
0.0
210
0.0
220
0.0
230
1.0
  2
SOLID
 70
     1
 71
     0
 91
        1
 92
        1
 93
        3
 72
     1
 10
181.3963351326023
 20
89.65998804182112
 11
179.4843071382886
 21
89.14735783361594
 72
     1
 10
179.4843071382886
 20
89.14735783361594
 11
181.3963351326023
 21
88.63541664450781
 72
     1
 10
181.3963351326023
 20
88.63541664450781
 11
181.3963351326023
 21
89.65998804182112
 97
        0
 75
     2
 76
     1
 98
        0
  0
POLYLINE
  5
1B5
330
1F
100
AcDbEntity
  8
\U+30EC\U+30A4\U+30E4\U+30FC 1
 62
   179
420
  2234388
370
     9
100
AcDb2dPolyline
 66
     1
 10
0.0
 20
0.0
 30
0.0
  0
VERTEX
  5
1B6
330
1B5
100
AcDbEntity
  8
\U+30EC\U+30A4\U+30E4\U+30FC 1
 62
   179
420
  2234388
370
     9
100
AcDbVertex
100
AcDb2dVertex
 10
179.4843071382886
 20
89.1687174256245
 30
0.0
  0
VERTEX
  5
1B7
330
1B5
100
AcDbEntity
  8
\U+30EC\U+30A4\U+30E4\U+30FC 1
 62
   179
420
  2234388
370
     9
100
AcDbVertex
100
AcDb2dVertex
 10
179.4843071382886
 20
94.46107311006529
 30
0.0
  0
SEQEND
  5
1B8
330
1B5
100
AcDbEntity
  8
\U+30EC\U+30A4\U+30E4\U+30FC 1
370
     9
  0
POLYLINE
  5
1B9
330
1F
100
AcDbEntity
  8
\U+30EC\U+30A4\U+30E4\U+30FC 1
 62
   179
420
  2234388
370
     9
100
AcDb2dPolyline
 66
     1
 10
0.0
 20
0.0
 30
0.0
  0
VERTEX
  5
1BA
330
1B9
100
AcDbEntity
  8
\U+30EC\U+30A4\U+30E4\U+30FC 1
 62
   179
420
  2234388
370
     9
100
AcDbVertex
100
AcDb2dVertex
 10
213.6079779196883
 20
94.46038409096825
 30
0.0
  0
VERTEX
  5
1BB
330
1B9
100
AcDbEntity
  8
\U+30EC\U+30A4\U+30E4\U+30FC 1
 62
   179
420
  2234388
370
     9
100
AcDbVertex
100
AcDb2dVertex
 10
213.6079779196883
 20
89.1687174256245
 30
0.0
  0
SEQEND
  5
1BC
330
1B9
100
AcDbEntity
  8
\U+30EC\U+30A4\U+30E4\U+30FC 1
370
     9
  0
MTEXT
  5
1BD
330
1F
100
AcDbEntity
  8
\U+30EC\U+30A4\U+30E4\U+30FC 1
 62
   179
420
  2234388
100
AcDbMText
 10
192.678678337247
 20
84.16506074284763
 30
0.0
 40
3.3039706570313
 41
0.0
 71
     7
 72
     1
  1
\fATC-65b030b44c2d5357495353|b0|i0|c0|p34;\W1.02;340
 73
     1
 44
1.0
  0
POLYLINE
  5
1BE
330
1F
100
AcDbEntity
  8
\U+30EC\U+30A4\U+30E4\U+30FC 1
 62
   179
420
  2234388
370
     9
100
AcDb2dPolyline
 66
     1
 10
0.0
 20
0.0
 30
0.0
  0
VERTEX
  5
1BF
330
1BE
100
AcDbEntity
  8
\U+30EC\U+30A4\U+30E4\U+30FC 1
 62
   179
420
  2234388
370
     9
100
AcDbVertex
100
AcDb2dVertex
 10
168.9512722016858
 20
101.2603135597544
 30
0.0
  0
VERTEX
  5
1C0
330
1BE
100
AcDbEntity
  8
\U+30EC\U+30A4\U+30E4\U+30FC 1
 62
   179
420
  2234388
370
     9
100
AcDbVertex
100
AcDb2dVertex
 10
168.9512722016858
 20
108.2221625163472
 30
0.0
  0
SEQEND
  5
1C1
330
1BE
100
AcDbEntity
  8
\U+30EC\U+30A4\U+30E4\U+30FC 1
370
     9
  0
POLYLINE
  5
1C2
330
1F
100
AcDbEntity
  8
\U+30EC\U+30A4\U+30E4\U+30FC 1
370
     0
100
AcDb2dPolyline
 66
     1
 10
0.0
 20
0.0
 30
0.0
  0
VERTEX
  5
1C3
330
1C2
100
AcDbEntity
  8
\U+30EC\U+30A4\U+30E4\U+30FC 1
370
     0
100
AcDbVertex
100
AcDb2dVertex
 10
169.4425428178824
 20
101.6096462419587
 30
0.0
  0
VERTEX
  5
1C4
330
1C2
100
AcDbEntity
  8
\U+30EC\U+30A4\U+30E4\U+30FC 1
370
     0
100
AcDbVertex
100
AcDb2dVertex
 10
168.9306016287743
 20
99.69761824764504
 30
0.0
  0
VERTEX
  5
1C5
330
1C2
100
AcDbEntity
  8
\U+30EC\U+30A4\U+30E4\U+30FC 1
370
     0
100
AcDbVertex
100
AcDb2dVertex
 10
168.4172824014721
 20
101.6096462419587
 30
0.0
  0
SEQEND
  5
1C6
330
1C2
100
AcDbEntity
  8
\U+30EC\U+30A4\U+30E4\U+30FC 1
370
     0
  0
HATCH
  5
1C7
330
1F
100
AcDbEntity
  8
\U+30EC\U+30A4\U+30E4\U+30FC 1
 62
   179
420
  2234388
100
AcDbHatch
 10
0.0
 20
0.0
 30
0.0
210
0.0
220
0.0
230
1.0
  2
SOLID
 70
     1
 71
     0
 91
        1
 92
        1
 93
        3
 72
     1
 10
169.4425428178824
 20
101.6096462419587
 11
168.9306016287743
 21
99.69761824764504
 72
     1
 10
168.9306016287743
 20
99.69761824764504
 11
168.4172824014721
 21
101.6096462419587
 72
     1
 10
168.4172824014721
 20
101.6096462419587
 11
169.4425428178824
 21
101.6096462419587
 97
        0
 75
     2
 76
     1
 98
        0
  0
POLYLINE
  5
1C8
330
1F
100
AcDbEntity
  8
\U+30EC\U+30A4\U+30E4\U+30FC 1
370
     0
100
AcDb2dPolyline
 66
     1
 10
0.0
 20
0.0
 30
0.0
  0
VERTEX
  5
1C9
330
1C8
100
AcDbEntity
  8
\U+30EC\U+30A4\U+30E4\U+30FC 1
370
     0
100
AcDbVertex
100
AcDb2dVertex
 10
169.4425428178824
 20
107.8728298341429
 30
0.0
  0
VERTEX
  5
1CA
330
1C8
100
AcDbEntity
  8
\U+30EC\U+30A4\U+30E4\U+30FC 1
370
     0
100
AcDbVertex
100
AcDb2dVertex
 10
168.9306016287743
 20
109.7848578284566
 30
0.0
  0
VERTEX
  5
1CB
330
1C8
100
AcDbEntity
  8
\U+30EC\U+30A4\U+30E4\U+30FC 1
370
     0
100
AcDbVertex
100
AcDb2dVertex
 10
168.4172824014721
 20
107.8728298341429
 30
0.0
  0
SEQEND
  5
1CC
330
1C8
100
AcDbEntity
  8
\U+30EC\U+30A4\U+30E4\U+30FC 1
370
     0
  0
HATCH
  5
1CD
330
1F
100
AcDbEntity
  8
\U+30EC\U+30A4\U+30E4\U+30FC 1
 62
   179
420
  2234388
100
AcDbHatch
 10
0.0
 20
0.0
 30
0.0
210
0.0
220
0.0
230
1.0
  2
SOLID
 70
     1
 71
     0
 91
        1
 92
        1
 93
        3
 72
     1
 10
169.4425428178824
 20
107.8728298341429
 11
168.9306016287743
 21
109.7848578284566
 72
     1
 10
168.9306016287743
 20
109.7848578284566
 11
168.4172824014721
 21
107.8728298341429
 72
     1
 10
168.4172824014721
 20
107.8728298341429
 11
169.4425428178824
 21
107.8728298341429
 97
        0
 75
     2
 76
     1
 98
        0
  0
POLYLINE
  5
1CE
330
1F
100
AcDbEntity
  8
\U+30EC\U+30A4\U+30E4\U+30FC 1
 62
   179
420
  2234388
370
     9
100
AcDb2dPolyline
 66
     1
 10
0.0
 20
0.0
 30
0.0
  0
VERTEX
  5
1CF
330
1CE
100
AcDbEntity
  8
\U+30EC\U+30A4\U+30E4\U+30FC 1
 62
   179
420
  2234388
370
     9
100
AcDbVertex
100
AcDb2dVertex
 10
168.9512722016858
 20
109.7848578284566
 30
0.0
  0
VERTEX
  5
1D0
330
1CE
100
AcDbEntity
  8
\U+30EC\U+30A4\U+30E4\U+30FC 1
 62
   179
420
  2234388
370
     9
100
AcDbVertex
100
AcDb2dVertex
 10
174.2429388670296
 20
109.7848578284566
 30
0.0
  0
SEQEND
  5
1D1
330
1CE
100
AcDbEntity
  8
\U+30EC\U+30A4\U+30E4\U+30FC 1
370
     9
  0
POLYLINE
  5
1D2
330
1F
100
AcDbEntity
  8
\U+30EC\U+30A4\U+30E4\U+30FC 1
 62
   179
420
  2234388
370
     9
100
AcDb2dPolyline
 66
     1
 10
0.0
 20
0.0
 30
0.0
  0
VERTEX
  5
1D3
330
1D2
100
AcDbEntity
  8
\U+30EC\U+30A4\U+30E4\U+30FC 1
 62
   179
420
  2234388
370
     9
100
AcDbVertex
100
AcDb2dVertex
 10
174.2429388670296
 20
99.69761824764504
 30
0.0
  0
VERTEX
  5
1D4
330
1D2
100
AcDbEntity
  8
\U+30EC\U+30A4\U+30E4\U+30FC 1
 62
   179
420
  2234388
370
     9
100
AcDbVertex
100
AcDb2dVertex
 10
168.9505831825888
 20
99.69761824764504
 30
0.0
  0
SEQEND
  5
1D5
330
1D2
100
AcDbEntity
  8
\U+30EC\U+30A4\U+30E4\U+30FC 1
370
     9
  0
MTEXT
  5
1D6
330
1F
100
AcDbEntity
  8
\U+30EC\U+30A4\U+30E4\U+30FC 1
 62
   179
420
  2234388
100
AcDbMText
 10
167.2514620892635
 20
100.8744628654064
 30
0.0
 40
3.3039706570313
 41
0.0
 71
     7
 72
     1
  1
\fATC-65b030b44c2d5357495353|b0|i0|c0|p34;\W1.02;100
 11
-4.371139000186241E-8
 21
0.999999999999999
 31
0.0
 73
     1
 44
1.0
  0
ENDSEC
  0
SECTION
  2
OBJECTS
  0
DICTIONARY
  5
C
330
0
100
AcDbDictionary
281
     1
  3
ACAD_GROUP
350
D
  3
ACAD_IMAGE_DICT
350
67
  3
ACAD_IMAGE_VARS
350
69
  3
ACAD_LAYOUT
350
1A
  3
ACAD_MLINESTYLE
350
17
  3
ACAD_PLOTSETTINGS
350
19
  3
ACAD_PLOTSTYLENAME
350
E
  3
ACAD_TABLESTYLE
350
1D7
  3
ACAD_VISUALSTYLE
350
2A
  0
IMAGEDEF_REACTOR
  5
6B
330
6A
100
AcDbRasterImageDefReactor
 90
        2
330
6A
  0
IMAGEDEF_REACTOR
  5
70
330
6F
100
AcDbRasterImageDefReactor
 90
        2
330
6F
  0
DICTIONARY
  5
D
102
{ACAD_REACTORS
330
C
102
}
330
C
100
AcDbDictionary
281
     1
  0
DICTIONARY
  5
67
102
{ACAD_REACTORS
330
C
102
}
330
C
100
AcDbDictionary
281
     1
  3
/Volumes/2TB-NAKAYAMA-DESIGN/CERAMICA-CIELO/\U+56F3\U+9762/Z_CIE-SHCOLAR60_re_1.png
350
68
  3
/Volumes/2TB-NAKAYAMA-DESIGN/CERAMICA-CIELO/\U+56F3\U+9762/Z_CIE-SHCOLAR60_re_2.png
350
6E
  0
RASTERVARIABLES
  5
69
102
{ACAD_REACTORS
330
C
102
}
330
C
100
AcDbRasterVariables
 90
        0
 70
     0
 71
     1
 72
     0
  0
DICTIONARY
  5
1A
102
{ACAD_REACTORS
330
C
102
}
330
C
100
AcDbDictionary
281
     1
  3
Layout1
350
1E
  3
Layout2
350
26
  3
Model
350
22
  0
DICTIONARY
  5
17
102
{ACAD_REACTORS
330
C
102
}
330
C
100
AcDbDictionary
281
     1
  3
Standard
350
18
  0
DICTIONARY
  5
19
102
{ACAD_REACTORS
330
C
102
}
330
C
100
AcDbDictionary
281
     1
  0
ACDBDICTIONARYWDFLT
  5
E
102
{ACAD_REACTORS
330
C
102
}
330
C
100
AcDbDictionary
281
     1
  3
Normal
350
F
100
AcDbDictionaryWithDefault
340
F
  0
DICTIONARY
  5
1D7
102
{ACAD_REACTORS
330
C
102
}
330
C
100
AcDbDictionary
281
     1
  0
DICTIONARY
  5
2A
102
{ACAD_REACTORS
330
C
102
}
330
C
100
AcDbDictionary
281
     1
  3
2dWireframe
350
2F
  3
3D Hidden
350
31
  3
3dWireframe
350
30
  3
Basic
350
32
  3
Brighten
350
36
  3
ColorChange
350
3A
  3
Conceptual
350
34
  3
Dim
350
35
  3
Facepattern
350
39
  3
Flat
350
2B
  3
FlatWithEdges
350
2C
  3
Gouraud
350
2D
  3
GouraudWithEdges
350
2E
  3
Linepattern
350
38
  3
Realistic
350
33
  3
Thicken
350
37
  0
IMAGEDEF
  5
68
102
{ACAD_REACTORS
330
67
330
6B
102
}
330
67
100
AcDbRasterImageDef
 90
        0
  1
/Volumes/2TB-NAKAYAMA-DESIGN/CERAMICA-CIELO/\U+56F3\U+9762/Z_CIE-SHCOLAR60_re_1.png
 10
33.0
 20
20.0
 11
0.3527777777777777
 21
0.3527777777777777
280
     1
281
     5
  0
IMAGEDEF
  5
6E
102
{ACAD_REACTORS
330
67
330
70
102
}
330
67
100
AcDbRasterImageDef
 90
        0
  1
/Volumes/2TB-NAKAYAMA-DESIGN/CERAMICA-CIELO/\U+56F3\U+9762/Z_CIE-SHCOLAR60_re_2.png
 10
73.0
 20
35.0
 11
0.3527777777777777
 21
0.3527777777777777
280
     1
281
     5
  0
LAYOUT
  5
1E
102
{ACAD_REACTORS
330
1A
102
}
330
1A
100
AcDbPlotSettings
  1

  2
none_device
  4

  6

 40
0.0
 41
0.0
 42
0.0
 43
0.0
 44
0.0
 45
0.0
 46
0.0
 47
0.0
 48
0.0
 49
0.0
140
0.0
141
0.0
142
1.0
143
1.0
 70
   688
 72
     0
 73
     0
 74
     5
  7

 75
    16
 76
     0
 77
     2
 78
   300
147
1.0
148
0.0
149
0.0
100
AcDbLayout
  1
Layout1
 70
     1
 71
     1
 10
0.0
 20
0.0
 11
12.0
 21
9.0
 12
0.0
 22
0.0
 32
0.0
 14
1.000000000000000E+20
 24
1.000000000000000E+20
 34
1.000000000000000E+20
 15
-1.000000000000000E+20
 25
-1.000000000000000E+20
 35
-1.000000000000000E+20
146
0.0
 13
0.0
 23
0.0
 33
0.0
 16
1.0
 26
0.0
 36
0.0
 17
0.0
 27
1.0
 37
0.0
 76
     0
330
1B
  0
LAYOUT
  5
26
102
{ACAD_REACTORS
330
1A
102
}
330
1A
100
AcDbPlotSettings
  1

  2
none_device
  4

  6

 40
0.0
 41
0.0
 42
0.0
 43
0.0
 44
0.0
 45
0.0
 46
0.0
 47
0.0
 48
0.0
 49
0.0
140
0.0
141
0.0
142
1.0
143
1.0
 70
   688
 72
     0
 73
     0
 74
     5
  7

 75
    16
 76
     0
 77
     2
 78
   300
147
1.0
148
0.0
149
0.0
100
AcDbLayout
  1
Layout2
 70
     1
 71
     2
 10
0.0
 20
0.0
 11
0.0
 21
0.0
 12
0.0
 22
0.0
 32
0.0
 14
0.0
 24
0.0
 34
0.0
 15
0.0
 25
0.0
 35
0.0
146
0.0
 13
0.0
 23
0.0
 33
0.0
 16
1.0
 26
0.0
 36
0.0
 17
0.0
 27
1.0
 37
0.0
 76
     0
330
23
  0
LAYOUT
  5
22
102
{ACAD_REACTORS
330
1A
102
}
330
1A
100
AcDbPlotSettings
  1

  2
none_device
  4

  6

 40
0.0
 41
0.0
 42
0.0
 43
0.0
 44
0.0
 45
0.0
 46
0.0
 47
0.0
 48
0.0
 49
0.0
140
0.0
141
0.0
142
1.0
143
1.0
 70
  1712
 72
     0
 73
     0
 74
     0
  7

 75
     0
 76
     0
 77
     2
 78
   300
147
1.0
148
0.0
149
0.0
100
AcDbLayout
  1
Model
 70
     1
 71
     0
 10
0.0
 20
0.0
 11
12.0
 21
9.0
 12
0.0
 22
0.0
 32
0.0
 14
1.000000000000000E+20
 24
1.000000000000000E+20
 34
1.000000000000000E+20
 15
-1.000000000000000E+20
 25
-1.000000000000000E+20
 35
-1.000000000000000E+20
146
0.0
 13
0.0
 23
0.0
 33
0.0
 16
1.0
 26
0.0
 36
0.0
 17
0.0
 27
1.0
 37
0.0
 76
     0
330
1F
331
29
  0
MLINESTYLE
  5
18
102
{ACAD_REACTORS
330
17
102
}
330
17
100
AcDbMlineStyle
  2
Standard
 70
     0
  3

 62
   256
 51
90.0
 52
90.0
 71
     2
 49
0.5
 62
   256
  6
BYLAYER
 49
-0.5
 62
   256
  6
BYLAYER
  0
ACDBPLACEHOLDER
  5
F
102
{ACAD_REACTORS
330
E
102
}
330
E
  0
VISUALSTYLE
  5
2F
102
{ACAD_REACTORS
330
2A
102
}
330
2A
100
AcDbVisualStyle
  2
2dWireframe
 70
     4
 71
     0
 72
     2
 73
     0
 90
        0
 40
-0.6
 41
-30.0
 62
     5
 63
     7
421
 16777215
 74
     1
 91
        4
 64
     7
 65
   257
 75
     1
175
     1
 42
1.0
 92
        0
 66
   257
 43
1.0
 76
     1
 77
     6
 78
     2
 67
     7
 79
     5
170
     0
171
     0
290
     0
174
     0
 93
        1
 44
0.0
173
     0
291
     0
 45
0.0
1001
ACAD
1000
AcDbSavedByObjectVersion
1070
     0
  0
VISUALSTYLE
  5
31
102
{ACAD_REACTORS
330
2A
102
}
330
2A
100
AcDbVisualStyle
  2
3D Hidden
 70
     6
 71
     1
 72
     2
 73
     2
 90
        0
 40
-0.6
 41
-30.0
 62
     5
 63
     7
421
 16777215
 74
     2
 91
        2
 64
     7
 65
   257
 75
     2
175
     1
 42
40.0
 92
        0
 66
   257
 43
1.0
 76
     1
 77
     6
 78
     2
 67
     7
 79
     3
170
     0
171
     0
290
     0
174
     0
 93
        1
 44
0.0
173
     0
291
     0
 45
0.0
1001
ACAD
1000
AcDbSavedByObjectVersion
1070
     0
  0
VISUALSTYLE
  5
30
102
{ACAD_REACTORS
330
2A
102
}
330
2A
100
AcDbVisualStyle
  2
3dWireframe
 70
     5
 71
     0
 72
     2
 73
     0
 90
        0
 40
-0.6
 41
-30.0
 62
     5
 63
     7
421
 16777215
 74
     1
 91
        4
 64
     7
 65
   257
 75
     1
175
     1
 42
1.0
 92
        0
 66
   257
 43
1.0
 76
     1
 77
     6
 78
     2
 67
     7
 79
     5
170
     0
171
     0
290
     0
174
     0
 93
        1
 44
0.0
173
     0
291
     0
 45
0.0
1001
ACAD
1000
AcDbSavedByObjectVersion
1070
     0
  0
VISUALSTYLE
  5
32
102
{ACAD_REACTORS
330
2A
102
}
330
2A
100
AcDbVisualStyle
  2
Basic
 70
     7
 71
     1
 72
     0
 73
     1
 90
        0
 40
-0.6
 41
-30.0
 62
     5
 63
     7
421
 16777215
 74
     0
 91
        4
 64
     7
 65
   257
 75
     1
175
     1
 42
1.0
 92
        8
 66
     7
 43
1.0
 76
     1
 77
     6
 78
     2
 67
     7
 79
     5
170
     0
171
     0
290
     0
174
     0
 93
        1
 44
0.0
173
     0
291
     1
 45
0.0
1001
ACAD
1000
AcDbSavedByObjectVersion
1070
     0
  0
VISUALSTYLE
  5
36
102
{ACAD_REACTORS
330
2A
102
}
330
2A
100
AcDbVisualStyle
  2
Brighten
 70
    12
 71
     2
 72
     2
 73
     0
 90
        0
 40
-0.6
 41
-30.0
 62
     5
 63
     7
421
 16777215
 74
     1
 91
        4
 64
     7
 65
   257
 75
     1
175
     1
 42
1.0
 92
        8
 66
     7
 43
1.0
 76
     1
 77
     6
 78
     2
 67
     7
 79
     5
170
     0
171
     0
290
     0
174
     0
 93
        1
 44
50.0
173
     0
291
     1
 45
0.0
1001
ACAD
1000
AcDbSavedByObjectVersion
1070
     0
  0
VISUALSTYLE
  5
3A
102
{ACAD_REACTORS
330
2A
102
}
330
2A
100
AcDbVisualStyle
  2
ColorChange
 70
    16
 71
     2
 72
     2
 73
     3
 90
        0
 40
-0.6
 41
-30.0
 62
     5
 63
     8
421
  8421504
 74
     1
 91
        4
 64
     7
 65
   257
 75
     1
175
     1
 42
1.0
 92
        8
 66
     8
424
  8421504
 43
1.0
 76
     1
 77
     6
 78
     2
 67
     7
 79
     5
170
     0
171
     0
290
     0
174
     0
 93
        1
 44
0.0
173
     0
291
     1
 45
0.0
1001
ACAD
1000
AcDbSavedByObjectVersion
1070
     0
  0
VISUALSTYLE
  5
34
102
{ACAD_REACTORS
330
2A
102
}
330
2A
100
AcDbVisualStyle
  2
Conceptual
 70
     9
 71
     3
 72
     2
 73
     0
 90
        0
 40
-0.6
 41
-30.0
 62
     5
 63
     7
421
 16777215
 74
     2
 91
        2
 64
     7
 65
   257
 75
     1
175
     1
 42
40.0
 92
        8
 66
     7
 43
1.0
 76
     1
 77
     6
 78
     2
 67
     7
 79
     3
170
     0
171
     0
290
     0
174
     0
 93
        1
 44
0.0
173
     0
291
     0
 45
0.0
1001
ACAD
1000
AcDbSavedByObjectVersion
1070
     0
  0
VISUALSTYLE
  5
35
102
{ACAD_REACTORS
330
2A
102
}
330
2A
100
AcDbVisualStyle
  2
Dim
 70
    11
 71
     2
 72
     2
 73
     0
 90
        0
 40
-0.6
 41
-30.0
 62
     5
 63
     7
421
 16777215
 74
     1
 91
        4
 64
     7
 65
   257
 75
     1
175
     1
 42
1.0
 92
        8
 66
     7
 43
1.0
 76
     1
 77
     6
 78
     2
 67
     7
 79
     5
170
     0
171
     0
290
     0
174
     0
 93
        1
 44
-50.0
173
     0
291
     1
 45
0.0
1001
ACAD
1000
AcDbSavedByObjectVersion
1070
     0
  0
VISUALSTYLE
  5
39
102
{ACAD_REACTORS
330
2A
102
}
330
2A
100
AcDbVisualStyle
  2
Facepattern
 70
    15
 71
     2
 72
     2
 73
     0
 90
        0
 40
-0.6
 41
-30.0
 62
     5
 63
     7
421
 16777215
 74
     1
 91
        4
 64
     7
 65
   257
 75
     1
175
     1
 42
1.0
 92
        8
 66
     7
 43
1.0
 76
     1
 77
     6
 78
     2
 67
     7
 79
     5
170
     0
171
     0
290
     0
174
     0
 93
        1
 44
0.0
173
     0
291
     1
 45
0.0
1001
ACAD
1000
AcDbSavedByObjectVersion
1070
     0
  0
VISUALSTYLE
  5
2B
102
{ACAD_REACTORS
330
2A
102
}
330
2A
100
AcDbVisualStyle
  2
Flat
 70
     0
 71
     2
 72
     1
 73
     1
 90
        2
 40
-0.6
 41
30.0
 62
     5
 63
     7
421
 16777215
 74
     0
 91
        4
 64
     7
 65
   257
 75
     1
175
     1
 42
1.0
 92
        8
 66
     7
 43
1.0
 76
     1
 77
     6
 78
     2
 67
     7
 79
     5
170
     0
171
     0
290
     0
174
     0
 93
       13
 44
0.0
173
     0
291
     1
 45
0.0
1001
ACAD
1000
AcDbSavedByObjectVersion
1070
     0
  0
VISUALSTYLE
  5
2C
102
{ACAD_REACTORS
330
2A
102
}
330
2A
100
AcDbVisualStyle
  2
FlatWithEdges
 70
     1
 71
     2
 72
     1
 73
     1
 90
        2
 40
-0.6
 41
30.0
 62
     5
 63
     7
421
 16777215
 74
     1
 91
        4
 64
     7
 65
   257
 75
     1
175
     1
 42
1.0
 92
        0
 66
   257
 43
1.0
 76
     1
 77
     6
 78
     2
 67
     7
 79
     5
170
     0
171
     0
290
     0
174
     0
 93
       13
 44
0.0
173
     0
291
     1
 45
0.0
1001
ACAD
1000
AcDbSavedByObjectVersion
1070
     0
  0
VISUALSTYLE
  5
2D
102
{ACAD_REACTORS
330
2A
102
}
330
2A
100
AcDbVisualStyle
  2
Gouraud
 70
     2
 71
     2
 72
     2
 73
     1
 90
        2
 40
-0.6
 41
30.0
 62
     5
 63
     7
421
 16777215
 74
     0
 91
        4
 64
     7
 65
   257
 75
     1
175
     1
 42
1.0
 92
        0
 66
     7
 43
1.0
 76
     1
 77
     6
 78
     2
 67
     7
 79
     5
170
     0
171
     0
290
     0
174
     0
 93
       13
 44
0.0
173
     0
291
     1
 45
0.0
1001
ACAD
1000
AcDbSavedByObjectVersion
1070
     0
  0
VISUALSTYLE
  5
2E
102
{ACAD_REACTORS
330
2A
102
}
330
2A
100
AcDbVisualStyle
  2
GouraudWithEdges
 70
     3
 71
     2
 72
     2
 73
     1
 90
        2
 40
-0.6
 41
30.0
 62
     5
 63
     7
421
 16777215
 74
     1
 91
        4
 64
     7
 65
   257
 75
     1
175
     1
 42
1.0
 92
        0
 66
   257
 43
1.0
 76
     1
 77
     6
 78
     2
 67
     7
 79
     5
170
     0
171
     0
290
     0
174
     0
 93
       13
 44
0.0
173
     0
291
     1
 45
0.0
1001
ACAD
1000
AcDbSavedByObjectVersion
1070
     0
  0
VISUALSTYLE
  5
38
102
{ACAD_REACTORS
330
2A
102
}
330
2A
100
AcDbVisualStyle
  2
Linepattern
 70
    14
 71
     2
 72
     2
 73
     0
 90
        0
 40
-0.6
 41
-30.0
 62
     5
 63
     7
421
 16777215
 74
     1
 91
        4
 64
     7
 65
   257
 75
     7
175
     7
 42
1.0
 92
        8
 66
     7
 43
1.0
 76
     1
 77
     6
 78
     2
 67
     7
 79
     5
170
     0
171
     0
290
     0
174
     0
 93
        1
 44
0.0
173
     0
291
     1
 45
0.0
1001
ACAD
1000
AcDbSavedByObjectVersion
1070
     0
  0
VISUALSTYLE
  5
33
102
{ACAD_REACTORS
330
2A
102
}
330
2A
100
AcDbVisualStyle
  2
Realistic
 70
     8
 71
     2
 72
     2
 73
     0
 90
        0
 40
-0.6
 41
-30.0
 62
     5
 63
     7
421
 16777215
 74
     1
 91
        0
 64
     7
 65
   257
 75
     1
175
     1
 42
1.0
 92
        8
 66
     8
424
  7895160
 43
1.0
 76
     1
 77
     6
 78
     2
 67
     7
 79
     5
170
     0
171
     0
290
     0
174
     0
 93
       13
 44
0.0
173
     0
291
     0
 45
0.0
1001
ACAD
1000
AcDbSavedByObjectVersion
1070
     0
  0
VISUALSTYLE
  5
37
102
{ACAD_REACTORS
330
2A
102
}
330
2A
100
AcDbVisualStyle
  2
Thicken
 70
    13
 71
     2
 72
     2
 73
     0
 90
        0
 40
-0.6
 41
-30.0
 62
     5
 63
     7
421
 16777215
 74
     1
 91
        4
 64
     7
 65
   257
 75
     1
175
     1
 42
1.0
 92
       12
 66
     7
 43
1.0
 76
     1
 77
     6
 78
     2
 67
     7
 79
     5
170
     0
171
     0
290
     0
174
     0
 93
        1
 44
0.0
173
     0
291
     1
 45
0.0
1001
ACAD
1000
AcDbSavedByObjectVersion
1070
     0
  0
ENDSEC
  0
EOF
