  0
SECTION
  2
HEADER
  9
$ACADVER
  1
AC1018
  9
$ACADMAINTVER
 70
     0
  9
$DWGCODEPAGE
  3
ANSI_932
  9
$INSBASE
 10
0.0
 20
0.0
 30
0.0
  9
$EXTMIN
 10
1.000000000000000E+20
 20
1.000000000000000E+20
 30
1.000000000000000E+20
  9
$EXTMAX
 10
-1.000000000000000E+20
 20
-1.000000000000000E+20
 30
-1.000000000000000E+20
  9
$LIMMIN
 10
0.0
 20
0.0
  9
$LIMMAX
 10
12.0
 20
9.0
  9
$ORTHOMODE
 70
     0
  9
$REGENMODE
 70
     1
  9
$FILLMODE
 70
     1
  9
$QTEXTMODE
 70
     0
  9
$MIRRTEXT
 70
     1
  9
$LTSCALE
 40
1.0
  9
$ATTMODE
 70
     1
  9
$TEXTSIZE
 40
0.2
  9
$TRACEWID
 40
0.05
  9
$TEXTSTYLE
  7
Standard
  9
$CLAYER
  8
0
  9
$CELTYPE
  6
ByLayer
  9
$CECOLOR
 62
   256
  9
$CELTSCALE
 40
1.0
  9
$DISPSILH
 70
     0
  9
$DIMSCALE
 40
1.0
  9
$DIMASZ
 40
0.18
  9
$DIMEXO
 40
0.0625
  9
$DIMDLI
 40
0.38
  9
$DIMRND
 40
0.0
  9
$DIMDLE
 40
0.0
  9
$DIMEXE
 40
0.18
  9
$DIMTP
 40
0.0
  9
$DIMTM
 40
0.0
  9
$DIMTXT
 40
0.18
  9
$DIMCEN
 40
0.09
  9
$DIMTSZ
 40
0.0
  9
$DIMTOL
 70
     0
  9
$DIMLIM
 70
     0
  9
$DIMTIH
 70
     1
  9
$DIMTOH
 70
     1
  9
$DIMSE1
 70
     0
  9
$DIMSE2
 70
     0
  9
$DIMTAD
 70
     0
  9
$DIMZIN
 70
     0
  9
$DIMBLK
  1

  9
$DIMASO
 70
     1
  9
$DIMSHO
 70
     1
  9
$DIMPOST
  1

  9
$DIMAPOST
  1

  9
$DIMALT
 70
     0
  9
$DIMALTD
 70
     2
  9
$DIMALTF
 40
25.4
  9
$DIMLFAC
 40
1.0
  9
$DIMTOFL
 70
     0
  9
$DIMTVP
 40
0.0
  9
$DIMTIX
 70
     0
  9
$DIMSOXD
 70
     0
  9
$DIMSAH
 70
     0
  9
$DIMBLK1
  1

  9
$DIMBLK2
  1

  9
$DIMSTYLE
  2
Standard
  9
$DIMCLRD
 70
     0
  9
$DIMCLRE
 70
     0
  9
$DIMCLRT
 70
     0
  9
$DIMTFAC
 40
1.0
  9
$DIMGAP
 40
0.09
  9
$DIMJUST
 70
     0
  9
$DIMSD1
 70
     0
  9
$DIMSD2
 70
     0
  9
$DIMTOLJ
 70
     1
  9
$DIMTZIN
 70
     0
  9
$DIMALTZ
 70
     0
  9
$DIMALTTZ
 70
     0
  9
$DIMUPT
 70
     0
  9
$DIMDEC
 70
     4
  9
$DIMTDEC
 70
     4
  9
$DIMALTU
 70
     2
  9
$DIMALTTD
 70
     2
  9
$DIMTXSTY
  7
Standard
  9
$DIMAUNIT
 70
     0
  9
$DIMADEC
 70
     0
  9
$DIMALTRND
 40
0.0
  9
$DIMAZIN
 70
     0
  9
$DIMDSEP
 70
    46
  9
$DIMATFIT
 70
     3
  9
$DIMFRAC
 70
     0
  9
$DIMLDRBLK
  1

  9
$DIMLUNIT
 70
     2
  9
$DIMLWD
 70
    -2
  9
$DIMLWE
 70
    -2
  9
$DIMTMOVE
 70
     0
  9
$LUNITS
 70
     2
  9
$LUPREC
 70
     4
  9
$SKETCHINC
 40
0.1
  9
$FILLETRAD
 40
0.5
  9
$AUNITS
 70
     0
  9
$AUPREC
 70
     0
  9
$MENU
  1
.
  9
$ELEVATION
 40
0.0
  9
$PELEVATION
 40
0.0
  9
$THICKNESS
 40
0.0
  9
$LIMCHECK
 70
     0
  9
$CHAMFERA
 40
0.5
  9
$CHAMFERB
 40
0.5
  9
$CHAMFERC
 40
1.0
  9
$CHAMFERD
 40
0.0
  9
$SKPOLY
 70
     0
  9
$TDCREATE
 40
2457246.50400463
  9
$TDUCREATE
 40
2457246.12900463
  9
$TDUPDATE
 40
2457246.504004641
  9
$TDUUPDATE
 40
2457246.129004641
  9
$TDINDWG
 40
0.0000000116
  9
$TDUSRTIMER
 40
0.0000000116
  9
$USRTIMER
 70
     1
  9
$ANGBASE
 50
0.0
  9
$ANGDIR
 70
     0
  9
$PDMODE
 70
     0
  9
$PDSIZE
 40
0.0
  9
$PLINEWID
 40
0.0
  9
$SPLFRAME
 70
     0
  9
$SPLINETYPE
 70
     6
  9
$SPLINESEGS
 70
     8
  9
$HANDSEED
  5
281
  9
$SURFTAB1
 70
     6
  9
$SURFTAB2
 70
     6
  9
$SURFTYPE
 70
     6
  9
$SURFU
 70
     6
  9
$SURFV
 70
     6
  9
$UCSBASE
  2

  9
$UCSNAME
  2

  9
$UCSORG
 10
0.0
 20
0.0
 30
0.0
  9
$UCSXDIR
 10
1.0
 20
0.0
 30
0.0
  9
$UCSYDIR
 10
0.0
 20
1.0
 30
0.0
  9
$UCSORTHOREF
  2

  9
$UCSORTHOVIEW
 70
     0
  9
$UCSORGTOP
 10
0.0
 20
0.0
 30
0.0
  9
$UCSORGBOTTOM
 10
0.0
 20
0.0
 30
0.0
  9
$UCSORGLEFT
 10
0.0
 20
0.0
 30
0.0
  9
$UCSORGRIGHT
 10
0.0
 20
0.0
 30
0.0
  9
$UCSORGFRONT
 10
0.0
 20
0.0
 30
0.0
  9
$UCSORGBACK
 10
0.0
 20
0.0
 30
0.0
  9
$PUCSBASE
  2

  9
$PUCSNAME
  2

  9
$PUCSORG
 10
0.0
 20
0.0
 30
0.0
  9
$PUCSXDIR
 10
1.0
 20
0.0
 30
0.0
  9
$PUCSYDIR
 10
0.0
 20
1.0
 30
0.0
  9
$PUCSORTHOREF
  2

  9
$PUCSORTHOVIEW
 70
     0
  9
$PUCSORGTOP
 10
0.0
 20
0.0
 30
0.0
  9
$PUCSORGBOTTOM
 10
0.0
 20
0.0
 30
0.0
  9
$PUCSORGLEFT
 10
0.0
 20
0.0
 30
0.0
  9
$PUCSORGRIGHT
 10
0.0
 20
0.0
 30
0.0
  9
$PUCSORGFRONT
 10
0.0
 20
0.0
 30
0.0
  9
$PUCSORGBACK
 10
0.0
 20
0.0
 30
0.0
  9
$USERI1
 70
     0
  9
$USERI2
 70
     0
  9
$USERI3
 70
     0
  9
$USERI4
 70
     0
  9
$USERI5
 70
     0
  9
$USERR1
 40
0.0
  9
$USERR2
 40
0.0
  9
$USERR3
 40
0.0
  9
$USERR4
 40
0.0
  9
$USERR5
 40
0.0
  9
$WORLDVIEW
 70
     1
  9
$SHADEDGE
 70
     3
  9
$SHADEDIF
 70
    70
  9
$TILEMODE
 70
     1
  9
$MAXACTVP
 70
    64
  9
$PINSBASE
 10
0.0
 20
0.0
 30
0.0
  9
$PLIMCHECK
 70
     0
  9
$PEXTMIN
 10
1.000000000000000E+20
 20
1.000000000000000E+20
 30
1.000000000000000E+20
  9
$PEXTMAX
 10
-1.000000000000000E+20
 20
-1.000000000000000E+20
 30
-1.000000000000000E+20
  9
$PLIMMIN
 10
0.0
 20
0.0
  9
$PLIMMAX
 10
12.0
 20
9.0
  9
$UNITMODE
 70
     0
  9
$VISRETAIN
 70
     1
  9
$PLINEGEN
 70
     0
  9
$PSLTSCALE
 70
     1
  9
$TREEDEPTH
 70
  3020
  9
$CMLSTYLE
  2
Standard
  9
$CMLJUST
 70
     0
  9
$CMLSCALE
 40
1.0
  9
$PROXYGRAPHICS
 70
     1
  9
$MEASUREMENT
 70
     0
  9
$CELWEIGHT
370
    -1
  9
$ENDCAPS
280
     0
  9
$JOINSTYLE
280
     0
  9
$LWDISPLAY
290
     1
  9
$INSUNITS
 70
     1
  9
$HYPERLINKBASE
  1

  9
$STYLESHEET
  1

  9
$XEDIT
290
     1
  9
$CEPSNTYPE
380
     0
  9
$PSTYLEMODE
290
     1
  9
$FINGERPRINTGUID
  2
{E8AF9942-218C-EEF0-DEED-E4939EB57712}
  9
$VERSIONGUID
  2
{FAEB1C32-E019-11D5-929B-00C0DF256EC4}
  9
$EXTNAMES
290
     1
  9
$PSVPSCALE
 40
0.0
  9
$OLESTARTUP
290
     0
  9
$SORTENTS
280
   127
  9
$INDEXCTL
280
     0
  9
$HIDETEXT
280
     1
  9
$XCLIPFRAME
290
     0
  9
$HALOGAP
280
     0
  9
$OBSCOLOR
 70
   257
  9
$OBSLTYPE
280
     0
  9
$INTERSECTIONDISPLAY
280
     0
  9
$INTERSECTIONCOLOR
 70
   257
  9
$DIMASSOC
280
     2
  9
$PROJECTNAME
  1

  0
ENDSEC
  0
SECTION
  2
CLASSES
  0
CLASS
  1
ACDBDICTIONARYWDFLT
  2
AcDbDictionaryWithDefault
  3
ObjectDBX Classes
 90
        0
 91
        3
280
     0
281
     0
  0
CLASS
  1
VISUALSTYLE
  2
AcDbVisualStyle
  3
ObjectDBX Classes
 90
     4095
 91
        3
280
     0
281
     0
  0
ENDSEC
  0
SECTION
  2
TABLES
  0
TABLE
  2
VPORT
  5
8
330
0
100
AcDbSymbolTable
 70
     1
  0
VPORT
  5
29
330
8
100
AcDbSymbolTableRecord
100
AcDbViewportTableRecord
  2
*Active
 70
     0
 10
0.0
 20
0.0
 11
1.0
 21
1.0
 12
0.0
 22
0.0
 13
0.0
 23
0.0
 14
0.5
 24
0.5
 15
0.5
 25
0.5
 16
0.0
 26
0.0
 36
1.0
 17
107.7736110841678
 27
114.3217040729821
 37
0.0
 40
2206.934369022919
 41
1.404119688705214
 42
50.0
 43
0.0
 44
0.0
 50
0.0
 51
0.0
 71
     0
 72
   100
 73
     1
 74
     3
 75
     0
 76
     0
 77
     0
 78
     0
281
     0
 65
     1
110
0.0
120
0.0
130
0.0
111
1.0
121
0.0
131
0.0
112
0.0
122
1.0
132
0.0
 79
     0
146
0.0
  0
ENDTAB
  0
TABLE
  2
LTYPE
  5
5
330
0
100
AcDbSymbolTable
 70
    10
  0
LTYPE
  5
14
330
5
100
AcDbSymbolTableRecord
100
AcDbLinetypeTableRecord
  2
ByBlock
 70
     0
  3

 72
    65
 73
     0
 40
0.0
  0
LTYPE
  5
15
330
5
100
AcDbSymbolTableRecord
100
AcDbLinetypeTableRecord
  2
ByLayer
 70
     0
  3

 72
    65
 73
     0
 40
0.0
  0
LTYPE
  5
16
330
5
100
AcDbSymbolTableRecord
100
AcDbLinetypeTableRecord
  2
Continuous
 70
     0
  3
Solid line
 72
    65
 73
     0
 40
0.0
  0
LTYPE
  5
15C
330
5
100
AcDbSymbolTableRecord
100
AcDbLinetypeTableRecord
  2
AI-Linetype-1
 70
     0
  3
Adobe Illustrator Linetype No. 1
 72
    65
 73
     2
 40
1.05198337276968
 49
0.5259916863848401
 74
     0
 49
-0.5259916863848401
 74
     0
  0
LTYPE
  5
161
330
5
100
AcDbSymbolTableRecord
100
AcDbLinetypeTableRecord
  2
AI-Linetype-2
 70
     0
  3
Adobe Illustrator Linetype No. 2
 72
    65
 73
     2
 40
1.05198337276968
 49
0.5259916863848401
 74
     0
 49
-0.5259916863848401
 74
     0
  0
LTYPE
  5
166
330
5
100
AcDbSymbolTableRecord
100
AcDbLinetypeTableRecord
  2
AI-Linetype-3
 70
     0
  3
Adobe Illustrator Linetype No. 3
 72
    65
 73
     2
 40
1.05198337276968
 49
0.5259916863848401
 74
     0
 49
-0.5259916863848401
 74
     0
  0
LTYPE
  5
168
330
5
100
AcDbSymbolTableRecord
100
AcDbLinetypeTableRecord
  2
AI-Linetype-4
 70
     0
  3
Adobe Illustrator Linetype No. 4
 72
    65
 73
     2
 40
1.05198337276968
 49
0.5259916863848401
 74
     0
 49
-0.5259916863848401
 74
     0
  0
LTYPE
  5
16A
330
5
100
AcDbSymbolTableRecord
100
AcDbLinetypeTableRecord
  2
AI-Linetype-5
 70
     0
  3
Adobe Illustrator Linetype No. 5
 72
    65
 73
     2
 40
1.05198337276968
 49
0.5259916863848401
 74
     0
 49
-0.5259916863848401
 74
     0
  0
LTYPE
  5
16F
330
5
100
AcDbSymbolTableRecord
100
AcDbLinetypeTableRecord
  2
AI-Linetype-6
 70
     0
  3
Adobe Illustrator Linetype No. 6
 72
    65
 73
     2
 40
1.05198337276968
 49
0.5259916863848401
 74
     0
 49
-0.5259916863848401
 74
     0
  0
LTYPE
  5
171
330
5
100
AcDbSymbolTableRecord
100
AcDbLinetypeTableRecord
  2
AI-Linetype-7
 70
     0
  3
Adobe Illustrator Linetype No. 7
 72
    65
 73
     2
 40
1.05198337276968
 49
0.5259916863848401
 74
     0
 49
-0.5259916863848401
 74
     0
  0
LTYPE
  5
173
330
5
100
AcDbSymbolTableRecord
100
AcDbLinetypeTableRecord
  2
AI-Linetype-8
 70
     0
  3
Adobe Illustrator Linetype No. 8
 72
    65
 73
     2
 40
1.05198337276968
 49
0.5259916863848401
 74
     0
 49
-0.5259916863848401
 74
     0
  0
LTYPE
  5
27E
330
5
100
AcDbSymbolTableRecord
100
AcDbLinetypeTableRecord
  2
AI-Linetype-9
 70
     0
  3
Adobe Illustrator Linetype No. 9
 72
    65
 73
     2
 40
1.411816783393129
 49
0.7059083916965647
 74
     0
 49
-0.7059083916965647
 74
     0
  0
ENDTAB
  0
TABLE
  2
LAYER
  5
2
330
0
100
AcDbSymbolTable
 70
     2
  0
LAYER
  5
10
330
2
100
AcDbSymbolTableRecord
100
AcDbLayerTableRecord
  2
0
 70
     0
 62
     7
  6
Continuous
370
    -3
390
F
  0
LAYER
  5
3B
330
2
100
AcDbSymbolTableRecord
100
AcDbLayerTableRecord
  2
\U+30EC\U+30A4\U+30E4\U+30FC 1
 70
     0
 62
     7
  6
Continuous
370
    -3
390
F
  0
ENDTAB
  0
TABLE
  2
STYLE
  5
3
330
0
100
AcDbSymbolTable
 70
     1
  0
STYLE
  5
11
330
3
100
AcDbSymbolTableRecord
100
AcDbTextStyleTableRecord
  2
Standard
 70
     0
 40
0.0
 41
1.0
 50
0.0
 71
     0
 42
0.2
  3
txt
  4

  0
ENDTAB
  0
TABLE
  2
VIEW
  5
6
330
0
100
AcDbSymbolTable
 70
     0
  0
ENDTAB
  0
TABLE
  2
UCS
  5
7
330
0
100
AcDbSymbolTable
 70
     0
  0
ENDTAB
  0
TABLE
  2
APPID
  5
9
330
0
100
AcDbSymbolTable
 70
     1
  0
APPID
  5
12
330
9
100
AcDbSymbolTableRecord
100
AcDbRegAppTableRecord
  2
ACAD
 70
     0
  0
ENDTAB
  0
TABLE
  2
DIMSTYLE
  5
A
330
0
100
AcDbSymbolTable
 70
     1
100
AcDbDimStyleTable
  0
DIMSTYLE
105
27
330
A
100
AcDbSymbolTableRecord
100
AcDbDimStyleTableRecord
  2
Standard
 70
     0
340
11
  0
ENDTAB
  0
TABLE
  2
BLOCK_RECORD
  5
1
330
0
100
AcDbSymbolTable
 70
     4
  0
BLOCK_RECORD
  5
1F
330
1
100
AcDbSymbolTableRecord
100
AcDbBlockTableRecord
  2
*Model_Space
340
22
  0
BLOCK_RECORD
  5
1B
330
1
100
AcDbSymbolTableRecord
100
AcDbBlockTableRecord
  2
*Paper_Space
340
1E
  0
BLOCK_RECORD
  5
23
330
1
100
AcDbSymbolTableRecord
100
AcDbBlockTableRecord
  2
*Paper_Space0
340
26
  0
BLOCK_RECORD
  5
67
330
1
100
AcDbSymbolTableRecord
100
AcDbBlockTableRecord
  2
block 2
340
0
102
{BLKREFS
331
68
102
}
  0
BLOCK_RECORD
  5
6B
330
1
100
AcDbSymbolTableRecord
100
AcDbBlockTableRecord
  2
block 3
340
0
102
{BLKREFS
331
6C
102
}
  0
BLOCK_RECORD
  5
ED
330
1
100
AcDbSymbolTableRecord
100
AcDbBlockTableRecord
  2
block 4
340
0
102
{BLKREFS
331
EE
102
}
  0
ENDTAB
  0
ENDSEC
  0
SECTION
  2
BLOCKS
  0
BLOCK
  5
20
330
1F
100
AcDbEntity
  8
0
100
AcDbBlockBegin
  2
*Model_Space
 70
     0
 71
     0
 10
0.0
 20
0.0
 30
0.0
  3
*Model_Space
  1

  0
ENDBLK
  5
21
330
1F
100
AcDbEntity
  8
0
100
AcDbBlockEnd
  0
BLOCK
  5
1C
330
1B
100
AcDbEntity
 67
     1
  8
0
100
AcDbBlockBegin
  2
*Paper_Space
 70
     0
 71
     0
 10
0.0
 20
0.0
 30
0.0
  3
*Paper_Space
  1

  0
ENDBLK
  5
1D
330
1B
100
AcDbEntity
 67
     1
  8
0
100
AcDbBlockEnd
  0
BLOCK
  5
24
330
23
100
AcDbEntity
  8
0
100
AcDbBlockBegin
  2
*Paper_Space0
 70
     0
 71
     0
 10
0.0
 20
0.0
 30
0.0
  3
*Paper_Space0
  1

  0
ENDBLK
  5
25
330
23
100
AcDbEntity
  8
0
100
AcDbBlockEnd
  0
BLOCK
  5
69
330
67
100
AcDbEntity
  8
0
100
AcDbBlockBegin
  2
block 2
 70
     0
 71
     0
 10
0.0
 20
0.0
 30
0.0
  3
block 2
  1

  0
INSERT
  5
6C
330
67
100
AcDbEntity
  8
\U+30EC\U+30A4\U+30E4\U+30FC 1
100
AcDbBlockReference
  2
block 3
 10
0.0
 20
0.0
 30
0.0
  0
SPLINE
  5
A1
330
67
100
AcDbEntity
  8
\U+30EC\U+30A4\U+30E4\U+30FC 1
370
     0
100
AcDbSpline
210
0.0
220
0.0
230
1.0
 70
    11
 71
     3
 72
    47
 73
    43
 74
     0
 42
0.0000000001
 43
0.0000000001
 40
0.0
 40
0.0
 40
0.0
 40
0.0
 40
1.0
 40
1.0
 40
1.0
 40
2.0
 40
2.0
 40
2.0
 40
3.0
 40
3.0
 40
3.0
 40
4.0
 40
4.0
 40
4.0
 40
5.0
 40
5.0
 40
5.0
 40
6.0
 40
6.0
 40
6.0
 40
7.0
 40
7.0
 40
7.0
 40
8.0
 40
8.0
 40
8.0
 40
9.0
 40
9.0
 40
9.0
 40
10.0
 40
10.0
 40
10.0
 40
11.0
 40
11.0
 40
11.0
 40
12.0
 40
12.0
 40
12.0
 40
13.0
 40
13.0
 40
13.0
 40
14.0
 40
14.0
 40
14.0
 40
14.0
 10
469.8751951950312
 20
-855.6873044735783
 30
0.0
 10
469.8751951950312
 20
-856.7759546469172
 30
0.0
 10
470.7213106462086
 20
-857.1921221815353
 30
0.0
 10
471.6721570001375
 20
-857.1921221815353
 30
0.0
 10
472.3032984930353
 20
-857.1921221815353
 30
0.0
 10
473.2596569997407
 20
-857.0102211399142
 30
0.0
 10
473.2596569997407
 20
-856.1751299942896
 30
0.0
 10
473.2596569997407
 20
-855.3042098556184
 30
0.0
 10
472.0276908542153
 20
-855.1498695778793
 30
0.0
 10
470.8480901600658
 20
-854.8246525640717
 30
0.0
 10
469.6409287020342
 20
-854.5132159322051
 30
0.0
 10
468.4172307856735
 20
-854.0474390225993
 30
0.0
 10
468.4172307856735
 20
-852.512304474372
 30
0.0
 10
468.4172307856735
 20
-850.8503904122874
 30
0.0
 10
469.9881943269474
 20
-850.0593964888741
 30
0.0
 10
471.4516708890815
 20
-850.0593964888741
 30
0.0
 10
473.1631943261536
 20
-850.0593964888741
 30
0.0
 10
474.7148653327102
 20
-850.7925128081353
 30
0.0
 10
474.7148653327102
 20
-852.6859372868286
 30
0.0
 10
474.7148653327102
 20
-852.6859372868286
 30
0.0
 10
472.9840493609207
 20
-852.6859372868286
 30
0.0
 10
472.9840493609207
 20
-852.6859372868286
 30
0.0
 10
472.9234156803803
 20
-851.6965058634648
 30
0.0
 10
472.2288844305539
 20
-851.4429468357504
 30
0.0
 10
471.3827689793766
 20
-851.4429468357504
 30
0.0
 10
470.8122611670192
 20
-851.4429468357504
 30
0.0
 10
470.1563149866276
 20
-851.6799694051356
 30
0.0
 10
470.1563149866276
 20
-852.3662324257974
 30
0.0
 10
470.1563149866276
 20
-852.9973739186952
 30
0.0
 10
470.5366535281992
 20
-853.0717879811765
 30
0.0
 10
472.5678818263025
 20
-853.5981985713227
 30
0.0
 10
473.1769747080947
 20
-853.7470266962855
 30
0.0
 10
474.9849608187538
 20
-854.1301213142452
 30
0.0
 10
474.9849608187538
 20
-855.973936417951
 30
0.0
 10
474.9849608187538
 20
-857.4567055148025
 30
0.0
 10
473.816384430157
 20
-858.5729164520235
 30
0.0
 10
471.6087672432089
 20
-858.5729164520235
 30
0.0
 10
469.8118054381026
 20
-858.5729164520235
 30
0.0
 10
468.1223306121361
 20
-857.6964841605759
 30
0.0
 10
468.1471352996299
 20
-855.6873044735783
 30
0.0
 10
468.1471352996299
 20
-855.6873044735783
 30
0.0
 10
469.8751951950312
 20
-855.6873044735783
 30
0.0
 10
469.8751951950312
 20
-855.6873044735783
 30
0.0
  0
HATCH
  5
A2
330
67
100
AcDbEntity
  8
\U+30EC\U+30A4\U+30E4\U+30FC 1
 62
   178
420
   262144
100
AcDbHatch
 10
0.0
 20
0.0
 30
0.0
210
0.0
220
0.0
230
1.0
  2
SOLID
 70
     1
 71
     0
 91
        1
 92
        1
 93
        1
 72
     4
 94
        3
 73
     0
 74
     1
 95
       47
 96
       43
 40
0.0
 40
0.0
 40
0.0
 40
0.0
 40
1.0
 40
1.0
 40
1.0
 40
2.0
 40
2.0
 40
2.0
 40
3.0
 40
3.0
 40
3.0
 40
4.0
 40
4.0
 40
4.0
 40
5.0
 40
5.0
 40
5.0
 40
6.0
 40
6.0
 40
6.0
 40
7.0
 40
7.0
 40
7.0
 40
8.0
 40
8.0
 40
8.0
 40
9.0
 40
9.0
 40
9.0
 40
10.0
 40
10.0
 40
10.0
 40
11.0
 40
11.0
 40
11.0
 40
12.0
 40
12.0
 40
12.0
 40
13.0
 40
13.0
 40
13.0
 40
14.0
 40
14.0
 40
14.0
 40
14.0
 10
469.8751951950312
 20
-855.6873044735783
 10
469.8751951950312
 20
-856.7759546469172
 10
470.7213106462086
 20
-857.1921221815353
 10
471.6721570001375
 20
-857.1921221815353
 10
472.3032984930353
 20
-857.1921221815353
 10
473.2596569997407
 20
-857.0102211399142
 10
473.2596569997407
 20
-856.1751299942896
 10
473.2596569997407
 20
-855.3042098556184
 10
472.0276908542153
 20
-855.1498695778793
 10
470.8480901600658
 20
-854.8246525640717
 10
469.6409287020342
 20
-854.5132159322051
 10
468.4172307856735
 20
-854.0474390225993
 10
468.4172307856735
 20
-852.512304474372
 10
468.4172307856735
 20
-850.8503904122874
 10
469.9881943269474
 20
-850.0593964888741
 10
471.4516708890815
 20
-850.0593964888741
 10
473.1631943261536
 20
-850.0593964888741
 10
474.7148653327102
 20
-850.7925128081353
 10
474.7148653327102
 20
-852.6859372868286
 10
474.7148653327102
 20
-852.6859372868286
 10
472.9840493609207
 20
-852.6859372868286
 10
472.9840493609207
 20
-852.6859372868286
 10
472.9234156803803
 20
-851.6965058634648
 10
472.2288844305539
 20
-851.4429468357504
 10
471.3827689793766
 20
-851.4429468357504
 10
470.8122611670192
 20
-851.4429468357504
 10
470.1563149866276
 20
-851.6799694051356
 10
470.1563149866276
 20
-852.3662324257974
 10
470.1563149866276
 20
-852.9973739186952
 10
470.5366535281992
 20
-853.0717879811765
 10
472.5678818263025
 20
-853.5981985713227
 10
473.1769747080947
 20
-853.7470266962855
 10
474.9849608187538
 20
-854.1301213142452
 10
474.9849608187538
 20
-855.973936417951
 10
474.9849608187538
 20
-857.4567055148025
 10
473.816384430157
 20
-858.5729164520235
 10
471.6087672432089
 20
-858.5729164520235
 10
469.8118054381026
 20
-858.5729164520235
 10
468.1223306121361
 20
-857.6964841605759
 10
468.1471352996299
 20
-855.6873044735783
 10
468.1471352996299
 20
-855.6873044735783
 10
469.8751951950312
 20
-855.6873044735783
 10
469.8751951950312
 20
-855.6873044735783
 97
        0
 75
     2
 76
     1
 98
        0
  0
SPLINE
  5
A3
330
67
100
AcDbEntity
  8
\U+30EC\U+30A4\U+30E4\U+30FC 1
370
     0
100
AcDbSpline
210
0.0
220
0.0
230
1.0
 70
    11
 71
     3
 72
    20
 73
    16
 74
     0
 42
0.0000000001
 43
0.0000000001
 40
0.0
 40
0.0
 40
0.0
 40
0.0
 40
1.0
 40
1.0
 40
1.0
 40
2.0
 40
2.0
 40
2.0
 40
3.0
 40
3.0
 40
3.0
 40
4.0
 40
4.0
 40
4.0
 40
5.0
 40
5.0
 40
5.0
 40
5.0
 10
479.5572915467774
 20
-856.1062280845846
 30
0.0
 10
479.5572915467774
 20
-856.4617619386623
 30
0.0
 10
479.5076821717898
 20
-857.4567055148025
 30
0.0
 10
478.242643109606
 20
-857.4567055148025
 30
0.0
 10
477.7134764430717
 20
-857.4567055148025
 30
0.0
 10
477.2476995334659
 20
-857.3271699245571
 30
0.0
 10
477.2476995334659
 20
-856.704296660824
 30
0.0
 10
477.2476995334659
 20
-856.1144963137492
 30
0.0
 10
477.705208213907
 20
-855.9491317304572
 30
0.0
 10
478.2068141165594
 20
-855.8388886749292
 30
0.0
 10
478.7111760956
 20
-855.753450306895
 30
0.0
 10
479.276171755181
 20
-855.7506942305068
 30
0.0
 10
479.5572915467774
 20
-855.5026473555688
 30
0.0
 10
479.5572915467774
 20
-855.5026473555688
 30
0.0
 10
479.5572915467774
 20
-856.1062280845846
 30
0.0
 10
479.5572915467774
 20
-856.1062280845846
 30
0.0
  0
SPLINE
  5
A4
330
67
100
AcDbEntity
  8
\U+30EC\U+30A4\U+30E4\U+30FC 1
370
     0
100
AcDbSpline
210
0.0
220
0.0
230
1.0
 70
    11
 71
     3
 72
    44
 73
    40
 74
     0
 42
0.0000000001
 43
0.0000000001
 40
0.0
 40
0.0
 40
0.0
 40
0.0
 40
1.0
 40
1.0
 40
1.0
 40
2.0
 40
2.0
 40
2.0
 40
3.0
 40
3.0
 40
3.0
 40
4.0
 40
4.0
 40
4.0
 40
5.0
 40
5.0
 40
5.0
 40
6.0
 40
6.0
 40
6.0
 40
7.0
 40
7.0
 40
7.0
 40
8.0
 40
8.0
 40
8.0
 40
9.0
 40
9.0
 40
9.0
 40
10.0
 40
10.0
 40
10.0
 40
11.0
 40
11.0
 40
11.0
 40
12.0
 40
12.0
 40
12.0
 40
13.0
 40
13.0
 40
13.0
 40
13.0
 10
477.4323566514753
 20
-854.3120223558665
 30
0.0
 10
477.4929903320157
 20
-853.6781247865805
 30
0.0
 10
477.8871092555282
 20
-853.4162975297015
 30
0.0
 10
478.504470366485
 20
-853.4162975297015
 30
0.0
 10
479.0749781788424
 20
-853.4162975297015
 30
0.0
 10
479.5572915467774
 20
-853.5182723560649
 30
0.0
 10
479.5572915467774
 20
-854.2238279114441
 30
0.0
 10
479.5572915467774
 20
-854.8880423210003
 30
0.0
 10
478.6257377275658
 20
-854.8411890224008
 30
0.0
 10
477.6390623805902
 20
-854.9900171473637
 30
0.0
 10
476.6330944988973
 20
-855.13333311955
 30
0.0
 10
475.6326387699808
 20
-855.4447697514166
 30
0.0
 10
475.6326387699808
 20
-856.7814667996936
 30
0.0
 10
475.6326387699808
 20
-857.9913843341133
 30
0.0
 10
476.5228514433693
 20
-858.5425996117533
 30
0.0
 10
477.6390623805902
 20
-858.5425996117533
 30
0.0
 10
478.3583983179104
 20
-858.5425996117533
 30
0.0
 10
479.0942707135598
 20
-858.3524303409675
 30
0.0
 10
479.620681303706
 20
-857.8232636744331
 30
0.0
 10
479.6317056092587
 20
-858.0161890216071
 30
0.0
 10
479.6702906786936
 20
-858.2036022160047
 30
0.0
 10
479.7336804356221
 20
-858.3992836395669
 30
0.0
 10
479.7336804356221
 20
-858.3992836395669
 30
0.0
 10
481.3707898102129
 20
-858.3992836395669
 30
0.0
 10
481.3707898102129
 20
-858.3992836395669
 30
0.0
 10
481.2274738380265
 20
-858.151236764629
 30
0.0
 10
481.1695962338743
 20
-857.6220700980945
 30
0.0
 10
481.1695962338743
 20
-857.0818791260074
 30
0.0
 10
481.1695962338743
 20
-857.0818791260074
 30
0.0
 10
481.1695962338743
 20
-854.0171221823291
 30
0.0
 10
481.1695962338743
 20
-854.0171221823291
 30
0.0
 10
481.1695962338743
 20
-852.6004989187944
 30
0.0
 10
479.7529729703396
 20
-852.34693989108
 30
0.0
 10
478.5788844289664
 20
-852.34693989108
 30
0.0
 10
477.2532116862423
 20
-852.34693989108
 30
0.0
 10
475.9110024851889
 20
-852.7934242659684
 30
0.0
 10
475.8117837352137
 20
-854.3120223558665
 30
0.0
 10
475.8117837352137
 20
-854.3120223558665
 30
0.0
 10
477.4323566514753
 20
-854.3120223558665
 30
0.0
 10
477.4323566514753
 20
-854.3120223558665
 30
0.0
  0
HATCH
  5
A5
330
67
100
AcDbEntity
  8
\U+30EC\U+30A4\U+30E4\U+30FC 1
 62
   178
420
   262144
100
AcDbHatch
 10
0.0
 20
0.0
 30
0.0
210
0.0
220
0.0
230
1.0
  2
SOLID
 70
     1
 71
     0
 91
        2
 92
        1
 93
        1
 72
     4
 94
        3
 73
     0
 74
     1
 95
       20
 96
       16
 40
0.0
 40
0.0
 40
0.0
 40
0.0
 40
1.0
 40
1.0
 40
1.0
 40
2.0
 40
2.0
 40
2.0
 40
3.0
 40
3.0
 40
3.0
 40
4.0
 40
4.0
 40
4.0
 40
5.0
 40
5.0
 40
5.0
 40
5.0
 10
479.5572915467774
 20
-856.1062280845846
 10
479.5572915467774
 20
-856.4617619386623
 10
479.5076821717898
 20
-857.4567055148025
 10
478.242643109606
 20
-857.4567055148025
 10
477.7134764430717
 20
-857.4567055148025
 10
477.2476995334659
 20
-857.3271699245571
 10
477.2476995334659
 20
-856.704296660824
 10
477.2476995334659
 20
-856.1144963137492
 10
477.705208213907
 20
-855.9491317304572
 10
478.2068141165594
 20
-855.8388886749292
 10
478.7111760956
 20
-855.753450306895
 10
479.276171755181
 20
-855.7506942305068
 10
479.5572915467774
 20
-855.5026473555688
 10
479.5572915467774
 20
-855.5026473555688
 10
479.5572915467774
 20
-856.1062280845846
 10
479.5572915467774
 20
-856.1062280845846
 97
        0
 92
        1
 93
        1
 72
     4
 94
        3
 73
     0
 74
     1
 95
       44
 96
       40
 40
0.0
 40
0.0
 40
0.0
 40
0.0
 40
1.0
 40
1.0
 40
1.0
 40
2.0
 40
2.0
 40
2.0
 40
3.0
 40
3.0
 40
3.0
 40
4.0
 40
4.0
 40
4.0
 40
5.0
 40
5.0
 40
5.0
 40
6.0
 40
6.0
 40
6.0
 40
7.0
 40
7.0
 40
7.0
 40
8.0
 40
8.0
 40
8.0
 40
9.0
 40
9.0
 40
9.0
 40
10.0
 40
10.0
 40
10.0
 40
11.0
 40
11.0
 40
11.0
 40
12.0
 40
12.0
 40
12.0
 40
13.0
 40
13.0
 40
13.0
 40
13.0
 10
477.4323566514753
 20
-854.3120223558665
 10
477.4929903320157
 20
-853.6781247865805
 10
477.8871092555282
 20
-853.4162975297015
 10
478.504470366485
 20
-853.4162975297015
 10
479.0749781788424
 20
-853.4162975297015
 10
479.5572915467774
 20
-853.5182723560649
 10
479.5572915467774
 20
-854.2238279114441
 10
479.5572915467774
 20
-854.8880423210003
 10
478.6257377275658
 20
-854.8411890224008
 10
477.6390623805902
 20
-854.9900171473637
 10
476.6330944988973
 20
-855.13333311955
 10
475.6326387699808
 20
-855.4447697514166
 10
475.6326387699808
 20
-856.7814667996936
 10
475.6326387699808
 20
-857.9913843341133
 10
476.5228514433693
 20
-858.5425996117533
 10
477.6390623805902
 20
-858.5425996117533
 10
478.3583983179104
 20
-858.5425996117533
 10
479.0942707135598
 20
-858.3524303409675
 10
479.620681303706
 20
-857.8232636744331
 10
479.6317056092587
 20
-858.0161890216071
 10
479.6702906786936
 20
-858.2036022160047
 10
479.7336804356221
 20
-858.3992836395669
 10
479.7336804356221
 20
-858.3992836395669
 10
481.3707898102129
 20
-858.3992836395669
 10
481.3707898102129
 20
-858.3992836395669
 10
481.2274738380265
 20
-858.151236764629
 10
481.1695962338743
 20
-857.6220700980945
 10
481.1695962338743
 20
-857.0818791260074
 10
481.1695962338743
 20
-857.0818791260074
 10
481.1695962338743
 20
-854.0171221823291
 10
481.1695962338743
 20
-854.0171221823291
 10
481.1695962338743
 20
-852.6004989187944
 10
479.7529729703396
 20
-852.34693989108
 10
478.5788844289664
 20
-852.34693989108
 10
477.2532116862423
 20
-852.34693989108
 10
475.9110024851889
 20
-852.7934242659684
 10
475.8117837352137
 20
-854.3120223558665
 10
475.8117837352137
 20
-854.3120223558665
 10
477.4323566514753
 20
-854.3120223558665
 10
477.4323566514753
 20
-854.3120223558665
 97
        0
 75
     2
 76
     1
 98
        0
  0
SPLINE
  5
A6
330
67
100
AcDbEntity
  8
\U+30EC\U+30A4\U+30E4\U+30FC 1
370
     0
100
AcDbSpline
210
0.0
220
0.0
230
1.0
 70
    11
 71
     3
 72
    44
 73
    40
 74
     0
 42
0.0000000001
 43
0.0000000001
 40
0.0
 40
0.0
 40
0.0
 40
0.0
 40
1.0
 40
1.0
 40
1.0
 40
2.0
 40
2.0
 40
2.0
 40
3.0
 40
3.0
 40
3.0
 40
4.0
 40
4.0
 40
4.0
 40
5.0
 40
5.0
 40
5.0
 40
6.0
 40
6.0
 40
6.0
 40
7.0
 40
7.0
 40
7.0
 40
8.0
 40
8.0
 40
8.0
 40
9.0
 40
9.0
 40
9.0
 40
10.0
 40
10.0
 40
10.0
 40
11.0
 40
11.0
 40
11.0
 40
12.0
 40
12.0
 40
12.0
 40
13.0
 40
13.0
 40
13.0
 40
13.0
 10
482.4208549141171
 20
-852.4874997868782
 30
0.0
 10
482.4208549141171
 20
-852.4874997868782
 30
0.0
 10
483.9587455387326
 20
-852.4874997868782
 30
0.0
 10
483.9587455387326
 20
-852.4874997868782
 30
0.0
 10
483.9587455387326
 20
-852.4874997868782
 30
0.0
 10
483.9587455387326
 20
-853.3115666269499
 30
0.0
 10
483.9587455387326
 20
-853.3115666269499
 30
0.0
 10
483.9587455387326
 20
-853.3115666269499
 30
0.0
 10
483.9945745317792
 20
-853.3115666269499
 30
0.0
 10
483.9945745317792
 20
-853.3115666269499
 30
0.0
 10
484.4052299136209
 20
-852.6556204465584
 30
0.0
 10
485.1162976217765
 20
-852.34693989108
 30
0.0
 10
485.7998045660501
 20
-852.34693989108
 30
0.0
 10
487.5195962322868
 20
-852.34693989108
 30
0.0
 10
487.9578123780105
 20
-853.3060544741735
 30
0.0
 10
487.9578123780105
 20
-854.7585067307549
 30
0.0
 10
487.9578123780105
 20
-854.7585067307549
 30
0.0
 10
487.9578123780105
 20
-858.3992836395669
 30
0.0
 10
487.9578123780105
 20
-858.3992836395669
 30
0.0
 10
487.9578123780105
 20
-858.3992836395669
 30
0.0
 10
486.3317273089726
 20
-858.3992836395669
 30
0.0
 10
486.3317273089726
 20
-858.3992836395669
 30
0.0
 10
486.3317273089726
 20
-858.3992836395669
 30
0.0
 10
486.3317273089726
 20
-855.0616751334568
 30
0.0
 10
486.3317273089726
 20
-855.0616751334568
 30
0.0
 10
486.3317273089726
 20
-854.0915362448105
 30
0.0
 10
486.047851440988
 20
-853.6147350296519
 30
0.0
 10
485.2954425870095
 20
-853.6147350296519
 30
0.0
 10
484.4190102955619
 20
-853.6147350296519
 30
0.0
 10
484.046939983155
 20
-854.1080727031397
 30
0.0
 10
484.046939983155
 20
-855.3042098556184
 30
0.0
 10
484.046939983155
 20
-855.3042098556184
 30
0.0
 10
484.046939983155
 20
-858.3992836395669
 30
0.0
 10
484.046939983155
 20
-858.3992836395669
 30
0.0
 10
484.046939983155
 20
-858.3992836395669
 30
0.0
 10
482.4208549141171
 20
-858.3992836395669
 30
0.0
 10
482.4208549141171
 20
-858.3992836395669
 30
0.0
 10
482.4208549141171
 20
-858.3992836395669
 30
0.0
 10
482.4208549141171
 20
-852.4874997868782
 30
0.0
 10
482.4208549141171
 20
-852.4874997868782
 30
0.0
  0
HATCH
  5
A7
330
67
100
AcDbEntity
  8
\U+30EC\U+30A4\U+30E4\U+30FC 1
 62
   178
420
   262144
100
AcDbHatch
 10
0.0
 20
0.0
 30
0.0
210
0.0
220
0.0
230
1.0
  2
SOLID
 70
     1
 71
     0
 91
        1
 92
        1
 93
        1
 72
     4
 94
        3
 73
     0
 74
     1
 95
       44
 96
       40
 40
0.0
 40
0.0
 40
0.0
 40
0.0
 40
1.0
 40
1.0
 40
1.0
 40
2.0
 40
2.0
 40
2.0
 40
3.0
 40
3.0
 40
3.0
 40
4.0
 40
4.0
 40
4.0
 40
5.0
 40
5.0
 40
5.0
 40
6.0
 40
6.0
 40
6.0
 40
7.0
 40
7.0
 40
7.0
 40
8.0
 40
8.0
 40
8.0
 40
9.0
 40
9.0
 40
9.0
 40
10.0
 40
10.0
 40
10.0
 40
11.0
 40
11.0
 40
11.0
 40
12.0
 40
12.0
 40
12.0
 40
13.0
 40
13.0
 40
13.0
 40
13.0
 10
482.4208549141171
 20
-852.4874997868782
 10
482.4208549141171
 20
-852.4874997868782
 10
483.9587455387326
 20
-852.4874997868782
 10
483.9587455387326
 20
-852.4874997868782
 10
483.9587455387326
 20
-852.4874997868782
 10
483.9587455387326
 20
-853.3115666269499
 10
483.9587455387326
 20
-853.3115666269499
 10
483.9587455387326
 20
-853.3115666269499
 10
483.9945745317792
 20
-853.3115666269499
 10
483.9945745317792
 20
-853.3115666269499
 10
484.4052299136209
 20
-852.6556204465584
 10
485.1162976217765
 20
-852.34693989108
 10
485.7998045660501
 20
-852.34693989108
 10
487.5195962322868
 20
-852.34693989108
 10
487.9578123780105
 20
-853.3060544741735
 10
487.9578123780105
 20
-854.7585067307549
 10
487.9578123780105
 20
-854.7585067307549
 10
487.9578123780105
 20
-858.3992836395669
 10
487.9578123780105
 20
-858.3992836395669
 10
487.9578123780105
 20
-858.3992836395669
 10
486.3317273089726
 20
-858.3992836395669
 10
486.3317273089726
 20
-858.3992836395669
 10
486.3317273089726
 20
-858.3992836395669
 10
486.3317273089726
 20
-855.0616751334568
 10
486.3317273089726
 20
-855.0616751334568
 10
486.3317273089726
 20
-854.0915362448105
 10
486.047851440988
 20
-853.6147350296519
 10
485.2954425870095
 20
-853.6147350296519
 10
484.4190102955619
 20
-853.6147350296519
 10
484.046939983155
 20
-854.1080727031397
 10
484.046939983155
 20
-855.3042098556184
 10
484.046939983155
 20
-855.3042098556184
 10
484.046939983155
 20
-858.3992836395669
 10
484.046939983155
 20
-858.3992836395669
 10
484.046939983155
 20
-858.3992836395669
 10
482.4208549141171
 20
-858.3992836395669
 10
482.4208549141171
 20
-858.3992836395669
 10
482.4208549141171
 20
-858.3992836395669
 10
482.4208549141171
 20
-852.4874997868782
 10
482.4208549141171
 20
-852.4874997868782
 97
        0
 75
     2
 76
     1
 98
        0
  0
POLYLINE
  5
A8
330
67
100
AcDbEntity
  8
\U+30EC\U+30A4\U+30E4\U+30FC 1
370
     0
100
AcDb2dPolyline
 66
     1
 10
0.0
 20
0.0
 30
0.0
  0
VERTEX
  5
A9
330
A8
100
AcDbEntity
  8
\U+30EC\U+30A4\U+30E4\U+30FC 1
370
     0
100
AcDbVertex
100
AcDb2dVertex
 10
490.8461804328441
 20
-850.2495657596598
 30
0.0
  0
VERTEX
  5
AA
330
A8
100
AcDbEntity
  8
\U+30EC\U+30A4\U+30E4\U+30FC 1
370
     0
100
AcDbVertex
100
AcDb2dVertex
 10
489.2228514401943
 20
-850.2495657596598
 30
0.0
  0
VERTEX
  5
AB
330
A8
100
AcDbEntity
  8
\U+30EC\U+30A4\U+30E4\U+30FC 1
370
     0
100
AcDbVertex
100
AcDb2dVertex
 10
489.2228514401943
 20
-851.5862628079368
 30
0.0
  0
VERTEX
  5
AC
330
A8
100
AcDbEntity
  8
\U+30EC\U+30A4\U+30E4\U+30FC 1
370
     0
100
AcDbVertex
100
AcDb2dVertex
 10
490.8461804328441
 20
-851.5862628079368
 30
0.0
  0
VERTEX
  5
AD
330
A8
100
AcDbEntity
  8
\U+30EC\U+30A4\U+30E4\U+30FC 1
370
     0
100
AcDbVertex
100
AcDb2dVertex
 10
490.8461804328441
 20
-850.2495657596598
 30
0.0
  0
SEQEND
  5
AE
330
A8
100
AcDbEntity
  8
\U+30EC\U+30A4\U+30E4\U+30FC 1
370
     0
  0
POLYLINE
  5
AF
330
67
100
AcDbEntity
  8
\U+30EC\U+30A4\U+30E4\U+30FC 1
370
     0
100
AcDb2dPolyline
 66
     1
 10
0.0
 20
0.0
 30
0.0
  0
VERTEX
  5
B0
330
AF
100
AcDbEntity
  8
\U+30EC\U+30A4\U+30E4\U+30FC 1
370
     0
100
AcDbVertex
100
AcDb2dVertex
 10
489.2228514401943
 20
-858.3992836395669
 30
0.0
  0
VERTEX
  5
B1
330
AF
100
AcDbEntity
  8
\U+30EC\U+30A4\U+30E4\U+30FC 1
370
     0
100
AcDbVertex
100
AcDb2dVertex
 10
490.8461804328441
 20
-858.3992836395669
 30
0.0
  0
VERTEX
  5
B2
330
AF
100
AcDbEntity
  8
\U+30EC\U+30A4\U+30E4\U+30FC 1
370
     0
100
AcDbVertex
100
AcDb2dVertex
 10
490.8461804328441
 20
-852.4874997868782
 30
0.0
  0
VERTEX
  5
B3
330
AF
100
AcDbEntity
  8
\U+30EC\U+30A4\U+30E4\U+30FC 1
370
     0
100
AcDbVertex
100
AcDb2dVertex
 10
489.2228514401943
 20
-852.4874997868782
 30
0.0
  0
VERTEX
  5
B4
330
AF
100
AcDbEntity
  8
\U+30EC\U+30A4\U+30E4\U+30FC 1
370
     0
100
AcDbVertex
100
AcDb2dVertex
 10
489.2228514401943
 20
-858.3992836395669
 30
0.0
  0
SEQEND
  5
B5
330
AF
100
AcDbEntity
  8
\U+30EC\U+30A4\U+30E4\U+30FC 1
370
     0
  0
HATCH
  5
B6
330
67
100
AcDbEntity
  8
\U+30EC\U+30A4\U+30E4\U+30FC 1
 62
   178
420
   262144
100
AcDbHatch
 10
0.0
 20
0.0
 30
0.0
210
0.0
220
0.0
230
1.0
  2
SOLID
 70
     1
 71
     0
 91
        2
 92
        1
 93
        4
 72
     1
 10
490.8461804328441
 20
-850.2495657596598
 11
489.2228514401943
 21
-850.2495657596598
 72
     1
 10
489.2228514401943
 20
-850.2495657596598
 11
489.2228514401943
 21
-851.5862628079368
 72
     1
 10
489.2228514401943
 20
-851.5862628079368
 11
490.8461804328441
 21
-851.5862628079368
 72
     1
 10
490.8461804328441
 20
-851.5862628079368
 11
490.8461804328441
 21
-850.2495657596598
 97
        0
 92
        1
 93
        4
 72
     1
 10
489.2228514401943
 20
-858.3992836395669
 11
490.8461804328441
 21
-858.3992836395669
 72
     1
 10
490.8461804328441
 20
-858.3992836395669
 11
490.8461804328441
 21
-852.4874997868782
 72
     1
 10
490.8461804328441
 20
-852.4874997868782
 11
489.2228514401943
 21
-852.4874997868782
 72
     1
 10
489.2228514401943
 20
-852.4874997868782
 11
489.2228514401943
 21
-858.3992836395669
 97
        0
 75
     2
 76
     1
 98
        0
  0
SPLINE
  5
B7
330
67
100
AcDbEntity
  8
\U+30EC\U+30A4\U+30E4\U+30FC 1
370
     0
100
AcDbSpline
210
0.0
220
0.0
230
1.0
 70
    11
 71
     3
 72
    53
 73
    49
 74
     0
 42
0.0000000001
 43
0.0000000001
 40
0.0
 40
0.0
 40
0.0
 40
0.0
 40
1.0
 40
1.0
 40
1.0
 40
2.0
 40
2.0
 40
2.0
 40
3.0
 40
3.0
 40
3.0
 40
4.0
 40
4.0
 40
4.0
 40
5.0
 40
5.0
 40
5.0
 40
6.0
 40
6.0
 40
6.0
 40
7.0
 40
7.0
 40
7.0
 40
8.0
 40
8.0
 40
8.0
 40
9.0
 40
9.0
 40
9.0
 40
10.0
 40
10.0
 40
10.0
 40
11.0
 40
11.0
 40
11.0
 40
12.0
 40
12.0
 40
12.0
 40
13.0
 40
13.0
 40
13.0
 40
14.0
 40
14.0
 40
14.0
 40
15.0
 40
15.0
 40
15.0
 40
16.0
 40
16.0
 40
16.0
 40
16.0
 10
494.1672524806249
 20
-852.4874997868782
 30
0.0
 10
494.1672524806249
 20
-852.4874997868782
 30
0.0
 10
495.3523653275508
 20
-852.4874997868782
 30
0.0
 10
495.3523653275508
 20
-852.4874997868782
 30
0.0
 10
495.3523653275508
 20
-852.4874997868782
 30
0.0
 10
495.3523653275508
 20
-853.5761499602171
 30
0.0
 10
495.3523653275508
 20
-853.5761499602171
 30
0.0
 10
495.3523653275508
 20
-853.5761499602171
 30
0.0
 10
494.1672524806249
 20
-853.5761499602171
 30
0.0
 10
494.1672524806249
 20
-853.5761499602171
 30
0.0
 10
494.1672524806249
 20
-853.5761499602171
 30
0.0
 10
494.1672524806249
 20
-856.4975909317089
 30
0.0
 10
494.1672524806249
 20
-856.4975909317089
 30
0.0
 10
494.1672524806249
 20
-857.0377819037961
 30
0.0
 10
494.307812376423
 20
-857.1810978759826
 30
0.0
 10
494.859027654063
 20
-857.1810978759826
 30
0.0
 10
495.0271483137432
 20
-857.1810978759826
 30
0.0
 10
495.1870007442589
 20
-857.1645614176533
 30
0.0
 10
495.3523653275508
 20
-857.1342445773831
 30
0.0
 10
495.3523653275508
 20
-857.1342445773831
 30
0.0
 10
495.3523653275508
 20
-858.3992836395669
 30
0.0
 10
495.3523653275508
 20
-858.3992836395669
 30
0.0
 10
495.0905380706718
 20
-858.4461369381663
 30
0.0
 10
494.7322481402059
 20
-858.4599173201073
 30
0.0
 10
494.4125432791747
 20
-858.4599173201073
 30
0.0
 10
493.4203557794227
 20
-858.4599173201073
 30
0.0
 10
492.5494356407515
 20
-858.222894750722
 30
0.0
 10
492.5494356407515
 20
-857.0515622857372
 30
0.0
 10
492.5494356407515
 20
-857.0515622857372
 30
0.0
 10
492.5494356407515
 20
-853.5761499602171
 30
0.0
 10
492.5494356407515
 20
-853.5761499602171
 30
0.0
 10
492.5494356407515
 20
-853.5761499602171
 30
0.0
 10
491.5792967521052
 20
-853.5761499602171
 30
0.0
 10
491.5792967521052
 20
-853.5761499602171
 30
0.0
 10
491.5792967521052
 20
-853.5761499602171
 30
0.0
 10
491.5792967521052
 20
-852.4874997868782
 30
0.0
 10
491.5792967521052
 20
-852.4874997868782
 30
0.0
 10
491.5792967521052
 20
-852.4874997868782
 30
0.0
 10
492.5494356407515
 20
-852.4874997868782
 30
0.0
 10
492.5494356407515
 20
-852.4874997868782
 30
0.0
 10
492.5494356407515
 20
-852.4874997868782
 30
0.0
 10
492.5494356407515
 20
-850.7291230512067
 30
0.0
 10
492.5494356407515
 20
-850.7291230512067
 30
0.0
 10
492.5494356407515
 20
-850.7291230512067
 30
0.0
 10
494.1672524806249
 20
-850.7291230512067
 30
0.0
 10
494.1672524806249
 20
-850.7291230512067
 30
0.0
 10
494.1672524806249
 20
-850.7291230512067
 30
0.0
 10
494.1672524806249
 20
-852.4874997868782
 30
0.0
 10
494.1672524806249
 20
-852.4874997868782
 30
0.0
  0
HATCH
  5
B8
330
67
100
AcDbEntity
  8
\U+30EC\U+30A4\U+30E4\U+30FC 1
 62
   178
420
   262144
100
AcDbHatch
 10
0.0
 20
0.0
 30
0.0
210
0.0
220
0.0
230
1.0
  2
SOLID
 70
     1
 71
     0
 91
        1
 92
        1
 93
        1
 72
     4
 94
        3
 73
     0
 74
     1
 95
       53
 96
       49
 40
0.0
 40
0.0
 40
0.0
 40
0.0
 40
1.0
 40
1.0
 40
1.0
 40
2.0
 40
2.0
 40
2.0
 40
3.0
 40
3.0
 40
3.0
 40
4.0
 40
4.0
 40
4.0
 40
5.0
 40
5.0
 40
5.0
 40
6.0
 40
6.0
 40
6.0
 40
7.0
 40
7.0
 40
7.0
 40
8.0
 40
8.0
 40
8.0
 40
9.0
 40
9.0
 40
9.0
 40
10.0
 40
10.0
 40
10.0
 40
11.0
 40
11.0
 40
11.0
 40
12.0
 40
12.0
 40
12.0
 40
13.0
 40
13.0
 40
13.0
 40
14.0
 40
14.0
 40
14.0
 40
15.0
 40
15.0
 40
15.0
 40
16.0
 40
16.0
 40
16.0
 40
16.0
 10
494.1672524806249
 20
-852.4874997868782
 10
494.1672524806249
 20
-852.4874997868782
 10
495.3523653275508
 20
-852.4874997868782
 10
495.3523653275508
 20
-852.4874997868782
 10
495.3523653275508
 20
-852.4874997868782
 10
495.3523653275508
 20
-853.5761499602171
 10
495.3523653275508
 20
-853.5761499602171
 10
495.3523653275508
 20
-853.5761499602171
 10
494.1672524806249
 20
-853.5761499602171
 10
494.1672524806249
 20
-853.5761499602171
 10
494.1672524806249
 20
-853.5761499602171
 10
494.1672524806249
 20
-856.4975909317089
 10
494.1672524806249
 20
-856.4975909317089
 10
494.1672524806249
 20
-857.0377819037961
 10
494.307812376423
 20
-857.1810978759826
 10
494.859027654063
 20
-857.1810978759826
 10
495.0271483137432
 20
-857.1810978759826
 10
495.1870007442589
 20
-857.1645614176533
 10
495.3523653275508
 20
-857.1342445773831
 10
495.3523653275508
 20
-857.1342445773831
 10
495.3523653275508
 20
-858.3992836395669
 10
495.3523653275508
 20
-858.3992836395669
 10
495.0905380706718
 20
-858.4461369381663
 10
494.7322481402059
 20
-858.4599173201073
 10
494.4125432791747
 20
-858.4599173201073
 10
493.4203557794227
 20
-858.4599173201073
 10
492.5494356407515
 20
-858.222894750722
 10
492.5494356407515
 20
-857.0515622857372
 10
492.5494356407515
 20
-857.0515622857372
 10
492.5494356407515
 20
-853.5761499602171
 10
492.5494356407515
 20
-853.5761499602171
 10
492.5494356407515
 20
-853.5761499602171
 10
491.5792967521052
 20
-853.5761499602171
 10
491.5792967521052
 20
-853.5761499602171
 10
491.5792967521052
 20
-853.5761499602171
 10
491.5792967521052
 20
-852.4874997868782
 10
491.5792967521052
 20
-852.4874997868782
 10
491.5792967521052
 20
-852.4874997868782
 10
492.5494356407515
 20
-852.4874997868782
 10
492.5494356407515
 20
-852.4874997868782
 10
492.5494356407515
 20
-852.4874997868782
 10
492.5494356407515
 20
-850.7291230512067
 10
492.5494356407515
 20
-850.7291230512067
 10
492.5494356407515
 20
-850.7291230512067
 10
494.1672524806249
 20
-850.7291230512067
 10
494.1672524806249
 20
-850.7291230512067
 10
494.1672524806249
 20
-850.7291230512067
 10
494.1672524806249
 20
-852.4874997868782
 10
494.1672524806249
 20
-852.4874997868782
 97
        0
 75
     2
 76
     1
 98
        0
  0
SPLINE
  5
B9
330
67
100
AcDbEntity
  8
\U+30EC\U+30A4\U+30E4\U+30FC 1
370
     0
100
AcDbSpline
210
0.0
220
0.0
230
1.0
 70
    11
 71
     3
 72
    20
 73
    16
 74
     0
 42
0.0000000001
 43
0.0000000001
 40
0.0
 40
0.0
 40
0.0
 40
0.0
 40
1.0
 40
1.0
 40
1.0
 40
2.0
 40
2.0
 40
2.0
 40
3.0
 40
3.0
 40
3.0
 40
4.0
 40
4.0
 40
4.0
 40
5.0
 40
5.0
 40
5.0
 40
5.0
 10
499.8034286944936
 20
-856.1062280845846
 30
0.0
 10
499.8034286944936
 20
-856.4617619386623
 30
0.0
 10
499.7620875486706
 20
-857.4567055148025
 30
0.0
 10
498.4998045628751
 20
-857.4567055148025
 30
0.0
 10
497.9706378963407
 20
-857.4567055148025
 30
0.0
 10
497.4993488339585
 20
-857.3271699245571
 30
0.0
 10
497.4993488339585
 20
-856.704296660824
 30
0.0
 10
497.4993488339585
 20
-856.1144963137492
 30
0.0
 10
497.9485892852351
 20
-855.9491317304572
 30
0.0
 10
498.4529512642757
 20
-855.8388886749292
 30
0.0
 10
498.9545571669281
 20
-855.753450306895
 30
0.0
 10
499.5305771320618
 20
-855.7506942305068
 30
0.0
 10
499.8034286944936
 20
-855.5026473555688
 30
0.0
 10
499.8034286944936
 20
-855.5026473555688
 30
0.0
 10
499.8034286944936
 20
-856.1062280845846
 30
0.0
 10
499.8034286944936
 20
-856.1062280845846
 30
0.0
  0
SPLINE
  5
BA
330
67
100
AcDbEntity
  8
\U+30EC\U+30A4\U+30E4\U+30FC 1
370
     0
100
AcDbSpline
210
0.0
220
0.0
230
1.0
 70
    11
 71
     3
 72
    44
 73
    40
 74
     0
 42
0.0000000001
 43
0.0000000001
 40
0.0
 40
0.0
 40
0.0
 40
0.0
 40
1.0
 40
1.0
 40
1.0
 40
2.0
 40
2.0
 40
2.0
 40
3.0
 40
3.0
 40
3.0
 40
4.0
 40
4.0
 40
4.0
 40
5.0
 40
5.0
 40
5.0
 40
6.0
 40
6.0
 40
6.0
 40
7.0
 40
7.0
 40
7.0
 40
8.0
 40
8.0
 40
8.0
 40
9.0
 40
9.0
 40
9.0
 40
10.0
 40
10.0
 40
10.0
 40
11.0
 40
11.0
 40
11.0
 40
12.0
 40
12.0
 40
12.0
 40
13.0
 40
13.0
 40
13.0
 40
13.0
 10
497.6867620283561
 20
-854.3120223558665
 30
0.0
 10
497.7391274797319
 20
-853.6781247865805
 30
0.0
 10
498.1415146324091
 20
-853.4162975297015
 30
0.0
 10
498.7506075142012
 20
-853.4162975297015
 30
0.0
 10
499.3266274793351
 20
-853.4162975297015
 30
0.0
 10
499.8034286944936
 20
-853.5182723560649
 30
0.0
 10
499.8034286944936
 20
-854.2238279114441
 30
0.0
 10
499.8034286944936
 20
-854.8880423210003
 30
0.0
 10
498.8801431044466
 20
-854.8411890224008
 30
0.0
 10
497.8851995283065
 20
-854.9900171473637
 30
0.0
 10
496.8902559521663
 20
-855.13333311955
 30
0.0
 10
495.8842880704734
 20
-855.4447697514166
 30
0.0
 10
495.8842880704734
 20
-856.7814667996936
 30
0.0
 10
495.8842880704734
 20
-857.9913843341133
 30
0.0
 10
496.7745007438619
 20
-858.5425996117533
 30
0.0
 10
497.8851995283065
 20
-858.5425996117533
 30
0.0
 10
498.596267236462
 20
-858.5425996117533
 30
0.0
 10
499.3624564723816
 20
-858.3524303409675
 30
0.0
 10
499.8668184514222
 20
-857.8232636744331
 30
0.0
 10
499.8833549097514
 20
-858.0161890216071
 30
0.0
 10
499.9246960555744
 20
-858.2036022160047
 30
0.0
 10
499.9853297361148
 20
-858.3992836395669
 30
0.0
 10
499.9853297361148
 20
-858.3992836395669
 30
0.0
 10
501.6251951870937
 20
-858.3992836395669
 30
0.0
 10
501.6251951870937
 20
-858.3992836395669
 30
0.0
 10
501.4736109857427
 20
-858.151236764629
 30
0.0
 10
501.4240016107551
 20
-857.6220700980945
 30
0.0
 10
501.4240016107551
 20
-857.0818791260074
 30
0.0
 10
501.4240016107551
 20
-857.0818791260074
 30
0.0
 10
501.4240016107551
 20
-854.0171221823291
 30
0.0
 10
501.4240016107551
 20
-854.0171221823291
 30
0.0
 10
501.4240016107551
 20
-852.6004989187944
 30
0.0
 10
500.0101344236086
 20
-852.34693989108
 30
0.0
 10
498.8360458822355
 20
-852.34693989108
 30
0.0
 10
497.5076170631231
 20
-852.34693989108
 30
0.0
 10
496.1488714037406
 20
-852.7934242659684
 30
0.0
 10
496.0634330357064
 20
-854.3120223558665
 30
0.0
 10
496.0634330357064
 20
-854.3120223558665
 30
0.0
 10
497.6867620283561
 20
-854.3120223558665
 30
0.0
 10
497.6867620283561
 20
-854.3120223558665
 30
0.0
  0
HATCH
  5
BB
330
67
100
AcDbEntity
  8
\U+30EC\U+30A4\U+30E4\U+30FC 1
 62
   178
420
   262144
100
AcDbHatch
 10
0.0
 20
0.0
 30
0.0
210
0.0
220
0.0
230
1.0
  2
SOLID
 70
     1
 71
     0
 91
        2
 92
        1
 93
        1
 72
     4
 94
        3
 73
     0
 74
     1
 95
       20
 96
       16
 40
0.0
 40
0.0
 40
0.0
 40
0.0
 40
1.0
 40
1.0
 40
1.0
 40
2.0
 40
2.0
 40
2.0
 40
3.0
 40
3.0
 40
3.0
 40
4.0
 40
4.0
 40
4.0
 40
5.0
 40
5.0
 40
5.0
 40
5.0
 10
499.8034286944936
 20
-856.1062280845846
 10
499.8034286944936
 20
-856.4617619386623
 10
499.7620875486706
 20
-857.4567055148025
 10
498.4998045628751
 20
-857.4567055148025
 10
497.9706378963407
 20
-857.4567055148025
 10
497.4993488339585
 20
-857.3271699245571
 10
497.4993488339585
 20
-856.704296660824
 10
497.4993488339585
 20
-856.1144963137492
 10
497.9485892852351
 20
-855.9491317304572
 10
498.4529512642757
 20
-855.8388886749292
 10
498.9545571669281
 20
-855.753450306895
 10
499.5305771320618
 20
-855.7506942305068
 10
499.8034286944936
 20
-855.5026473555688
 10
499.8034286944936
 20
-855.5026473555688
 10
499.8034286944936
 20
-856.1062280845846
 10
499.8034286944936
 20
-856.1062280845846
 97
        0
 92
        1
 93
        1
 72
     4
 94
        3
 73
     0
 74
     1
 95
       44
 96
       40
 40
0.0
 40
0.0
 40
0.0
 40
0.0
 40
1.0
 40
1.0
 40
1.0
 40
2.0
 40
2.0
 40
2.0
 40
3.0
 40
3.0
 40
3.0
 40
4.0
 40
4.0
 40
4.0
 40
5.0
 40
5.0
 40
5.0
 40
6.0
 40
6.0
 40
6.0
 40
7.0
 40
7.0
 40
7.0
 40
8.0
 40
8.0
 40
8.0
 40
9.0
 40
9.0
 40
9.0
 40
10.0
 40
10.0
 40
10.0
 40
11.0
 40
11.0
 40
11.0
 40
12.0
 40
12.0
 40
12.0
 40
13.0
 40
13.0
 40
13.0
 40
13.0
 10
497.6867620283561
 20
-854.3120223558665
 10
497.7391274797319
 20
-853.6781247865805
 10
498.1415146324091
 20
-853.4162975297015
 10
498.7506075142012
 20
-853.4162975297015
 10
499.3266274793351
 20
-853.4162975297015
 10
499.8034286944936
 20
-853.5182723560649
 10
499.8034286944936
 20
-854.2238279114441
 10
499.8034286944936
 20
-854.8880423210003
 10
498.8801431044466
 20
-854.8411890224008
 10
497.8851995283065
 20
-854.9900171473637
 10
496.8902559521663
 20
-855.13333311955
 10
495.8842880704734
 20
-855.4447697514166
 10
495.8842880704734
 20
-856.7814667996936
 10
495.8842880704734
 20
-857.9913843341133
 10
496.7745007438619
 20
-858.5425996117533
 10
497.8851995283065
 20
-858.5425996117533
 10
498.596267236462
 20
-858.5425996117533
 10
499.3624564723816
 20
-858.3524303409675
 10
499.8668184514222
 20
-857.8232636744331
 10
499.8833549097514
 20
-858.0161890216071
 10
499.9246960555744
 20
-858.2036022160047
 10
499.9853297361148
 20
-858.3992836395669
 10
499.9853297361148
 20
-858.3992836395669
 10
501.6251951870937
 20
-858.3992836395669
 10
501.6251951870937
 20
-858.3992836395669
 10
501.4736109857427
 20
-858.151236764629
 10
501.4240016107551
 20
-857.6220700980945
 10
501.4240016107551
 20
-857.0818791260074
 10
501.4240016107551
 20
-857.0818791260074
 10
501.4240016107551
 20
-854.0171221823291
 10
501.4240016107551
 20
-854.0171221823291
 10
501.4240016107551
 20
-852.6004989187944
 10
500.0101344236086
 20
-852.34693989108
 10
498.8360458822355
 20
-852.34693989108
 10
497.5076170631231
 20
-852.34693989108
 10
496.1488714037406
 20
-852.7934242659684
 10
496.0634330357064
 20
-854.3120223558665
 10
496.0634330357064
 20
-854.3120223558665
 10
497.6867620283561
 20
-854.3120223558665
 10
497.6867620283561
 20
-854.3120223558665
 97
        0
 75
     2
 76
     1
 98
        0
  0
SPLINE
  5
BC
330
67
100
AcDbEntity
  8
\U+30EC\U+30A4\U+30E4\U+30FC 1
370
     0
100
AcDbSpline
210
0.0
220
0.0
230
1.0
 70
    11
 71
     3
 72
    38
 73
    34
 74
     0
 42
0.0000000001
 43
0.0000000001
 40
0.0
 40
0.0
 40
0.0
 40
0.0
 40
1.0
 40
1.0
 40
1.0
 40
2.0
 40
2.0
 40
2.0
 40
3.0
 40
3.0
 40
3.0
 40
4.0
 40
4.0
 40
4.0
 40
5.0
 40
5.0
 40
5.0
 40
6.0
 40
6.0
 40
6.0
 40
7.0
 40
7.0
 40
7.0
 40
8.0
 40
8.0
 40
8.0
 40
9.0
 40
9.0
 40
9.0
 40
10.0
 40
10.0
 40
10.0
 40
11.0
 40
11.0
 40
11.0
 40
11.0
 10
502.6725042146097
 20
-852.4874997868782
 30
0.0
 10
502.6725042146097
 20
-852.4874997868782
 30
0.0
 10
504.2103948392252
 20
-852.4874997868782
 30
0.0
 10
504.2103948392252
 20
-852.4874997868782
 30
0.0
 10
504.2103948392252
 20
-852.4874997868782
 30
0.0
 10
504.2103948392252
 20
-853.5899303421581
 30
0.0
 10
504.2103948392252
 20
-853.5899303421581
 30
0.0
 10
504.2103948392252
 20
-853.5899303421581
 30
0.0
 10
504.2462238322718
 20
-853.5899303421581
 30
0.0
 10
504.2462238322718
 20
-853.5899303421581
 30
0.0
 10
504.5328557766446
 20
-852.856814022897
 30
0.0
 10
505.3348740056107
 20
-852.34693989108
 30
0.0
 10
506.1120875470831
 20
-852.34693989108
 30
0.0
 10
506.2223306026111
 20
-852.34693989108
 30
0.0
 10
506.3684026511857
 20
-852.3524520438564
 30
0.0
 10
506.4648653247727
 20
-852.3993053424558
 30
0.0
 10
506.4648653247727
 20
-852.3993053424558
 30
0.0
 10
506.4648653247727
 20
-853.9041230504129
 30
0.0
 10
506.4648653247727
 20
-853.9041230504129
 30
0.0
 10
506.3243054289745
 20
-853.8600258282017
 30
0.0
 10
506.0872828595893
 20
-853.8379772170961
 30
0.0
 10
505.8888453596389
 20
-853.8379772170961
 30
0.0
 10
504.7009764363248
 20
-853.8379772170961
 30
0.0
 10
504.290321054483
 20
-854.6896048210499
 30
0.0
 10
504.290321054483
 20
-855.7451820777304
 30
0.0
 10
504.290321054483
 20
-855.7451820777304
 30
0.0
 10
504.290321054483
 20
-858.3992836395669
 30
0.0
 10
504.290321054483
 20
-858.3992836395669
 30
0.0
 10
504.290321054483
 20
-858.3992836395669
 30
0.0
 10
502.6725042146097
 20
-858.3992836395669
 30
0.0
 10
502.6725042146097
 20
-858.3992836395669
 30
0.0
 10
502.6725042146097
 20
-858.3992836395669
 30
0.0
 10
502.6725042146097
 20
-852.4874997868782
 30
0.0
 10
502.6725042146097
 20
-852.4874997868782
 30
0.0
  0
HATCH
  5
BD
330
67
100
AcDbEntity
  8
\U+30EC\U+30A4\U+30E4\U+30FC 1
 62
   178
420
   262144
100
AcDbHatch
 10
0.0
 20
0.0
 30
0.0
210
0.0
220
0.0
230
1.0
  2
SOLID
 70
     1
 71
     0
 91
        1
 92
        1
 93
        1
 72
     4
 94
        3
 73
     0
 74
     1
 95
       38
 96
       34
 40
0.0
 40
0.0
 40
0.0
 40
0.0
 40
1.0
 40
1.0
 40
1.0
 40
2.0
 40
2.0
 40
2.0
 40
3.0
 40
3.0
 40
3.0
 40
4.0
 40
4.0
 40
4.0
 40
5.0
 40
5.0
 40
5.0
 40
6.0
 40
6.0
 40
6.0
 40
7.0
 40
7.0
 40
7.0
 40
8.0
 40
8.0
 40
8.0
 40
9.0
 40
9.0
 40
9.0
 40
10.0
 40
10.0
 40
10.0
 40
11.0
 40
11.0
 40
11.0
 40
11.0
 10
502.6725042146097
 20
-852.4874997868782
 10
502.6725042146097
 20
-852.4874997868782
 10
504.2103948392252
 20
-852.4874997868782
 10
504.2103948392252
 20
-852.4874997868782
 10
504.2103948392252
 20
-852.4874997868782
 10
504.2103948392252
 20
-853.5899303421581
 10
504.2103948392252
 20
-853.5899303421581
 10
504.2103948392252
 20
-853.5899303421581
 10
504.2462238322718
 20
-853.5899303421581
 10
504.2462238322718
 20
-853.5899303421581
 10
504.5328557766446
 20
-852.856814022897
 10
505.3348740056107
 20
-852.34693989108
 10
506.1120875470831
 20
-852.34693989108
 10
506.2223306026111
 20
-852.34693989108
 10
506.3684026511857
 20
-852.3524520438564
 10
506.4648653247727
 20
-852.3993053424558
 10
506.4648653247727
 20
-852.3993053424558
 10
506.4648653247727
 20
-853.9041230504129
 10
506.4648653247727
 20
-853.9041230504129
 10
506.3243054289745
 20
-853.8600258282017
 10
506.0872828595893
 20
-853.8379772170961
 10
505.8888453596389
 20
-853.8379772170961
 10
504.7009764363248
 20
-853.8379772170961
 10
504.290321054483
 20
-854.6896048210499
 10
504.290321054483
 20
-855.7451820777304
 10
504.290321054483
 20
-855.7451820777304
 10
504.290321054483
 20
-858.3992836395669
 10
504.290321054483
 20
-858.3992836395669
 10
504.290321054483
 20
-858.3992836395669
 10
502.6725042146097
 20
-858.3992836395669
 10
502.6725042146097
 20
-858.3992836395669
 10
502.6725042146097
 20
-858.3992836395669
 10
502.6725042146097
 20
-852.4874997868782
 10
502.6725042146097
 20
-852.4874997868782
 97
        0
 75
     2
 76
     1
 98
        0
  0
SPLINE
  5
BE
330
67
100
AcDbEntity
  8
\U+30EC\U+30A4\U+30E4\U+30FC 1
370
     0
100
AcDbSpline
210
0.0
220
0.0
230
1.0
 70
    11
 71
     3
 72
    41
 73
    37
 74
     0
 42
0.0000000001
 43
0.0000000001
 40
0.0
 40
0.0
 40
0.0
 40
0.0
 40
1.0
 40
1.0
 40
1.0
 40
2.0
 40
2.0
 40
2.0
 40
3.0
 40
3.0
 40
3.0
 40
4.0
 40
4.0
 40
4.0
 40
5.0
 40
5.0
 40
5.0
 40
6.0
 40
6.0
 40
6.0
 40
7.0
 40
7.0
 40
7.0
 40
8.0
 40
8.0
 40
8.0
 40
9.0
 40
9.0
 40
9.0
 40
10.0
 40
10.0
 40
10.0
 40
11.0
 40
11.0
 40
11.0
 40
12.0
 40
12.0
 40
12.0
 40
12.0
 10
510.0174477891623
 20
-859.1268878060516
 30
0.0
 10
509.6564017823081
 20
-860.0722220072042
 30
0.0
 10
509.0996743518918
 20
-860.4801213126578
 30
0.0
 10
507.9834634146708
 20
-860.4801213126578
 30
0.0
 10
507.6499781716986
 20
-860.4801213126578
 30
0.0
 10
507.324761157891
 20
-860.4442923196112
 30
0.0
 10
506.9912759149188
 20
-860.4139754793409
 30
0.0
 10
506.9912759149188
 20
-860.4139754793409
 30
0.0
 10
506.9912759149188
 20
-859.0772784310641
 30
0.0
 10
506.9912759149188
 20
-859.0772784310641
 30
0.0
 10
507.2972003940091
 20
-859.0938148893932
 30
0.0
 10
507.6169052550403
 20
-859.1434242643809
 30
0.0
 10
507.9366101160714
 20
-859.1268878060516
 30
0.0
 10
508.4988496992642
 20
-859.0772784310641
 30
0.0
 10
508.6862628936618
 20
-858.4819659312129
 30
0.0
 10
508.4988496992642
 20
-858.0161890216071
 30
0.0
 10
508.4988496992642
 20
-858.0161890216071
 30
0.0
 10
506.4290363317261
 20
-852.4874997868782
 30
0.0
 10
506.4290363317261
 20
-852.4874997868782
 30
0.0
 10
506.4290363317261
 20
-852.4874997868782
 30
0.0
 10
508.1570962271274
 20
-852.4874997868782
 30
0.0
 10
508.1570962271274
 20
-852.4874997868782
 30
0.0
 10
508.1570962271274
 20
-852.4874997868782
 30
0.0
 10
509.4855250462397
 20
-856.5251516955909
 30
0.0
 10
509.4855250462397
 20
-856.5251516955909
 30
0.0
 10
509.4855250462397
 20
-856.5251516955909
 30
0.0
 10
509.5185979628981
 20
-856.5251516955909
 30
0.0
 10
509.5185979628981
 20
-856.5251516955909
 30
0.0
 10
509.5185979628981
 20
-856.5251516955909
 30
0.0
 10
510.7974174070229
 20
-852.4874997868782
 30
0.0
 10
510.7974174070229
 20
-852.4874997868782
 30
0.0
 10
510.7974174070229
 20
-852.4874997868782
 30
0.0
 10
512.4731118510484
 20
-852.4874997868782
 30
0.0
 10
512.4731118510484
 20
-852.4874997868782
 30
0.0
 10
512.4731118510484
 20
-852.4874997868782
 30
0.0
 10
510.0174477891623
 20
-859.1268878060516
 30
0.0
 10
510.0174477891623
 20
-859.1268878060516
 30
0.0
  0
HATCH
  5
BF
330
67
100
AcDbEntity
  8
\U+30EC\U+30A4\U+30E4\U+30FC 1
 62
   178
420
   262144
100
AcDbHatch
 10
0.0
 20
0.0
 30
0.0
210
0.0
220
0.0
230
1.0
  2
SOLID
 70
     1
 71
     0
 91
        1
 92
        1
 93
        1
 72
     4
 94
        3
 73
     0
 74
     1
 95
       41
 96
       37
 40
0.0
 40
0.0
 40
0.0
 40
0.0
 40
1.0
 40
1.0
 40
1.0
 40
2.0
 40
2.0
 40
2.0
 40
3.0
 40
3.0
 40
3.0
 40
4.0
 40
4.0
 40
4.0
 40
5.0
 40
5.0
 40
5.0
 40
6.0
 40
6.0
 40
6.0
 40
7.0
 40
7.0
 40
7.0
 40
8.0
 40
8.0
 40
8.0
 40
9.0
 40
9.0
 40
9.0
 40
10.0
 40
10.0
 40
10.0
 40
11.0
 40
11.0
 40
11.0
 40
12.0
 40
12.0
 40
12.0
 40
12.0
 10
510.0174477891623
 20
-859.1268878060516
 10
509.6564017823081
 20
-860.0722220072042
 10
509.0996743518918
 20
-860.4801213126578
 10
507.9834634146708
 20
-860.4801213126578
 10
507.6499781716986
 20
-860.4801213126578
 10
507.324761157891
 20
-860.4442923196112
 10
506.9912759149188
 20
-860.4139754793409
 10
506.9912759149188
 20
-860.4139754793409
 10
506.9912759149188
 20
-859.0772784310641
 10
506.9912759149188
 20
-859.0772784310641
 10
507.2972003940091
 20
-859.0938148893932
 10
507.6169052550403
 20
-859.1434242643809
 10
507.9366101160714
 20
-859.1268878060516
 10
508.4988496992642
 20
-859.0772784310641
 10
508.6862628936618
 20
-858.4819659312129
 10
508.4988496992642
 20
-858.0161890216071
 10
508.4988496992642
 20
-858.0161890216071
 10
506.4290363317261
 20
-852.4874997868782
 10
506.4290363317261
 20
-852.4874997868782
 10
506.4290363317261
 20
-852.4874997868782
 10
508.1570962271274
 20
-852.4874997868782
 10
508.1570962271274
 20
-852.4874997868782
 10
508.1570962271274
 20
-852.4874997868782
 10
509.4855250462397
 20
-856.5251516955909
 10
509.4855250462397
 20
-856.5251516955909
 10
509.4855250462397
 20
-856.5251516955909
 10
509.5185979628981
 20
-856.5251516955909
 10
509.5185979628981
 20
-856.5251516955909
 10
509.5185979628981
 20
-856.5251516955909
 10
510.7974174070229
 20
-852.4874997868782
 10
510.7974174070229
 20
-852.4874997868782
 10
510.7974174070229
 20
-852.4874997868782
 10
512.4731118510484
 20
-852.4874997868782
 10
512.4731118510484
 20
-852.4874997868782
 10
512.4731118510484
 20
-852.4874997868782
 10
510.0174477891623
 20
-859.1268878060516
 10
510.0174477891623
 20
-859.1268878060516
 97
        0
 75
     2
 76
     1
 98
        0
  0
SPLINE
  5
C0
330
67
100
AcDbEntity
  8
\U+30EC\U+30A4\U+30E4\U+30FC 1
370
     0
100
AcDbSpline
210
0.0
220
0.0
230
1.0
 70
    11
 71
     3
 72
    17
 73
    13
 74
     0
 42
0.0000000001
 43
0.0000000001
 40
0.0
 40
0.0
 40
0.0
 40
0.0
 40
1.0
 40
1.0
 40
1.0
 40
2.0
 40
2.0
 40
2.0
 40
3.0
 40
3.0
 40
3.0
 40
4.0
 40
4.0
 40
4.0
 40
4.0
 10
517.8006075094388
 20
-854.3506074253013
 30
0.0
 10
517.8006075094388
 20
-852.9284720089902
 30
0.0
 10
518.3986760856782
 20
-851.5669702732195
 30
0.0
 10
520.010980772775
 20
-851.5669702732195
 30
0.0
 10
521.6122611543192
 20
-851.5669702732195
 30
0.0
 10
522.2185979597232
 20
-852.9284720089902
 30
0.0
 10
522.2185979597232
 20
-854.3506074253013
 30
0.0
 10
522.2185979597232
 20
-855.7093530846838
 30
0.0
 10
521.6122611543192
 20
-857.0818791260074
 30
0.0
 10
520.010980772775
 20
-857.0818791260074
 30
0.0
 10
518.3986760856782
 20
-857.0818791260074
 30
0.0
 10
517.8006075094388
 20
-855.7093530846838
 30
0.0
 10
517.8006075094388
 20
-854.3506074253013
 30
0.0
  0
SPLINE
  5
C1
330
67
100
AcDbEntity
  8
\U+30EC\U+30A4\U+30E4\U+30FC 1
370
     0
100
AcDbSpline
210
0.0
220
0.0
230
1.0
 70
    11
 71
     3
 72
    17
 73
    13
 74
     0
 42
0.0000000001
 43
0.0000000001
 40
0.0
 40
0.0
 40
0.0
 40
0.0
 40
1.0
 40
1.0
 40
1.0
 40
2.0
 40
2.0
 40
2.0
 40
3.0
 40
3.0
 40
3.0
 40
4.0
 40
4.0
 40
4.0
 40
4.0
 10
516.0091578571088
 20
-854.3506074253013
 30
0.0
 10
516.0091578571088
 20
-856.704296660824
 30
0.0
 10
517.4919269539604
 20
-858.5729164520235
 30
0.0
 10
520.010980772775
 20
-858.5729164520235
 30
0.0
 10
522.5245224388134
 20
-858.5729164520235
 30
0.0
 10
524.0100476120531
 20
-856.704296660824
 30
0.0
 10
524.0100476120531
 20
-854.3506074253013
 30
0.0
 10
524.0100476120531
 20
-851.9445527384028
 30
0.0
 10
522.5245224388134
 20
-850.0593964888741
 30
0.0
 10
520.010980772775
 20
-850.0593964888741
 30
0.0
 10
517.4919269539604
 20
-850.0593964888741
 30
0.0
 10
516.0091578571088
 20
-851.9445527384028
 30
0.0
 10
516.0091578571088
 20
-854.3506074253013
 30
0.0
  0
HATCH
  5
C2
330
67
100
AcDbEntity
  8
\U+30EC\U+30A4\U+30E4\U+30FC 1
 62
   178
420
   262144
100
AcDbHatch
 10
0.0
 20
0.0
 30
0.0
210
0.0
220
0.0
230
1.0
  2
SOLID
 70
     1
 71
     0
 91
        2
 92
        1
 93
        1
 72
     4
 94
        3
 73
     0
 74
     1
 95
       17
 96
       13
 40
0.0
 40
0.0
 40
0.0
 40
0.0
 40
1.0
 40
1.0
 40
1.0
 40
2.0
 40
2.0
 40
2.0
 40
3.0
 40
3.0
 40
3.0
 40
4.0
 40
4.0
 40
4.0
 40
4.0
 10
517.8006075094388
 20
-854.3506074253013
 10
517.8006075094388
 20
-852.9284720089902
 10
518.3986760856782
 20
-851.5669702732195
 10
520.010980772775
 20
-851.5669702732195
 10
521.6122611543192
 20
-851.5669702732195
 10
522.2185979597232
 20
-852.9284720089902
 10
522.2185979597232
 20
-854.3506074253013
 10
522.2185979597232
 20
-855.7093530846838
 10
521.6122611543192
 20
-857.0818791260074
 10
520.010980772775
 20
-857.0818791260074
 10
518.3986760856782
 20
-857.0818791260074
 10
517.8006075094388
 20
-855.7093530846838
 10
517.8006075094388
 20
-854.3506074253013
 97
        0
 92
        1
 93
        1
 72
     4
 94
        3
 73
     0
 74
     1
 95
       17
 96
       13
 40
0.0
 40
0.0
 40
0.0
 40
0.0
 40
1.0
 40
1.0
 40
1.0
 40
2.0
 40
2.0
 40
2.0
 40
3.0
 40
3.0
 40
3.0
 40
4.0
 40
4.0
 40
4.0
 40
4.0
 10
516.0091578571088
 20
-854.3506074253013
 10
516.0091578571088
 20
-856.704296660824
 10
517.4919269539604
 20
-858.5729164520235
 10
520.010980772775
 20
-858.5729164520235
 10
522.5245224388134
 20
-858.5729164520235
 10
524.0100476120531
 20
-856.704296660824
 10
524.0100476120531
 20
-854.3506074253013
 10
524.0100476120531
 20
-851.9445527384028
 10
522.5245224388134
 20
-850.0593964888741
 10
520.010980772775
 20
-850.0593964888741
 10
517.4919269539604
 20
-850.0593964888741
 10
516.0091578571088
 20
-851.9445527384028
 10
516.0091578571088
 20
-854.3506074253013
 97
        0
 75
     2
 76
     1
 98
        0
  0
SPLINE
  5
C3
330
67
100
AcDbEntity
  8
\U+30EC\U+30A4\U+30E4\U+30FC 1
370
     0
100
AcDbSpline
210
0.0
220
0.0
230
1.0
 70
    11
 71
     3
 72
    44
 73
    40
 74
     0
 42
0.0000000001
 43
0.0000000001
 40
0.0
 40
0.0
 40
0.0
 40
0.0
 40
1.0
 40
1.0
 40
1.0
 40
2.0
 40
2.0
 40
2.0
 40
3.0
 40
3.0
 40
3.0
 40
4.0
 40
4.0
 40
4.0
 40
5.0
 40
5.0
 40
5.0
 40
6.0
 40
6.0
 40
6.0
 40
7.0
 40
7.0
 40
7.0
 40
8.0
 40
8.0
 40
8.0
 40
9.0
 40
9.0
 40
9.0
 40
10.0
 40
10.0
 40
10.0
 40
11.0
 40
11.0
 40
11.0
 40
12.0
 40
12.0
 40
12.0
 40
13.0
 40
13.0
 40
13.0
 40
13.0
 10
525.0546005631808
 20
-852.4874997868782
 30
0.0
 10
525.0546005631808
 20
-852.4874997868782
 30
0.0
 10
526.5952472641845
 20
-852.4874997868782
 30
0.0
 10
526.5952472641845
 20
-852.4874997868782
 30
0.0
 10
526.5952472641845
 20
-852.4874997868782
 30
0.0
 10
526.5952472641845
 20
-853.3115666269499
 30
0.0
 10
526.5952472641845
 20
-853.3115666269499
 30
0.0
 10
526.5952472641845
 20
-853.3115666269499
 30
0.0
 10
526.6255641044547
 20
-853.3115666269499
 30
0.0
 10
526.6255641044547
 20
-853.3115666269499
 30
0.0
 10
527.041731639073
 20
-852.6556204465584
 30
0.0
 10
527.747287194452
 20
-852.34693989108
 30
0.0
 10
528.4335502151139
 20
-852.34693989108
 30
0.0
 10
530.1450736521859
 20
-852.34693989108
 30
0.0
 10
530.586045874298
 20
-853.3060544741735
 30
0.0
 10
530.586045874298
 20
-854.7585067307549
 30
0.0
 10
530.586045874298
 20
-854.7585067307549
 30
0.0
 10
530.586045874298
 20
-858.3992836395669
 30
0.0
 10
530.586045874298
 20
-858.3992836395669
 30
0.0
 10
530.586045874298
 20
-858.3992836395669
 30
0.0
 10
528.9654729580365
 20
-858.3992836395669
 30
0.0
 10
528.9654729580365
 20
-858.3992836395669
 30
0.0
 10
528.9654729580365
 20
-858.3992836395669
 30
0.0
 10
528.9654729580365
 20
-855.0616751334568
 30
0.0
 10
528.9654729580365
 20
-855.0616751334568
 30
0.0
 10
528.9654729580365
 20
-854.0915362448105
 30
0.0
 10
528.6815970900518
 20
-853.6147350296519
 30
0.0
 10
527.9291882360733
 20
-853.6147350296519
 30
0.0
 10
527.0499998682375
 20
-853.6147350296519
 30
0.0
 10
526.6779295558306
 20
-854.1080727031397
 30
0.0
 10
526.6779295558306
 20
-855.3042098556184
 30
0.0
 10
526.6779295558306
 20
-855.3042098556184
 30
0.0
 10
526.6779295558306
 20
-858.3992836395669
 30
0.0
 10
526.6779295558306
 20
-858.3992836395669
 30
0.0
 10
526.6779295558306
 20
-858.3992836395669
 30
0.0
 10
525.0546005631808
 20
-858.3992836395669
 30
0.0
 10
525.0546005631808
 20
-858.3992836395669
 30
0.0
 10
525.0546005631808
 20
-858.3992836395669
 30
0.0
 10
525.0546005631808
 20
-852.4874997868782
 30
0.0
 10
525.0546005631808
 20
-852.4874997868782
 30
0.0
  0
HATCH
  5
C4
330
67
100
AcDbEntity
  8
\U+30EC\U+30A4\U+30E4\U+30FC 1
 62
   178
420
   262144
100
AcDbHatch
 10
0.0
 20
0.0
 30
0.0
210
0.0
220
0.0
230
1.0
  2
SOLID
 70
     1
 71
     0
 91
        1
 92
        1
 93
        1
 72
     4
 94
        3
 73
     0
 74
     1
 95
       44
 96
       40
 40
0.0
 40
0.0
 40
0.0
 40
0.0
 40
1.0
 40
1.0
 40
1.0
 40
2.0
 40
2.0
 40
2.0
 40
3.0
 40
3.0
 40
3.0
 40
4.0
 40
4.0
 40
4.0
 40
5.0
 40
5.0
 40
5.0
 40
6.0
 40
6.0
 40
6.0
 40
7.0
 40
7.0
 40
7.0
 40
8.0
 40
8.0
 40
8.0
 40
9.0
 40
9.0
 40
9.0
 40
10.0
 40
10.0
 40
10.0
 40
11.0
 40
11.0
 40
11.0
 40
12.0
 40
12.0
 40
12.0
 40
13.0
 40
13.0
 40
13.0
 40
13.0
 10
525.0546005631808
 20
-852.4874997868782
 10
525.0546005631808
 20
-852.4874997868782
 10
526.5952472641845
 20
-852.4874997868782
 10
526.5952472641845
 20
-852.4874997868782
 10
526.5952472641845
 20
-852.4874997868782
 10
526.5952472641845
 20
-853.3115666269499
 10
526.5952472641845
 20
-853.3115666269499
 10
526.5952472641845
 20
-853.3115666269499
 10
526.6255641044547
 20
-853.3115666269499
 10
526.6255641044547
 20
-853.3115666269499
 10
527.041731639073
 20
-852.6556204465584
 10
527.747287194452
 20
-852.34693989108
 10
528.4335502151139
 20
-852.34693989108
 10
530.1450736521859
 20
-852.34693989108
 10
530.586045874298
 20
-853.3060544741735
 10
530.586045874298
 20
-854.7585067307549
 10
530.586045874298
 20
-854.7585067307549
 10
530.586045874298
 20
-858.3992836395669
 10
530.586045874298
 20
-858.3992836395669
 10
530.586045874298
 20
-858.3992836395669
 10
528.9654729580365
 20
-858.3992836395669
 10
528.9654729580365
 20
-858.3992836395669
 10
528.9654729580365
 20
-858.3992836395669
 10
528.9654729580365
 20
-855.0616751334568
 10
528.9654729580365
 20
-855.0616751334568
 10
528.9654729580365
 20
-854.0915362448105
 10
528.6815970900518
 20
-853.6147350296519
 10
527.9291882360733
 20
-853.6147350296519
 10
527.0499998682375
 20
-853.6147350296519
 10
526.6779295558306
 20
-854.1080727031397
 10
526.6779295558306
 20
-855.3042098556184
 10
526.6779295558306
 20
-855.3042098556184
 10
526.6779295558306
 20
-858.3992836395669
 10
526.6779295558306
 20
-858.3992836395669
 10
526.6779295558306
 20
-858.3992836395669
 10
525.0546005631808
 20
-858.3992836395669
 10
525.0546005631808
 20
-858.3992836395669
 10
525.0546005631808
 20
-858.3992836395669
 10
525.0546005631808
 20
-852.4874997868782
 10
525.0546005631808
 20
-852.4874997868782
 97
        0
 75
     2
 76
     1
 98
        0
  0
POLYLINE
  5
C5
330
67
100
AcDbEntity
  8
\U+30EC\U+30A4\U+30E4\U+30FC 1
370
     0
100
AcDb2dPolyline
 66
     1
 10
0.0
 20
0.0
 30
0.0
  0
VERTEX
  5
C6
330
C5
100
AcDbEntity
  8
\U+30EC\U+30A4\U+30E4\U+30FC 1
370
     0
100
AcDbVertex
100
AcDb2dVertex
 10
531.8510849364817
 20
-850.2495657596598
 30
0.0
  0
VERTEX
  5
C7
330
C5
100
AcDbEntity
  8
\U+30EC\U+30A4\U+30E4\U+30FC 1
370
     0
100
AcDbVertex
100
AcDb2dVertex
 10
533.4799260819078
 20
-850.2495657596598
 30
0.0
  0
VERTEX
  5
C8
330
C5
100
AcDbEntity
  8
\U+30EC\U+30A4\U+30E4\U+30FC 1
370
     0
100
AcDbVertex
100
AcDb2dVertex
 10
533.4799260819078
 20
-858.3992836395669
 30
0.0
  0
VERTEX
  5
C9
330
C5
100
AcDbEntity
  8
\U+30EC\U+30A4\U+30E4\U+30FC 1
370
     0
100
AcDbVertex
100
AcDb2dVertex
 10
531.8510849364817
 20
-858.3992836395669
 30
0.0
  0
VERTEX
  5
CA
330
C5
100
AcDbEntity
  8
\U+30EC\U+30A4\U+30E4\U+30FC 1
370
     0
100
AcDbVertex
100
AcDb2dVertex
 10
531.8510849364817
 20
-850.2495657596598
 30
0.0
  0
SEQEND
  5
CB
330
C5
100
AcDbEntity
  8
\U+30EC\U+30A4\U+30E4\U+30FC 1
370
     0
  0
HATCH
  5
CC
330
67
100
AcDbEntity
  8
\U+30EC\U+30A4\U+30E4\U+30FC 1
 62
   178
420
   262144
100
AcDbHatch
 10
0.0
 20
0.0
 30
0.0
210
0.0
220
0.0
230
1.0
  2
SOLID
 70
     1
 71
     0
 91
        1
 92
        1
 93
        4
 72
     1
 10
531.8510849364817
 20
-850.2495657596598
 11
533.4799260819078
 21
-850.2495657596598
 72
     1
 10
533.4799260819078
 20
-850.2495657596598
 11
533.4799260819078
 21
-858.3992836395669
 72
     1
 10
533.4799260819078
 20
-858.3992836395669
 11
531.8510849364817
 21
-858.3992836395669
 72
     1
 10
531.8510849364817
 20
-858.3992836395669
 11
531.8510849364817
 21
-850.2495657596598
 97
        0
 75
     2
 76
     1
 98
        0
  0
POLYLINE
  5
CD
330
67
100
AcDbEntity
  8
\U+30EC\U+30A4\U+30E4\U+30FC 1
370
     0
100
AcDb2dPolyline
 66
     1
 10
0.0
 20
0.0
 30
0.0
  0
VERTEX
  5
CE
330
CD
100
AcDbEntity
  8
\U+30EC\U+30A4\U+30E4\U+30FC 1
370
     0
100
AcDbVertex
100
AcDb2dVertex
 10
536.4151474353407
 20
-850.2495657596598
 30
0.0
  0
VERTEX
  5
CF
330
CD
100
AcDbEntity
  8
\U+30EC\U+30A4\U+30E4\U+30FC 1
370
     0
100
AcDbVertex
100
AcDb2dVertex
 10
534.7945745190791
 20
-850.2495657596598
 30
0.0
  0
VERTEX
  5
D0
330
CD
100
AcDbEntity
  8
\U+30EC\U+30A4\U+30E4\U+30FC 1
370
     0
100
AcDbVertex
100
AcDb2dVertex
 10
534.7945745190791
 20
-851.5862628079368
 30
0.0
  0
VERTEX
  5
D1
330
CD
100
AcDbEntity
  8
\U+30EC\U+30A4\U+30E4\U+30FC 1
370
     0
100
AcDbVertex
100
AcDb2dVertex
 10
536.4151474353407
 20
-851.5862628079368
 30
0.0
  0
VERTEX
  5
D2
330
CD
100
AcDbEntity
  8
\U+30EC\U+30A4\U+30E4\U+30FC 1
370
     0
100
AcDbVertex
100
AcDb2dVertex
 10
536.4151474353407
 20
-850.2495657596598
 30
0.0
  0
SEQEND
  5
D3
330
CD
100
AcDbEntity
  8
\U+30EC\U+30A4\U+30E4\U+30FC 1
370
     0
  0
POLYLINE
  5
D4
330
67
100
AcDbEntity
  8
\U+30EC\U+30A4\U+30E4\U+30FC 1
370
     0
100
AcDb2dPolyline
 66
     1
 10
0.0
 20
0.0
 30
0.0
  0
VERTEX
  5
D5
330
D4
100
AcDbEntity
  8
\U+30EC\U+30A4\U+30E4\U+30FC 1
370
     0
100
AcDbVertex
100
AcDb2dVertex
 10
534.7945745190791
 20
-858.3992836395669
 30
0.0
  0
VERTEX
  5
D6
330
D4
100
AcDbEntity
  8
\U+30EC\U+30A4\U+30E4\U+30FC 1
370
     0
100
AcDbVertex
100
AcDb2dVertex
 10
536.4151474353407
 20
-858.3992836395669
 30
0.0
  0
VERTEX
  5
D7
330
D4
100
AcDbEntity
  8
\U+30EC\U+30A4\U+30E4\U+30FC 1
370
     0
100
AcDbVertex
100
AcDb2dVertex
 10
536.4151474353407
 20
-852.4874997868782
 30
0.0
  0
VERTEX
  5
D8
330
D4
100
AcDbEntity
  8
\U+30EC\U+30A4\U+30E4\U+30FC 1
370
     0
100
AcDbVertex
100
AcDb2dVertex
 10
534.7945745190791
 20
-852.4874997868782
 30
0.0
  0
VERTEX
  5
D9
330
D4
100
AcDbEntity
  8
\U+30EC\U+30A4\U+30E4\U+30FC 1
370
     0
100
AcDbVertex
100
AcDb2dVertex
 10
534.7945745190791
 20
-858.3992836395669
 30
0.0
  0
SEQEND
  5
DA
330
D4
100
AcDbEntity
  8
\U+30EC\U+30A4\U+30E4\U+30FC 1
370
     0
  0
HATCH
  5
DB
330
67
100
AcDbEntity
  8
\U+30EC\U+30A4\U+30E4\U+30FC 1
 62
   178
420
   262144
100
AcDbHatch
 10
0.0
 20
0.0
 30
0.0
210
0.0
220
0.0
230
1.0
  2
SOLID
 70
     1
 71
     0
 91
        2
 92
        1
 93
        4
 72
     1
 10
536.4151474353407
 20
-850.2495657596598
 11
534.7945745190791
 21
-850.2495657596598
 72
     1
 10
534.7945745190791
 20
-850.2495657596598
 11
534.7945745190791
 21
-851.5862628079368
 72
     1
 10
534.7945745190791
 20
-851.5862628079368
 11
536.4151474353407
 21
-851.5862628079368
 72
     1
 10
536.4151474353407
 20
-851.5862628079368
 11
536.4151474353407
 21
-850.2495657596598
 97
        0
 92
        1
 93
        4
 72
     1
 10
534.7945745190791
 20
-858.3992836395669
 11
536.4151474353407
 21
-858.3992836395669
 72
     1
 10
536.4151474353407
 20
-858.3992836395669
 11
536.4151474353407
 21
-852.4874997868782
 72
     1
 10
536.4151474353407
 20
-852.4874997868782
 11
534.7945745190791
 21
-852.4874997868782
 72
     1
 10
534.7945745190791
 20
-852.4874997868782
 11
534.7945745190791
 21
-858.3992836395669
 97
        0
 75
     2
 76
     1
 98
        0
  0
SPLINE
  5
DC
330
67
100
AcDbEntity
  8
\U+30EC\U+30A4\U+30E4\U+30FC 1
370
     0
100
AcDbSpline
210
0.0
220
0.0
230
1.0
 70
    11
 71
     3
 72
    44
 73
    40
 74
     0
 42
0.0000000001
 43
0.0000000001
 40
0.0
 40
0.0
 40
0.0
 40
0.0
 40
1.0
 40
1.0
 40
1.0
 40
2.0
 40
2.0
 40
2.0
 40
3.0
 40
3.0
 40
3.0
 40
4.0
 40
4.0
 40
4.0
 40
5.0
 40
5.0
 40
5.0
 40
6.0
 40
6.0
 40
6.0
 40
7.0
 40
7.0
 40
7.0
 40
8.0
 40
8.0
 40
8.0
 40
9.0
 40
9.0
 40
9.0
 40
10.0
 40
10.0
 40
10.0
 40
11.0
 40
11.0
 40
11.0
 40
12.0
 40
12.0
 40
12.0
 40
13.0
 40
13.0
 40
13.0
 40
13.0
 10
537.6967229558536
 20
-852.4874997868782
 30
0.0
 10
537.6967229558536
 20
-852.4874997868782
 30
0.0
 10
539.2373696568574
 20
-852.4874997868782
 30
0.0
 10
539.2373696568574
 20
-852.4874997868782
 30
0.0
 10
539.2373696568574
 20
-852.4874997868782
 30
0.0
 10
539.2373696568574
 20
-853.3115666269499
 30
0.0
 10
539.2373696568574
 20
-853.3115666269499
 30
0.0
 10
539.2373696568574
 20
-853.3115666269499
 30
0.0
 10
539.2704425735158
 20
-853.3115666269499
 30
0.0
 10
539.2704425735158
 20
-853.3115666269499
 30
0.0
 10
539.6838540317457
 20
-852.6556204465584
 30
0.0
 10
540.3894095871249
 20
-852.34693989108
 30
0.0
 10
541.0646483022339
 20
-852.34693989108
 30
0.0
 10
542.7927081976352
 20
-852.34693989108
 30
0.0
 10
543.2226561141944
 20
-853.3060544741735
 30
0.0
 10
543.2226561141944
 20
-854.7585067307549
 30
0.0
 10
543.2226561141944
 20
-854.7585067307549
 30
0.0
 10
543.2226561141944
 20
-858.3992836395669
 30
0.0
 10
543.2226561141944
 20
-858.3992836395669
 30
0.0
 10
543.2226561141944
 20
-858.3992836395669
 30
0.0
 10
541.6048392743211
 20
-858.3992836395669
 30
0.0
 10
541.6048392743211
 20
-858.3992836395669
 30
0.0
 10
541.6048392743211
 20
-858.3992836395669
 30
0.0
 10
541.6048392743211
 20
-855.0616751334568
 30
0.0
 10
541.6048392743211
 20
-855.0616751334568
 30
0.0
 10
541.6048392743211
 20
-854.0915362448105
 30
0.0
 10
541.3182073299482
 20
-853.6147350296519
 30
0.0
 10
540.5602863231933
 20
-853.6147350296519
 30
0.0
 10
539.6948783372985
 20
-853.6147350296519
 30
0.0
 10
539.3172958721151
 20
-854.1080727031397
 30
0.0
 10
539.3172958721151
 20
-855.3042098556184
 30
0.0
 10
539.3172958721151
 20
-855.3042098556184
 30
0.0
 10
539.3172958721151
 20
-858.3992836395669
 30
0.0
 10
539.3172958721151
 20
-858.3992836395669
 30
0.0
 10
539.3172958721151
 20
-858.3992836395669
 30
0.0
 10
537.6967229558536
 20
-858.3992836395669
 30
0.0
 10
537.6967229558536
 20
-858.3992836395669
 30
0.0
 10
537.6967229558536
 20
-858.3992836395669
 30
0.0
 10
537.6967229558536
 20
-852.4874997868782
 30
0.0
 10
537.6967229558536
 20
-852.4874997868782
 30
0.0
  0
HATCH
  5
DD
330
67
100
AcDbEntity
  8
\U+30EC\U+30A4\U+30E4\U+30FC 1
 62
   178
420
   262144
100
AcDbHatch
 10
0.0
 20
0.0
 30
0.0
210
0.0
220
0.0
230
1.0
  2
SOLID
 70
     1
 71
     0
 91
        1
 92
        1
 93
        1
 72
     4
 94
        3
 73
     0
 74
     1
 95
       44
 96
       40
 40
0.0
 40
0.0
 40
0.0
 40
0.0
 40
1.0
 40
1.0
 40
1.0
 40
2.0
 40
2.0
 40
2.0
 40
3.0
 40
3.0
 40
3.0
 40
4.0
 40
4.0
 40
4.0
 40
5.0
 40
5.0
 40
5.0
 40
6.0
 40
6.0
 40
6.0
 40
7.0
 40
7.0
 40
7.0
 40
8.0
 40
8.0
 40
8.0
 40
9.0
 40
9.0
 40
9.0
 40
10.0
 40
10.0
 40
10.0
 40
11.0
 40
11.0
 40
11.0
 40
12.0
 40
12.0
 40
12.0
 40
13.0
 40
13.0
 40
13.0
 40
13.0
 10
537.6967229558536
 20
-852.4874997868782
 10
537.6967229558536
 20
-852.4874997868782
 10
539.2373696568574
 20
-852.4874997868782
 10
539.2373696568574
 20
-852.4874997868782
 10
539.2373696568574
 20
-852.4874997868782
 10
539.2373696568574
 20
-853.3115666269499
 10
539.2373696568574
 20
-853.3115666269499
 10
539.2373696568574
 20
-853.3115666269499
 10
539.2704425735158
 20
-853.3115666269499
 10
539.2704425735158
 20
-853.3115666269499
 10
539.6838540317457
 20
-852.6556204465584
 10
540.3894095871249
 20
-852.34693989108
 10
541.0646483022339
 20
-852.34693989108
 10
542.7927081976352
 20
-852.34693989108
 10
543.2226561141944
 20
-853.3060544741735
 10
543.2226561141944
 20
-854.7585067307549
 10
543.2226561141944
 20
-854.7585067307549
 10
543.2226561141944
 20
-858.3992836395669
 10
543.2226561141944
 20
-858.3992836395669
 10
543.2226561141944
 20
-858.3992836395669
 10
541.6048392743211
 20
-858.3992836395669
 10
541.6048392743211
 20
-858.3992836395669
 10
541.6048392743211
 20
-858.3992836395669
 10
541.6048392743211
 20
-855.0616751334568
 10
541.6048392743211
 20
-855.0616751334568
 10
541.6048392743211
 20
-854.0915362448105
 10
541.3182073299482
 20
-853.6147350296519
 10
540.5602863231933
 20
-853.6147350296519
 10
539.6948783372985
 20
-853.6147350296519
 10
539.3172958721151
 20
-854.1080727031397
 10
539.3172958721151
 20
-855.3042098556184
 10
539.3172958721151
 20
-855.3042098556184
 10
539.3172958721151
 20
-858.3992836395669
 10
539.3172958721151
 20
-858.3992836395669
 10
539.3172958721151
 20
-858.3992836395669
 10
537.6967229558536
 20
-858.3992836395669
 10
537.6967229558536
 20
-858.3992836395669
 10
537.6967229558536
 20
-858.3992836395669
 10
537.6967229558536
 20
-852.4874997868782
 10
537.6967229558536
 20
-852.4874997868782
 97
        0
 75
     2
 76
     1
 98
        0
  0
SPLINE
  5
DE
330
67
100
AcDbEntity
  8
\U+30EC\U+30A4\U+30E4\U+30FC 1
370
     0
100
AcDbSpline
210
0.0
220
0.0
230
1.0
 70
    11
 71
     3
 72
    14
 73
    10
 74
     0
 42
0.0000000001
 43
0.0000000001
 40
0.0
 40
0.0
 40
0.0
 40
0.0
 40
1.0
 40
1.0
 40
1.0
 40
2.0
 40
2.0
 40
2.0
 40
3.0
 40
3.0
 40
3.0
 40
3.0
 10
545.7802950024438
 20
-854.8136282585189
 30
0.0
 10
545.8133679191022
 20
-854.3506074253013
 30
0.0
 10
546.1082680926396
 20
-853.5541013491115
 30
0.0
 10
547.1252602798854
 20
-853.5541013491115
 30
0.0
 10
547.9107420505223
 20
-853.5541013491115
 30
0.0
 10
548.2745441337647
 20
-853.9812931892825
 30
0.0
 10
548.4206161823394
 20
-854.8136282585189
 30
0.0
 10
548.4206161823394
 20
-854.8136282585189
 30
0.0
 10
545.7802950024438
 20
-854.8136282585189
 30
0.0
 10
545.7802950024438
 20
-854.8136282585189
 30
0.0
  0
SPLINE
  5
DF
330
67
100
AcDbEntity
  8
\U+30EC\U+30A4\U+30E4\U+30FC 1
370
     0
100
AcDbSpline
210
0.0
220
0.0
230
1.0
 70
    11
 71
     3
 72
    29
 73
    25
 74
     0
 42
0.0000000001
 43
0.0000000001
 40
0.0
 40
0.0
 40
0.0
 40
0.0
 40
1.0
 40
1.0
 40
1.0
 40
2.0
 40
2.0
 40
2.0
 40
3.0
 40
3.0
 40
3.0
 40
4.0
 40
4.0
 40
4.0
 40
5.0
 40
5.0
 40
5.0
 40
6.0
 40
6.0
 40
6.0
 40
7.0
 40
7.0
 40
7.0
 40
8.0
 40
8.0
 40
8.0
 40
8.0
 10
550.0411890986009
 20
-855.836132598541
 30
0.0
 10
550.1514321541289
 20
-854.0226343351055
 30
0.0
 10
549.1757811127061
 20
-852.34693989108
 30
0.0
 10
547.1803818076494
 20
-852.34693989108
 30
0.0
 10
545.3944443080959
 20
-852.34693989108
 30
0.0
 10
544.1652342389588
 20
-853.6836369393569
 30
0.0
 10
544.1652342389588
 20
-855.4447697514166
 30
0.0
 10
544.1652342389588
 20
-857.2803166259578
 30
0.0
 10
545.3172741692263
 20
-858.5425996117533
 30
0.0
 10
547.1803818076494
 20
-858.5425996117533
 30
0.0
 10
548.5088106267617
 20
-858.5425996117533
 30
0.0
 10
549.4817055917963
 20
-857.9527992646786
 30
0.0
 10
549.9309460430728
 20
-856.5692489178022
 30
0.0
 10
549.9309460430728
 20
-856.5692489178022
 30
0.0
 10
548.5088106267617
 20
-856.5692489178022
 30
0.0
 10
548.5088106267617
 20
-856.5692489178022
 30
0.0
 10
548.4123479531747
 20
-856.9275388482681
 30
0.0
 10
547.891449515805
 20
-857.3299260009453
 30
0.0
 10
547.2355033354133
 20
-857.3299260009453
 30
0.0
 10
546.3259981273075
 20
-857.3299260009453
 30
0.0
 10
545.8299043774315
 20
-856.8613930149513
 30
0.0
 10
545.7802950024438
 20
-855.836132598541
 30
0.0
 10
545.7802950024438
 20
-855.836132598541
 30
0.0
 10
550.0411890986009
 20
-855.836132598541
 30
0.0
 10
550.0411890986009
 20
-855.836132598541
 30
0.0
  0
HATCH
  5
E0
330
67
100
AcDbEntity
  8
\U+30EC\U+30A4\U+30E4\U+30FC 1
 62
   178
420
   262144
100
AcDbHatch
 10
0.0
 20
0.0
 30
0.0
210
0.0
220
0.0
230
1.0
  2
SOLID
 70
     1
 71
     0
 91
        2
 92
        1
 93
        1
 72
     4
 94
        3
 73
     0
 74
     1
 95
       14
 96
       10
 40
0.0
 40
0.0
 40
0.0
 40
0.0
 40
1.0
 40
1.0
 40
1.0
 40
2.0
 40
2.0
 40
2.0
 40
3.0
 40
3.0
 40
3.0
 40
3.0
 10
545.7802950024438
 20
-854.8136282585189
 10
545.8133679191022
 20
-854.3506074253013
 10
546.1082680926396
 20
-853.5541013491115
 10
547.1252602798854
 20
-853.5541013491115
 10
547.9107420505223
 20
-853.5541013491115
 10
548.2745441337647
 20
-853.9812931892825
 10
548.4206161823394
 20
-854.8136282585189
 10
548.4206161823394
 20
-854.8136282585189
 10
545.7802950024438
 20
-854.8136282585189
 10
545.7802950024438
 20
-854.8136282585189
 97
        0
 92
        1
 93
        1
 72
     4
 94
        3
 73
     0
 74
     1
 95
       29
 96
       25
 40
0.0
 40
0.0
 40
0.0
 40
0.0
 40
1.0
 40
1.0
 40
1.0
 40
2.0
 40
2.0
 40
2.0
 40
3.0
 40
3.0
 40
3.0
 40
4.0
 40
4.0
 40
4.0
 40
5.0
 40
5.0
 40
5.0
 40
6.0
 40
6.0
 40
6.0
 40
7.0
 40
7.0
 40
7.0
 40
8.0
 40
8.0
 40
8.0
 40
8.0
 10
550.0411890986009
 20
-855.836132598541
 10
550.1514321541289
 20
-854.0226343351055
 10
549.1757811127061
 20
-852.34693989108
 10
547.1803818076494
 20
-852.34693989108
 10
545.3944443080959
 20
-852.34693989108
 10
544.1652342389588
 20
-853.6836369393569
 10
544.1652342389588
 20
-855.4447697514166
 10
544.1652342389588
 20
-857.2803166259578
 10
545.3172741692263
 20
-858.5425996117533
 10
547.1803818076494
 20
-858.5425996117533
 10
548.5088106267617
 20
-858.5425996117533
 10
549.4817055917963
 20
-857.9527992646786
 10
549.9309460430728
 20
-856.5692489178022
 10
549.9309460430728
 20
-856.5692489178022
 10
548.5088106267617
 20
-856.5692489178022
 10
548.5088106267617
 20
-856.5692489178022
 10
548.4123479531747
 20
-856.9275388482681
 10
547.891449515805
 20
-857.3299260009453
 10
547.2355033354133
 20
-857.3299260009453
 10
546.3259981273075
 20
-857.3299260009453
 10
545.8299043774315
 20
-856.8613930149513
 10
545.7802950024438
 20
-855.836132598541
 10
545.7802950024438
 20
-855.836132598541
 10
550.0411890986009
 20
-855.836132598541
 10
550.0411890986009
 20
-855.836132598541
 97
        0
 75
     2
 76
     1
 98
        0
  0
SPLINE
  5
E1
330
67
100
AcDbEntity
  8
\U+30EC\U+30A4\U+30E4\U+30FC 1
370
     0
100
AcDbSpline
210
0.0
220
0.0
230
1.0
 70
    11
 71
     3
 72
    47
 73
    43
 74
     0
 42
0.0000000001
 43
0.0000000001
 40
0.0
 40
0.0
 40
0.0
 40
0.0
 40
1.0
 40
1.0
 40
1.0
 40
2.0
 40
2.0
 40
2.0
 40
3.0
 40
3.0
 40
3.0
 40
4.0
 40
4.0
 40
4.0
 40
5.0
 40
5.0
 40
5.0
 40
6.0
 40
6.0
 40
6.0
 40
7.0
 40
7.0
 40
7.0
 40
8.0
 40
8.0
 40
8.0
 40
9.0
 40
9.0
 40
9.0
 40
10.0
 40
10.0
 40
10.0
 40
11.0
 40
11.0
 40
11.0
 40
12.0
 40
12.0
 40
12.0
 40
13.0
 40
13.0
 40
13.0
 40
14.0
 40
14.0
 40
14.0
 40
14.0
 10
555.5533418750006
 20
-855.6873044735783
 30
0.0
 10
555.5533418750006
 20
-856.7759546469172
 30
0.0
 10
556.399457326178
 20
-857.1921221815353
 30
0.0
 10
557.3530597564951
 20
-857.1921221815353
 30
0.0
 10
557.9842012493929
 20
-857.1921221815353
 30
0.0
 10
558.9295354505455
 20
-857.0102211399142
 30
0.0
 10
558.9295354505455
 20
-856.1751299942896
 30
0.0
 10
558.9295354505455
 20
-855.3042098556184
 30
0.0
 10
557.7141057633493
 20
-855.1498695778793
 30
0.0
 10
556.5289929164234
 20
-854.8246525640717
 30
0.0
 10
555.3135632292272
 20
-854.5132159322051
 30
0.0
 10
554.0953774656429
 20
-854.0474390225993
 30
0.0
 10
554.0953774656429
 20
-852.512304474372
 30
0.0
 10
554.0953774656429
 20
-850.8503904122874
 30
0.0
 10
555.669097083305
 20
-850.0593964888741
 30
0.0
 10
557.1325736454392
 20
-850.0593964888741
 30
0.0
 10
558.8358288533466
 20
-850.0593964888741
 30
0.0
 10
560.3957680890677
 20
-850.7925128081353
 30
0.0
 10
560.3957680890677
 20
-852.6859372868286
 30
0.0
 10
560.3957680890677
 20
-852.6859372868286
 30
0.0
 10
558.6677081936664
 20
-852.6859372868286
 30
0.0
 10
558.6677081936664
 20
-852.6859372868286
 30
0.0
 10
558.6043184367378
 20
-851.6965058634648
 30
0.0
 10
557.9070311105232
 20
-851.4429468357504
 30
0.0
 10
557.0609156593459
 20
-851.4429468357504
 30
0.0
 10
556.4986760761532
 20
-851.4429468357504
 30
0.0
 10
555.8234373610442
 20
-851.6799694051356
 30
0.0
 10
555.8234373610442
 20
-852.3662324257974
 30
0.0
 10
555.8234373610442
 20
-852.9973739186952
 30
0.0
 10
556.2175562845567
 20
-853.0717879811765
 30
0.0
 10
558.2542967354365
 20
-853.5981985713227
 30
0.0
 10
558.8523653116758
 20
-853.7470266962855
 30
0.0
 10
560.6713757278877
 20
-854.1301213142452
 30
0.0
 10
560.6713757278877
 20
-855.973936417951
 30
0.0
 10
560.6713757278877
 20
-857.4567055148025
 30
0.0
 10
559.4917750337382
 20
-858.5729164520235
 30
0.0
 10
557.2896699995665
 20
-858.5729164520235
 30
0.0
 10
555.489952118072
 20
-858.5729164520235
 30
0.0
 10
553.7949651393291
 20
-857.6964841605759
 30
0.0
 10
553.8197698268228
 20
-855.6873044735783
 30
0.0
 10
553.8197698268228
 20
-855.6873044735783
 30
0.0
 10
555.5533418750006
 20
-855.6873044735783
 30
0.0
 10
555.5533418750006
 20
-855.6873044735783
 30
0.0
  0
HATCH
  5
E2
330
67
100
AcDbEntity
  8
\U+30EC\U+30A4\U+30E4\U+30FC 1
 62
   178
420
   262144
100
AcDbHatch
 10
0.0
 20
0.0
 30
0.0
210
0.0
220
0.0
230
1.0
  2
SOLID
 70
     1
 71
     0
 91
        1
 92
        1
 93
        1
 72
     4
 94
        3
 73
     0
 74
     1
 95
       47
 96
       43
 40
0.0
 40
0.0
 40
0.0
 40
0.0
 40
1.0
 40
1.0
 40
1.0
 40
2.0
 40
2.0
 40
2.0
 40
3.0
 40
3.0
 40
3.0
 40
4.0
 40
4.0
 40
4.0
 40
5.0
 40
5.0
 40
5.0
 40
6.0
 40
6.0
 40
6.0
 40
7.0
 40
7.0
 40
7.0
 40
8.0
 40
8.0
 40
8.0
 40
9.0
 40
9.0
 40
9.0
 40
10.0
 40
10.0
 40
10.0
 40
11.0
 40
11.0
 40
11.0
 40
12.0
 40
12.0
 40
12.0
 40
13.0
 40
13.0
 40
13.0
 40
14.0
 40
14.0
 40
14.0
 40
14.0
 10
555.5533418750006
 20
-855.6873044735783
 10
555.5533418750006
 20
-856.7759546469172
 10
556.399457326178
 20
-857.1921221815353
 10
557.3530597564951
 20
-857.1921221815353
 10
557.9842012493929
 20
-857.1921221815353
 10
558.9295354505455
 20
-857.0102211399142
 10
558.9295354505455
 20
-856.1751299942896
 10
558.9295354505455
 20
-855.3042098556184
 10
557.7141057633493
 20
-855.1498695778793
 10
556.5289929164234
 20
-854.8246525640717
 10
555.3135632292272
 20
-854.5132159322051
 10
554.0953774656429
 20
-854.0474390225993
 10
554.0953774656429
 20
-852.512304474372
 10
554.0953774656429
 20
-850.8503904122874
 10
555.669097083305
 20
-850.0593964888741
 10
557.1325736454392
 20
-850.0593964888741
 10
558.8358288533466
 20
-850.0593964888741
 10
560.3957680890677
 20
-850.7925128081353
 10
560.3957680890677
 20
-852.6859372868286
 10
560.3957680890677
 20
-852.6859372868286
 10
558.6677081936664
 20
-852.6859372868286
 10
558.6677081936664
 20
-852.6859372868286
 10
558.6043184367378
 20
-851.6965058634648
 10
557.9070311105232
 20
-851.4429468357504
 10
557.0609156593459
 20
-851.4429468357504
 10
556.4986760761532
 20
-851.4429468357504
 10
555.8234373610442
 20
-851.6799694051356
 10
555.8234373610442
 20
-852.3662324257974
 10
555.8234373610442
 20
-852.9973739186952
 10
556.2175562845567
 20
-853.0717879811765
 10
558.2542967354365
 20
-853.5981985713227
 10
558.8523653116758
 20
-853.7470266962855
 10
560.6713757278877
 20
-854.1301213142452
 10
560.6713757278877
 20
-855.973936417951
 10
560.6713757278877
 20
-857.4567055148025
 10
559.4917750337382
 20
-858.5729164520235
 10
557.2896699995665
 20
-858.5729164520235
 10
555.489952118072
 20
-858.5729164520235
 10
553.7949651393291
 20
-857.6964841605759
 10
553.8197698268228
 20
-855.6873044735783
 10
553.8197698268228
 20
-855.6873044735783
 10
555.5533418750006
 20
-855.6873044735783
 10
555.5533418750006
 20
-855.6873044735783
 97
        0
 75
     2
 76
     1
 98
        0
  0
SPLINE
  5
E3
330
67
100
AcDbEntity
  8
\U+30EC\U+30A4\U+30E4\U+30FC 1
370
     0
100
AcDbSpline
210
0.0
220
0.0
230
1.0
 70
    11
 71
     3
 72
    44
 73
    40
 74
     0
 42
0.0000000001
 43
0.0000000001
 40
0.0
 40
0.0
 40
0.0
 40
0.0
 40
1.0
 40
1.0
 40
1.0
 40
2.0
 40
2.0
 40
2.0
 40
3.0
 40
3.0
 40
3.0
 40
4.0
 40
4.0
 40
4.0
 40
5.0
 40
5.0
 40
5.0
 40
6.0
 40
6.0
 40
6.0
 40
7.0
 40
7.0
 40
7.0
 40
8.0
 40
8.0
 40
8.0
 40
9.0
 40
9.0
 40
9.0
 40
10.0
 40
10.0
 40
10.0
 40
11.0
 40
11.0
 40
11.0
 40
12.0
 40
12.0
 40
12.0
 40
13.0
 40
13.0
 40
13.0
 40
13.0
 10
561.558832324888
 20
-850.2495657596598
 30
0.0
 10
561.558832324888
 20
-850.2495657596598
 30
0.0
 10
563.1738930883732
 20
-850.2495657596598
 30
0.0
 10
563.1738930883732
 20
-850.2495657596598
 30
0.0
 10
563.1738930883732
 20
-850.2495657596598
 30
0.0
 10
563.1738930883732
 20
-853.3115666269499
 30
0.0
 10
563.1738930883732
 20
-853.3115666269499
 30
0.0
 10
563.1738930883732
 20
-853.3115666269499
 30
0.0
 10
563.2097220814198
 20
-853.3115666269499
 30
0.0
 10
563.2097220814198
 20
-853.3115666269499
 30
0.0
 10
563.6286456924262
 20
-852.6556204465584
 30
0.0
 10
564.3259330186407
 20
-852.34693989108
 30
0.0
 10
564.9377819768212
 20
-852.34693989108
 30
0.0
 10
566.6548175666696
 20
-852.34693989108
 30
0.0
 10
567.0930337123934
 20
-853.3060544741735
 30
0.0
 10
567.0930337123934
 20
-854.7585067307549
 30
0.0
 10
567.0930337123934
 20
-854.7585067307549
 30
0.0
 10
567.0930337123934
 20
-858.3992836395669
 30
0.0
 10
567.0930337123934
 20
-858.3992836395669
 30
0.0
 10
567.0930337123934
 20
-858.3992836395669
 30
0.0
 10
565.4724607961319
 20
-858.3992836395669
 30
0.0
 10
565.4724607961319
 20
-858.3992836395669
 30
0.0
 10
565.4724607961319
 20
-858.3992836395669
 30
0.0
 10
565.4724607961319
 20
-855.0616751334568
 30
0.0
 10
565.4724607961319
 20
-855.0616751334568
 30
0.0
 10
565.4724607961319
 20
-854.0915362448105
 30
0.0
 10
565.1940970809237
 20
-853.6147350296519
 30
0.0
 10
564.4334199977806
 20
-853.6147350296519
 30
0.0
 10
563.5597437827212
 20
-853.6147350296519
 30
0.0
 10
563.1738930883732
 20
-854.1080727031397
 30
0.0
 10
563.1738930883732
 20
-855.3042098556184
 30
0.0
 10
563.1738930883732
 20
-855.3042098556184
 30
0.0
 10
563.1738930883732
 20
-858.3992836395669
 30
0.0
 10
563.1738930883732
 20
-858.3992836395669
 30
0.0
 10
563.1738930883732
 20
-858.3992836395669
 30
0.0
 10
561.558832324888
 20
-858.3992836395669
 30
0.0
 10
561.558832324888
 20
-858.3992836395669
 30
0.0
 10
561.558832324888
 20
-858.3992836395669
 30
0.0
 10
561.558832324888
 20
-850.2495657596598
 30
0.0
 10
561.558832324888
 20
-850.2495657596598
 30
0.0
  0
HATCH
  5
E4
330
67
100
AcDbEntity
  8
\U+30EC\U+30A4\U+30E4\U+30FC 1
 62
   178
420
   262144
100
AcDbHatch
 10
0.0
 20
0.0
 30
0.0
210
0.0
220
0.0
230
1.0
  2
SOLID
 70
     1
 71
     0
 91
        1
 92
        1
 93
        1
 72
     4
 94
        3
 73
     0
 74
     1
 95
       44
 96
       40
 40
0.0
 40
0.0
 40
0.0
 40
0.0
 40
1.0
 40
1.0
 40
1.0
 40
2.0
 40
2.0
 40
2.0
 40
3.0
 40
3.0
 40
3.0
 40
4.0
 40
4.0
 40
4.0
 40
5.0
 40
5.0
 40
5.0
 40
6.0
 40
6.0
 40
6.0
 40
7.0
 40
7.0
 40
7.0
 40
8.0
 40
8.0
 40
8.0
 40
9.0
 40
9.0
 40
9.0
 40
10.0
 40
10.0
 40
10.0
 40
11.0
 40
11.0
 40
11.0
 40
12.0
 40
12.0
 40
12.0
 40
13.0
 40
13.0
 40
13.0
 40
13.0
 10
561.558832324888
 20
-850.2495657596598
 10
561.558832324888
 20
-850.2495657596598
 10
563.1738930883732
 20
-850.2495657596598
 10
563.1738930883732
 20
-850.2495657596598
 10
563.1738930883732
 20
-850.2495657596598
 10
563.1738930883732
 20
-853.3115666269499
 10
563.1738930883732
 20
-853.3115666269499
 10
563.1738930883732
 20
-853.3115666269499
 10
563.2097220814198
 20
-853.3115666269499
 10
563.2097220814198
 20
-853.3115666269499
 10
563.6286456924262
 20
-852.6556204465584
 10
564.3259330186407
 20
-852.34693989108
 10
564.9377819768212
 20
-852.34693989108
 10
566.6548175666696
 20
-852.34693989108
 10
567.0930337123934
 20
-853.3060544741735
 10
567.0930337123934
 20
-854.7585067307549
 10
567.0930337123934
 20
-854.7585067307549
 10
567.0930337123934
 20
-858.3992836395669
 10
567.0930337123934
 20
-858.3992836395669
 10
567.0930337123934
 20
-858.3992836395669
 10
565.4724607961319
 20
-858.3992836395669
 10
565.4724607961319
 20
-858.3992836395669
 10
565.4724607961319
 20
-858.3992836395669
 10
565.4724607961319
 20
-855.0616751334568
 10
565.4724607961319
 20
-855.0616751334568
 10
565.4724607961319
 20
-854.0915362448105
 10
565.1940970809237
 20
-853.6147350296519
 10
564.4334199977806
 20
-853.6147350296519
 10
563.5597437827212
 20
-853.6147350296519
 10
563.1738930883732
 20
-854.1080727031397
 10
563.1738930883732
 20
-855.3042098556184
 10
563.1738930883732
 20
-855.3042098556184
 10
563.1738930883732
 20
-858.3992836395669
 10
563.1738930883732
 20
-858.3992836395669
 10
563.1738930883732
 20
-858.3992836395669
 10
561.558832324888
 20
-858.3992836395669
 10
561.558832324888
 20
-858.3992836395669
 10
561.558832324888
 20
-858.3992836395669
 10
561.558832324888
 20
-850.2495657596598
 10
561.558832324888
 20
-850.2495657596598
 97
        0
 75
     2
 76
     1
 98
        0
  0
SPLINE
  5
E5
330
67
100
AcDbEntity
  8
\U+30EC\U+30A4\U+30E4\U+30FC 1
370
     0
100
AcDbSpline
210
0.0
220
0.0
230
1.0
 70
    11
 71
     3
 72
    17
 73
    13
 74
     0
 42
0.0000000001
 43
0.0000000001
 40
0.0
 40
0.0
 40
0.0
 40
0.0
 40
1.0
 40
1.0
 40
1.0
 40
2.0
 40
2.0
 40
2.0
 40
3.0
 40
3.0
 40
3.0
 40
4.0
 40
4.0
 40
4.0
 40
4.0
 10
569.7498913506181
 20
-855.4447697514166
 30
0.0
 10
569.7498913506181
 20
-854.4966794738758
 30
0.0
 10
570.0778644408139
 20
-853.5541013491115
 30
0.0
 10
571.1720267669292
 20
-853.5541013491115
 30
0.0
 10
572.2772133985974
 20
-853.5541013491115
 30
0.0
 10
572.6079425651814
 20
-854.4966794738758
 30
0.0
 10
572.6079425651814
 20
-855.4447697514166
 30
0.0
 10
572.6079425651814
 20
-856.3763235706282
 30
0.0
 10
572.2772133985974
 20
-857.3299260009453
 30
0.0
 10
571.1720267669292
 20
-857.3299260009453
 30
0.0
 10
570.0778644408139
 20
-857.3299260009453
 30
0.0
 10
569.7498913506181
 20
-856.3763235706282
 30
0.0
 10
569.7498913506181
 20
-855.4447697514166
 30
0.0
  0
SPLINE
  5
E6
330
67
100
AcDbEntity
  8
\U+30EC\U+30A4\U+30E4\U+30FC 1
370
     0
100
AcDbSpline
210
0.0
220
0.0
230
1.0
 70
    11
 71
     3
 72
    17
 73
    13
 74
     0
 42
0.0000000001
 43
0.0000000001
 40
0.0
 40
0.0
 40
0.0
 40
0.0
 40
1.0
 40
1.0
 40
1.0
 40
2.0
 40
2.0
 40
2.0
 40
3.0
 40
3.0
 40
3.0
 40
4.0
 40
4.0
 40
4.0
 40
4.0
 10
568.1375866635212
 20
-855.4447697514166
 30
0.0
 10
568.1375866635212
 20
-857.3271699245571
 30
0.0
 10
569.3309677396118
 20
-858.5425996117533
 30
0.0
 10
571.1720267669292
 20
-858.5425996117533
 30
0.0
 10
573.0296222525759
 20
-858.5425996117533
 30
0.0
 10
574.2257594050546
 20
-857.3271699245571
 30
0.0
 10
574.2257594050546
 20
-855.4447697514166
 30
0.0
 10
574.2257594050546
 20
-853.5541013491115
 30
0.0
 10
573.0296222525759
 20
-852.34693989108
 30
0.0
 10
571.1720267669292
 20
-852.34693989108
 30
0.0
 10
569.3309677396118
 20
-852.34693989108
 30
0.0
 10
568.1375866635212
 20
-853.5541013491115
 30
0.0
 10
568.1375866635212
 20
-855.4447697514166
 30
0.0
  0
HATCH
  5
E7
330
67
100
AcDbEntity
  8
\U+30EC\U+30A4\U+30E4\U+30FC 1
 62
   178
420
   262144
100
AcDbHatch
 10
0.0
 20
0.0
 30
0.0
210
0.0
220
0.0
230
1.0
  2
SOLID
 70
     1
 71
     0
 91
        2
 92
        1
 93
        1
 72
     4
 94
        3
 73
     0
 74
     1
 95
       17
 96
       13
 40
0.0
 40
0.0
 40
0.0
 40
0.0
 40
1.0
 40
1.0
 40
1.0
 40
2.0
 40
2.0
 40
2.0
 40
3.0
 40
3.0
 40
3.0
 40
4.0
 40
4.0
 40
4.0
 40
4.0
 10
569.7498913506181
 20
-855.4447697514166
 10
569.7498913506181
 20
-854.4966794738758
 10
570.0778644408139
 20
-853.5541013491115
 10
571.1720267669292
 20
-853.5541013491115
 10
572.2772133985974
 20
-853.5541013491115
 10
572.6079425651814
 20
-854.4966794738758
 10
572.6079425651814
 20
-855.4447697514166
 10
572.6079425651814
 20
-856.3763235706282
 10
572.2772133985974
 20
-857.3299260009453
 10
571.1720267669292
 20
-857.3299260009453
 10
570.0778644408139
 20
-857.3299260009453
 10
569.7498913506181
 20
-856.3763235706282
 10
569.7498913506181
 20
-855.4447697514166
 97
        0
 92
        1
 93
        1
 72
     4
 94
        3
 73
     0
 74
     1
 95
       17
 96
       13
 40
0.0
 40
0.0
 40
0.0
 40
0.0
 40
1.0
 40
1.0
 40
1.0
 40
2.0
 40
2.0
 40
2.0
 40
3.0
 40
3.0
 40
3.0
 40
4.0
 40
4.0
 40
4.0
 40
4.0
 10
568.1375866635212
 20
-855.4447697514166
 10
568.1375866635212
 20
-857.3271699245571
 10
569.3309677396118
 20
-858.5425996117533
 10
571.1720267669292
 20
-858.5425996117533
 10
573.0296222525759
 20
-858.5425996117533
 10
574.2257594050546
 20
-857.3271699245571
 10
574.2257594050546
 20
-855.4447697514166
 10
574.2257594050546
 20
-853.5541013491115
 10
573.0296222525759
 20
-852.34693989108
 10
571.1720267669292
 20
-852.34693989108
 10
569.3309677396118
 20
-852.34693989108
 10
568.1375866635212
 20
-853.5541013491115
 10
568.1375866635212
 20
-855.4447697514166
 97
        0
 75
     2
 76
     1
 98
        0
  0
SPLINE
  5
E8
330
67
100
AcDbEntity
  8
\U+30EC\U+30A4\U+30E4\U+30FC 1
370
     0
100
AcDbSpline
210
0.0
220
0.0
230
1.0
 70
    11
 71
     3
 72
    17
 73
    13
 74
     0
 42
0.0000000001
 43
0.0000000001
 40
0.0
 40
0.0
 40
0.0
 40
0.0
 40
1.0
 40
1.0
 40
1.0
 40
2.0
 40
2.0
 40
2.0
 40
3.0
 40
3.0
 40
3.0
 40
4.0
 40
4.0
 40
4.0
 40
4.0
 10
578.2578991609911
 20
-857.3299260009453
 30
0.0
 10
577.2050779806988
 20
-857.3299260009453
 30
0.0
 10
576.8385198210682
 20
-856.4121525636748
 30
0.0
 10
576.8385198210682
 20
-855.4557940569695
 30
0.0
 10
576.8385198210682
 20
-854.4966794738758
 30
0.0
 10
577.180273293205
 20
-853.5541013491115
 30
0.0
 10
578.2386066262737
 20
-853.5541013491115
 30
0.0
 10
579.2831595774014
 20
-853.5541013491115
 30
0.0
 10
579.6607420425848
 20
-854.5297523905342
 30
0.0
 10
579.6607420425848
 20
-855.4557940569695
 30
0.0
 10
579.6607420425848
 20
-856.4121525636748
 30
0.0
 10
579.3162324940598
 20
-857.3299260009453
 30
0.0
 10
578.2578991609911
 20
-857.3299260009453
 30
0.0
  0
SPLINE
  5
E9
330
67
100
AcDbEntity
  8
\U+30EC\U+30A4\U+30E4\U+30FC 1
370
     0
100
AcDbSpline
210
0.0
220
0.0
230
1.0
 70
    11
 71
     3
 72
    38
 73
    34
 74
     0
 42
0.0000000001
 43
0.0000000001
 40
0.0
 40
0.0
 40
0.0
 40
0.0
 40
1.0
 40
1.0
 40
1.0
 40
2.0
 40
2.0
 40
2.0
 40
3.0
 40
3.0
 40
3.0
 40
4.0
 40
4.0
 40
4.0
 40
5.0
 40
5.0
 40
5.0
 40
6.0
 40
6.0
 40
6.0
 40
7.0
 40
7.0
 40
7.0
 40
8.0
 40
8.0
 40
8.0
 40
9.0
 40
9.0
 40
9.0
 40
10.0
 40
10.0
 40
10.0
 40
11.0
 40
11.0
 40
11.0
 40
11.0
 10
575.2785805853471
 20
-860.4801213126578
 30
0.0
 10
575.2785805853471
 20
-860.4801213126578
 30
0.0
 10
576.9019095779968
 20
-860.4801213126578
 30
0.0
 10
576.9019095779968
 20
-860.4801213126578
 30
0.0
 10
576.9019095779968
 20
-860.4801213126578
 30
0.0
 10
576.9019095779968
 20
-857.6634112439175
 30
0.0
 10
576.9019095779968
 20
-857.6634112439175
 30
0.0
 10
576.9019095779968
 20
-857.6634112439175
 30
0.0
 10
576.932226418267
 20
-857.6634112439175
 30
0.0
 10
576.932226418267
 20
-857.6634112439175
 30
0.0
 10
577.3070528070622
 20
-858.2394312090513
 30
0.0
 10
577.979535445783
 20
-858.5425996117533
 30
0.0
 10
578.6823349247738
 20
-858.5425996117533
 30
0.0
 10
580.4103948201752
 20
-858.5425996117533
 30
0.0
 10
581.2758028060699
 20
-857.0818791260074
 30
0.0
 10
581.2758028060699
 20
-855.5026473555688
 30
0.0
 10
581.2758028060699
 20
-853.8379772170961
 30
0.0
 10
580.4434677368336
 20
-852.34693989108
 30
0.0
 10
578.6024087095161
 20
-852.34693989108
 30
0.0
 10
577.8637802374785
 20
-852.34693989108
 30
0.0
 10
577.2298826681925
 20
-852.6225475299
 30
0.0
 10
576.8385198210682
 20
-853.2426647172449
 30
0.0
 10
576.8385198210682
 20
-853.2426647172449
 30
0.0
 10
576.8247394391271
 20
-853.2426647172449
 30
0.0
 10
576.8247394391271
 20
-853.2426647172449
 30
0.0
 10
576.8247394391271
 20
-853.2426647172449
 30
0.0
 10
576.8247394391271
 20
-852.4874997868782
 30
0.0
 10
576.8247394391271
 20
-852.4874997868782
 30
0.0
 10
576.8247394391271
 20
-852.4874997868782
 30
0.0
 10
575.2785805853471
 20
-852.4874997868782
 30
0.0
 10
575.2785805853471
 20
-852.4874997868782
 30
0.0
 10
575.2785805853471
 20
-852.4874997868782
 30
0.0
 10
575.2785805853471
 20
-860.4801213126578
 30
0.0
 10
575.2785805853471
 20
-860.4801213126578
 30
0.0
  0
HATCH
  5
EA
330
67
100
AcDbEntity
  8
\U+30EC\U+30A4\U+30E4\U+30FC 1
 62
   178
420
   262144
100
AcDbHatch
 10
0.0
 20
0.0
 30
0.0
210
0.0
220
0.0
230
1.0
  2
SOLID
 70
     1
 71
     0
 91
        2
 92
        1
 93
        1
 72
     4
 94
        3
 73
     0
 74
     1
 95
       17
 96
       13
 40
0.0
 40
0.0
 40
0.0
 40
0.0
 40
1.0
 40
1.0
 40
1.0
 40
2.0
 40
2.0
 40
2.0
 40
3.0
 40
3.0
 40
3.0
 40
4.0
 40
4.0
 40
4.0
 40
4.0
 10
578.2578991609911
 20
-857.3299260009453
 10
577.2050779806988
 20
-857.3299260009453
 10
576.8385198210682
 20
-856.4121525636748
 10
576.8385198210682
 20
-855.4557940569695
 10
576.8385198210682
 20
-854.4966794738758
 10
577.180273293205
 20
-853.5541013491115
 10
578.2386066262737
 20
-853.5541013491115
 10
579.2831595774014
 20
-853.5541013491115
 10
579.6607420425848
 20
-854.5297523905342
 10
579.6607420425848
 20
-855.4557940569695
 10
579.6607420425848
 20
-856.4121525636748
 10
579.3162324940598
 20
-857.3299260009453
 10
578.2578991609911
 20
-857.3299260009453
 97
        0
 92
        1
 93
        1
 72
     4
 94
        3
 73
     0
 74
     1
 95
       38
 96
       34
 40
0.0
 40
0.0
 40
0.0
 40
0.0
 40
1.0
 40
1.0
 40
1.0
 40
2.0
 40
2.0
 40
2.0
 40
3.0
 40
3.0
 40
3.0
 40
4.0
 40
4.0
 40
4.0
 40
5.0
 40
5.0
 40
5.0
 40
6.0
 40
6.0
 40
6.0
 40
7.0
 40
7.0
 40
7.0
 40
8.0
 40
8.0
 40
8.0
 40
9.0
 40
9.0
 40
9.0
 40
10.0
 40
10.0
 40
10.0
 40
11.0
 40
11.0
 40
11.0
 40
11.0
 10
575.2785805853471
 20
-860.4801213126578
 10
575.2785805853471
 20
-860.4801213126578
 10
576.9019095779968
 20
-860.4801213126578
 10
576.9019095779968
 20
-860.4801213126578
 10
576.9019095779968
 20
-860.4801213126578
 10
576.9019095779968
 20
-857.6634112439175
 10
576.9019095779968
 20
-857.6634112439175
 10
576.9019095779968
 20
-857.6634112439175
 10
576.932226418267
 20
-857.6634112439175
 10
576.932226418267
 20
-857.6634112439175
 10
577.3070528070622
 20
-858.2394312090513
 10
577.979535445783
 20
-858.5425996117533
 10
578.6823349247738
 20
-858.5425996117533
 10
580.4103948201752
 20
-858.5425996117533
 10
581.2758028060699
 20
-857.0818791260074
 10
581.2758028060699
 20
-855.5026473555688
 10
581.2758028060699
 20
-853.8379772170961
 10
580.4434677368336
 20
-852.34693989108
 10
578.6024087095161
 20
-852.34693989108
 10
577.8637802374785
 20
-852.34693989108
 10
577.2298826681925
 20
-852.6225475299
 10
576.8385198210682
 20
-853.2426647172449
 10
576.8385198210682
 20
-853.2426647172449
 10
576.8247394391271
 20
-853.2426647172449
 10
576.8247394391271
 20
-853.2426647172449
 10
576.8247394391271
 20
-853.2426647172449
 10
576.8247394391271
 20
-852.4874997868782
 10
576.8247394391271
 20
-852.4874997868782
 10
576.8247394391271
 20
-852.4874997868782
 10
575.2785805853471
 20
-852.4874997868782
 10
575.2785805853471
 20
-852.4874997868782
 10
575.2785805853471
 20
-852.4874997868782
 10
575.2785805853471
 20
-860.4801213126578
 10
575.2785805853471
 20
-860.4801213126578
 97
        0
 75
     2
 76
     1
 98
        0
  0
ENDBLK
  5
6A
330
67
100
AcDbEntity
  8
0
100
AcDbBlockEnd
  0
BLOCK
  5
6D
330
6B
100
AcDbEntity
  8
0
100
AcDbBlockBegin
  2
block 3
 70
     0
 71
     0
 10
0.0
 20
0.0
 30
0.0
  3
block 3
  1

  0
POLYLINE
  5
6F
330
6B
100
AcDbEntity
  8
\U+30EC\U+30A4\U+30E4\U+30FC 1
370
     0
100
AcDb2dPolyline
 66
     1
 10
0.0
 20
0.0
 30
0.0
  0
VERTEX
  5
70
330
6F
100
AcDbEntity
  8
\U+30EC\U+30A4\U+30E4\U+30FC 1
370
     0
100
AcDbVertex
100
AcDb2dVertex
 10
499.4010415418164
 20
-815.9777558723945
 30
0.0
  0
VERTEX
  5
71
330
6F
100
AcDbEntity
  8
\U+30EC\U+30A4\U+30E4\U+30FC 1
370
     0
100
AcDbVertex
100
AcDb2dVertex
 10
499.4010415418164
 20
-798.3526473698563
 30
0.0
  0
VERTEX
  5
72
330
6F
100
AcDbEntity
  8
\U+30EC\U+30A4\U+30E4\U+30FC 1
370
     0
100
AcDbVertex
100
AcDb2dVertex
 10
511.2852429277343
 20
-798.3526473698563
 30
0.0
  0
VERTEX
  5
73
330
6F
100
AcDbEntity
  8
\U+30EC\U+30A4\U+30E4\U+30FC 1
370
     0
100
AcDbVertex
100
AcDb2dVertex
 10
511.2852429277343
 20
-844.0483938862102
 30
0.0
  0
VERTEX
  5
74
330
6F
100
AcDbEntity
  8
\U+30EC\U+30A4\U+30E4\U+30FC 1
370
     0
100
AcDbVertex
100
AcDb2dVertex
 10
499.4010415418164
 20
-844.0483938862102
 30
0.0
  0
VERTEX
  5
75
330
6F
100
AcDbEntity
  8
\U+30EC\U+30A4\U+30E4\U+30FC 1
370
     0
100
AcDbVertex
100
AcDb2dVertex
 10
499.4010415418164
 20
-825.3263669811685
 30
0.0
  0
VERTEX
  5
76
330
6F
100
AcDbEntity
  8
\U+30EC\U+30A4\U+30E4\U+30FC 1
370
     0
100
AcDbVertex
100
AcDb2dVertex
 10
482.2472221016604
 20
-825.3263669811685
 30
0.0
  0
VERTEX
  5
77
330
6F
100
AcDbEntity
  8
\U+30EC\U+30A4\U+30E4\U+30FC 1
370
     0
100
AcDbVertex
100
AcDb2dVertex
 10
482.2472221016604
 20
-844.0483938862102
 30
0.0
  0
VERTEX
  5
78
330
6F
100
AcDbEntity
  8
\U+30EC\U+30A4\U+30E4\U+30FC 1
370
     0
100
AcDbVertex
100
AcDb2dVertex
 10
470.3602646393544
 20
-844.0483938862102
 30
0.0
  0
VERTEX
  5
79
330
6F
100
AcDbEntity
  8
\U+30EC\U+30A4\U+30E4\U+30FC 1
370
     0
100
AcDbVertex
100
AcDb2dVertex
 10
470.3602646393544
 20
-798.3526473698563
 30
0.0
  0
VERTEX
  5
7A
330
6F
100
AcDbEntity
  8
\U+30EC\U+30A4\U+30E4\U+30FC 1
370
     0
100
AcDbVertex
100
AcDb2dVertex
 10
482.2472221016604
 20
-798.3526473698563
 30
0.0
  0
VERTEX
  5
7B
330
6F
100
AcDbEntity
  8
\U+30EC\U+30A4\U+30E4\U+30FC 1
370
     0
100
AcDbVertex
100
AcDb2dVertex
 10
482.2472221016604
 20
-815.9777558723945
 30
0.0
  0
VERTEX
  5
7C
330
6F
100
AcDbEntity
  8
\U+30EC\U+30A4\U+30E4\U+30FC 1
370
     0
100
AcDbVertex
100
AcDb2dVertex
 10
499.4010415418164
 20
-815.9777558723945
 30
0.0
  0
SEQEND
  5
7D
330
6F
100
AcDbEntity
  8
\U+30EC\U+30A4\U+30E4\U+30FC 1
370
     0
  0
HATCH
  5
7E
330
6B
100
AcDbEntity
  8
\U+30EC\U+30A4\U+30E4\U+30FC 1
 62
   178
420
   262144
100
AcDbHatch
 10
0.0
 20
0.0
 30
0.0
210
0.0
220
0.0
230
1.0
  2
SOLID
 70
     1
 71
     0
 91
        1
 92
        1
 93
       12
 72
     1
 10
499.4010415418164
 20
-815.9777558723945
 11
499.4010415418164
 21
-798.3526473698563
 72
     1
 10
499.4010415418164
 20
-798.3526473698563
 11
511.2852429277343
 21
-798.3526473698563
 72
     1
 10
511.2852429277343
 20
-798.3526473698563
 11
511.2852429277343
 21
-844.0483938862102
 72
     1
 10
511.2852429277343
 20
-844.0483938862102
 11
499.4010415418164
 21
-844.0483938862102
 72
     1
 10
499.4010415418164
 20
-844.0483938862102
 11
499.4010415418164
 21
-825.3263669811685
 72
     1
 10
499.4010415418164
 20
-825.3263669811685
 11
482.2472221016604
 21
-825.3263669811685
 72
     1
 10
482.2472221016604
 20
-825.3263669811685
 11
482.2472221016604
 21
-844.0483938862102
 72
     1
 10
482.2472221016604
 20
-844.0483938862102
 11
470.3602646393544
 21
-844.0483938862102
 72
     1
 10
470.3602646393544
 20
-844.0483938862102
 11
470.3602646393544
 21
-798.3526473698563
 72
     1
 10
470.3602646393544
 20
-798.3526473698563
 11
482.2472221016604
 21
-798.3526473698563
 72
     1
 10
482.2472221016604
 20
-798.3526473698563
 11
482.2472221016604
 21
-815.9777558723945
 72
     1
 10
482.2472221016604
 20
-815.9777558723945
 11
499.4010415418164
 21
-815.9777558723945
 97
        0
 75
     2
 76
     1
 98
        0
  0
POLYLINE
  5
7F
330
6B
100
AcDbEntity
  8
\U+30EC\U+30A4\U+30E4\U+30FC 1
370
     0
100
AcDb2dPolyline
 66
     1
 10
0.0
 20
0.0
 30
0.0
  0
VERTEX
  5
80
330
7F
100
AcDbEntity
  8
\U+30EC\U+30A4\U+30E4\U+30FC 1
370
     0
100
AcDbVertex
100
AcDb2dVertex
 10
526.8047090696878
 20
-844.0483938862102
 30
0.0
  0
VERTEX
  5
81
330
7F
100
AcDbEntity
  8
\U+30EC\U+30A4\U+30E4\U+30FC 1
370
     0
100
AcDbVertex
100
AcDb2dVertex
 10
515.7748913641119
 20
-844.0483938862102
 30
0.0
  0
VERTEX
  5
82
330
7F
100
AcDbEntity
  8
\U+30EC\U+30A4\U+30E4\U+30FC 1
370
     0
100
AcDbVertex
100
AcDb2dVertex
 10
515.7748913641119
 20
-815.9777558723945
 30
0.0
  0
VERTEX
  5
83
330
7F
100
AcDbEntity
  8
\U+30EC\U+30A4\U+30E4\U+30FC 1
370
     0
100
AcDbVertex
100
AcDb2dVertex
 10
526.8129772988524
 20
-815.9777558723945
 30
0.0
  0
VERTEX
  5
84
330
7F
100
AcDbEntity
  8
\U+30EC\U+30A4\U+30E4\U+30FC 1
370
     0
100
AcDbVertex
100
AcDb2dVertex
 10
526.8047090696878
 20
-844.0483938862102
 30
0.0
  0
SEQEND
  5
85
330
7F
100
AcDbEntity
  8
\U+30EC\U+30A4\U+30E4\U+30FC 1
370
     0
  0
HATCH
  5
86
330
6B
100
AcDbEntity
  8
\U+30EC\U+30A4\U+30E4\U+30FC 1
 62
   178
420
   262144
100
AcDbHatch
 10
0.0
 20
0.0
 30
0.0
210
0.0
220
0.0
230
1.0
  2
SOLID
 70
     1
 71
     0
 91
        1
 92
        1
 93
        4
 72
     1
 10
526.8047090696878
 20
-844.0483938862102
 11
515.7748913641119
 21
-844.0483938862102
 72
     1
 10
515.7748913641119
 20
-844.0483938862102
 11
515.7748913641119
 21
-815.9777558723945
 72
     1
 10
515.7748913641119
 20
-815.9777558723945
 11
526.8129772988524
 21
-815.9777558723945
 72
     1
 10
526.8129772988524
 20
-815.9777558723945
 11
526.8047090696878
 21
-844.0483938862102
 97
        0
 75
     2
 76
     1
 98
        0
  0
POLYLINE
  5
87
330
6B
100
AcDbEntity
  8
\U+30EC\U+30A4\U+30E4\U+30FC 1
370
     0
100
AcDb2dPolyline
 66
     1
 10
0.0
 20
0.0
 30
0.0
  0
VERTEX
  5
88
330
87
100
AcDbEntity
  8
\U+30EC\U+30A4\U+30E4\U+30FC 1
370
     0
100
AcDbVertex
100
AcDb2dVertex
 10
520.7909503906357
 20
-812.8964624703871
 30
0.0
  0
VERTEX
  5
89
330
87
100
AcDbEntity
  8
\U+30EC\U+30A4\U+30E4\U+30FC 1
370
     0
100
AcDbVertex
100
AcDb2dVertex
 10
520.7909503906357
 20
-812.8964624703871
 30
0.0
  0
VERTEX
  5
8A
330
87
100
AcDbEntity
  8
\U+30EC\U+30A4\U+30E4\U+30FC 1
370
     0
100
AcDbVertex
100
AcDb2dVertex
 10
513.6885415382445
 20
-788.957182962483
 30
0.0
  0
VERTEX
  5
8B
330
87
100
AcDbEntity
  8
\U+30EC\U+30A4\U+30E4\U+30FC 1
370
     0
100
AcDbVertex
100
AcDb2dVertex
 10
528.3398436179151
 20
-788.957182962483
 30
0.0
  0
VERTEX
  5
8C
330
87
100
AcDbEntity
  8
\U+30EC\U+30A4\U+30E4\U+30FC 1
370
     0
100
AcDbVertex
100
AcDb2dVertex
 10
520.7909503906357
 20
-812.8964624703871
 30
0.0
  0
SEQEND
  5
8D
330
87
100
AcDbEntity
  8
\U+30EC\U+30A4\U+30E4\U+30FC 1
370
     0
  0
HATCH
  5
8E
330
6B
100
AcDbEntity
  8
\U+30EC\U+30A4\U+30E4\U+30FC 1
 62
   178
420
   262144
100
AcDbHatch
 10
0.0
 20
0.0
 30
0.0
210
0.0
220
0.0
230
1.0
  2
SOLID
 70
     1
 71
     0
 91
        1
 92
        1
 93
        3
 72
     1
 10
520.7909503906357
 20
-812.8964624703871
 11
513.6885415382445
 21
-788.957182962483
 72
     1
 10
513.6885415382445
 20
-788.957182962483
 11
528.3398436179151
 21
-788.957182962483
 72
     1
 10
528.3398436179151
 20
-788.957182962483
 11
520.7909503906357
 21
-812.8964624703871
 97
        0
 75
     2
 76
     1
 98
        0
  0
POLYLINE
  5
8F
330
6B
100
AcDbEntity
  8
\U+30EC\U+30A4\U+30E4\U+30FC 1
370
     0
100
AcDb2dPolyline
 66
     1
 10
0.0
 20
0.0
 30
0.0
  0
VERTEX
  5
90
330
8F
100
AcDbEntity
  8
\U+30EC\U+30A4\U+30E4\U+30FC 1
370
     0
100
AcDbVertex
100
AcDb2dVertex
 10
545.6424911830338
 20
-844.0566621153747
 30
0.0
  0
VERTEX
  5
91
330
8F
100
AcDbEntity
  8
\U+30EC\U+30A4\U+30E4\U+30FC 1
370
     0
100
AcDbVertex
100
AcDb2dVertex
 10
534.6044052482933
 20
-844.0566621153747
 30
0.0
  0
VERTEX
  5
92
330
8F
100
AcDbEntity
  8
\U+30EC\U+30A4\U+30E4\U+30FC 1
370
     0
100
AcDbVertex
100
AcDb2dVertex
 10
534.6044052482933
 20
-825.0783201062304
 30
0.0
  0
VERTEX
  5
93
330
8F
100
AcDbEntity
  8
\U+30EC\U+30A4\U+30E4\U+30FC 1
370
     0
100
AcDbVertex
100
AcDb2dVertex
 10
529.5387368467821
 20
-825.0783201062304
 30
0.0
  0
VERTEX
  5
94
330
8F
100
AcDbEntity
  8
\U+30EC\U+30A4\U+30E4\U+30FC 1
370
     0
100
AcDbVertex
100
AcDb2dVertex
 10
529.5387368467821
 20
-815.9777558723945
 30
0.0
  0
VERTEX
  5
95
330
8F
100
AcDbEntity
  8
\U+30EC\U+30A4\U+30E4\U+30FC 1
370
     0
100
AcDbVertex
100
AcDb2dVertex
 10
534.6044052482933
 20
-815.9777558723945
 30
0.0
  0
VERTEX
  5
96
330
8F
100
AcDbEntity
  8
\U+30EC\U+30A4\U+30E4\U+30FC 1
370
     0
100
AcDbVertex
100
AcDb2dVertex
 10
534.6044052482933
 20
-803.6195093477063
 30
0.0
  0
VERTEX
  5
97
330
8F
100
AcDbEntity
  8
\U+30EC\U+30A4\U+30E4\U+30FC 1
370
     0
100
AcDbVertex
100
AcDb2dVertex
 10
545.6424911830338
 20
-803.6195093477063
 30
0.0
  0
VERTEX
  5
98
330
8F
100
AcDbEntity
  8
\U+30EC\U+30A4\U+30E4\U+30FC 1
370
     0
100
AcDbVertex
100
AcDb2dVertex
 10
545.6424911830338
 20
-815.9777558723945
 30
0.0
  0
VERTEX
  5
99
330
8F
100
AcDbEntity
  8
\U+30EC\U+30A4\U+30E4\U+30FC 1
370
     0
100
AcDbVertex
100
AcDb2dVertex
 10
551.8850042023065
 20
-815.9777558723945
 30
0.0
  0
VERTEX
  5
9A
330
8F
100
AcDbEntity
  8
\U+30EC\U+30A4\U+30E4\U+30FC 1
370
     0
100
AcDbVertex
100
AcDb2dVertex
 10
551.8850042023065
 20
-825.0783201062304
 30
0.0
  0
VERTEX
  5
9B
330
8F
100
AcDbEntity
  8
\U+30EC\U+30A4\U+30E4\U+30FC 1
370
     0
100
AcDbVertex
100
AcDb2dVertex
 10
545.6424911830338
 20
-825.0783201062304
 30
0.0
  0
VERTEX
  5
9C
330
8F
100
AcDbEntity
  8
\U+30EC\U+30A4\U+30E4\U+30FC 1
370
     0
100
AcDbVertex
100
AcDb2dVertex
 10
545.6424911830338
 20
-844.0566621153747
 30
0.0
  0
SEQEND
  5
9D
330
8F
100
AcDbEntity
  8
\U+30EC\U+30A4\U+30E4\U+30FC 1
370
     0
  0
HATCH
  5
9E
330
6B
100
AcDbEntity
  8
\U+30EC\U+30A4\U+30E4\U+30FC 1
 62
   178
420
   262144
100
AcDbHatch
 10
0.0
 20
0.0
 30
0.0
210
0.0
220
0.0
230
1.0
  2
SOLID
 70
     1
 71
     0
 91
        1
 92
        1
 93
       12
 72
     1
 10
545.6424911830338
 20
-844.0566621153747
 11
534.6044052482933
 21
-844.0566621153747
 72
     1
 10
534.6044052482933
 20
-844.0566621153747
 11
534.6044052482933
 21
-825.0783201062304
 72
     1
 10
534.6044052482933
 20
-825.0783201062304
 11
529.5387368467821
 21
-825.0783201062304
 72
     1
 10
529.5387368467821
 20
-825.0783201062304
 11
529.5387368467821
 21
-815.9777558723945
 72
     1
 10
529.5387368467821
 20
-815.9777558723945
 11
534.6044052482933
 21
-815.9777558723945
 72
     1
 10
534.6044052482933
 20
-815.9777558723945
 11
534.6044052482933
 21
-803.6195093477063
 72
     1
 10
534.6044052482933
 20
-803.6195093477063
 11
545.6424911830338
 21
-803.6195093477063
 72
     1
 10
545.6424911830338
 20
-803.6195093477063
 11
545.6424911830338
 21
-815.9777558723945
 72
     1
 10
545.6424911830338
 20
-815.9777558723945
 11
551.8850042023065
 21
-815.9777558723945
 72
     1
 10
551.8850042023065
 20
-815.9777558723945
 11
551.8850042023065
 21
-825.0783201062304
 72
     1
 10
551.8850042023065
 20
-825.0783201062304
 11
545.6424911830338
 21
-825.0783201062304
 72
     1
 10
545.6424911830338
 20
-825.0783201062304
 11
545.6424911830338
 21
-844.0566621153747
 97
        0
 75
     2
 76
     1
 98
        0
  0
SPLINE
  5
9F
330
6B
100
AcDbEntity
  8
\U+30EC\U+30A4\U+30E4\U+30FC 1
370
     0
100
AcDbSpline
210
0.0
220
0.0
230
1.0
 70
    11
 71
     3
 72
    47
 73
    43
 74
     0
 42
0.0000000001
 43
0.0000000001
 40
0.0
 40
0.0
 40
0.0
 40
0.0
 40
1.0
 40
1.0
 40
1.0
 40
2.0
 40
2.0
 40
2.0
 40
3.0
 40
3.0
 40
3.0
 40
4.0
 40
4.0
 40
4.0
 40
5.0
 40
5.0
 40
5.0
 40
6.0
 40
6.0
 40
6.0
 40
7.0
 40
7.0
 40
7.0
 40
8.0
 40
8.0
 40
8.0
 40
9.0
 40
9.0
 40
9.0
 40
10.0
 40
10.0
 40
10.0
 40
11.0
 40
11.0
 40
11.0
 40
12.0
 40
12.0
 40
12.0
 40
13.0
 40
13.0
 40
13.0
 40
14.0
 40
14.0
 40
14.0
 40
14.0
 10
575.1104599256669
 20
-820.9662541350363
 30
0.0
 10
573.4127168705357
 20
-820.051236774154
 30
0.0
 10
571.0507594058485
 20
-819.4421438923617
 30
0.0
 10
569.1600910035434
 20
-819.4421438923617
 30
0.0
 10
567.8922958649714
 20
-819.4421438923617
 30
0.0
 10
565.7122394419054
 20
-820.0071395519427
 30
0.0
 10
565.7122394419054
 20
-821.569834864052
 30
0.0
 10
565.7122394419054
 20
-823.6809893774131
 30
0.0
 10
569.1600910035434
 20
-823.9896699328915
 30
0.0
 10
570.6704208642768
 20
-824.3121308703109
 30
0.0
 10
575.8353080157634
 20
-825.3263669811685
 30
0.0
 10
579.7075953411843
 20
-827.759982431949
 30
0.0
 10
579.7075953411843
 20
-833.5174260068984
 30
0.0
 10
579.7075953411843
 20
-841.6974607270756
 30
0.0
 10
572.2689451694328
 20
-845.0901907609497
 30
0.0
 10
565.0480250323492
 20
-845.0901907609497
 30
0.0
 10
560.6272785056765
 20
-845.0901907609497
 30
0.0
 10
556.2588974303798
 20
-843.811371316825
 30
0.0
 10
552.4996092368751
 20
-841.5045353799017
 30
0.0
 10
552.4996092368751
 20
-841.5045353799017
 30
0.0
 10
556.4986760761532
 20
-833.8261065623768
 30
0.0
 10
556.4986760761532
 20
-833.8261065623768
 30
0.0
 10
558.7421222561478
 20
-835.3832897217097
 30
0.0
 10
562.495898296876
 20
-836.9652775685365
 30
0.0
 10
565.2299260739703
 20
-836.9652775685365
 30
0.0
 10
566.6217446500112
 20
-836.9652775685365
 30
0.0
 10
568.6832897883847
 20
-836.2983070825921
 30
0.0
 10
568.6832897883847
 20
-834.6060761802374
 30
0.0
 10
568.6832897883847
 20
-832.1724607294569
 30
0.0
 10
565.2299260739703
 20
-832.0374129864351
 30
0.0
 10
561.7682941303913
 20
-831.1416881602702
 30
0.0
 10
558.3121743395886
 20
-830.2376951049406
 30
0.0
 10
554.8643227779506
 20
-828.5261716678685
 30
0.0
 10
554.8643227779506
 20
-822.9588973637048
 30
0.0
 10
554.8643227779506
 20
-815.3135414628383
 30
0.0
 10
561.7682941303913
 20
-811.9290796581289
 30
0.0
 10
568.5675345800804
 20
-811.9290796581289
 30
0.0
 10
572.0760198222588
 20
-811.9290796581289
 30
0.0
 10
575.5982854463782
 20
-812.4747827829924
 30
0.0
 10
578.8036022858547
 20
-813.9382593451265
 30
0.0
 10
578.8036022858547
 20
-813.9382593451265
 30
0.0
 10
575.1104599256669
 20
-820.9662541350363
 30
0.0
 10
575.1104599256669
 20
-820.9662541350363
 30
0.0
  0
HATCH
  5
A0
330
6B
100
AcDbEntity
  8
\U+30EC\U+30A4\U+30E4\U+30FC 1
 62
   178
420
   262144
100
AcDbHatch
 10
0.0
 20
0.0
 30
0.0
210
0.0
220
0.0
230
1.0
  2
SOLID
 70
     1
 71
     0
 91
        1
 92
        1
 93
        1
 72
     4
 94
        3
 73
     0
 74
     1
 95
       47
 96
       43
 40
0.0
 40
0.0
 40
0.0
 40
0.0
 40
1.0
 40
1.0
 40
1.0
 40
2.0
 40
2.0
 40
2.0
 40
3.0
 40
3.0
 40
3.0
 40
4.0
 40
4.0
 40
4.0
 40
5.0
 40
5.0
 40
5.0
 40
6.0
 40
6.0
 40
6.0
 40
7.0
 40
7.0
 40
7.0
 40
8.0
 40
8.0
 40
8.0
 40
9.0
 40
9.0
 40
9.0
 40
10.0
 40
10.0
 40
10.0
 40
11.0
 40
11.0
 40
11.0
 40
12.0
 40
12.0
 40
12.0
 40
13.0
 40
13.0
 40
13.0
 40
14.0
 40
14.0
 40
14.0
 40
14.0
 10
575.1104599256669
 20
-820.9662541350363
 10
573.4127168705357
 20
-820.051236774154
 10
571.0507594058485
 20
-819.4421438923617
 10
569.1600910035434
 20
-819.4421438923617
 10
567.8922958649714
 20
-819.4421438923617
 10
565.7122394419054
 20
-820.0071395519427
 10
565.7122394419054
 20
-821.569834864052
 10
565.7122394419054
 20
-823.6809893774131
 10
569.1600910035434
 20
-823.9896699328915
 10
570.6704208642768
 20
-824.3121308703109
 10
575.8353080157634
 20
-825.3263669811685
 10
579.7075953411843
 20
-827.759982431949
 10
579.7075953411843
 20
-833.5174260068984
 10
579.7075953411843
 20
-841.6974607270756
 10
572.2689451694328
 20
-845.0901907609497
 10
565.0480250323492
 20
-845.0901907609497
 10
560.6272785056765
 20
-845.0901907609497
 10
556.2588974303798
 20
-843.811371316825
 10
552.4996092368751
 20
-841.5045353799017
 10
552.4996092368751
 20
-841.5045353799017
 10
556.4986760761532
 20
-833.8261065623768
 10
556.4986760761532
 20
-833.8261065623768
 10
558.7421222561478
 20
-835.3832897217097
 10
562.495898296876
 20
-836.9652775685365
 10
565.2299260739703
 20
-836.9652775685365
 10
566.6217446500112
 20
-836.9652775685365
 10
568.6832897883847
 20
-836.2983070825921
 10
568.6832897883847
 20
-834.6060761802374
 10
568.6832897883847
 20
-832.1724607294569
 10
565.2299260739703
 20
-832.0374129864351
 10
561.7682941303913
 20
-831.1416881602702
 10
558.3121743395886
 20
-830.2376951049406
 10
554.8643227779506
 20
-828.5261716678685
 10
554.8643227779506
 20
-822.9588973637048
 10
554.8643227779506
 20
-815.3135414628383
 10
561.7682941303913
 20
-811.9290796581289
 10
568.5675345800804
 20
-811.9290796581289
 10
572.0760198222588
 20
-811.9290796581289
 10
575.5982854463782
 20
-812.4747827829924
 10
578.8036022858547
 20
-813.9382593451265
 10
578.8036022858547
 20
-813.9382593451265
 10
575.1104599256669
 20
-820.9662541350363
 10
575.1104599256669
 20
-820.9662541350363
 97
        0
 75
     2
 76
     1
 98
        0
  0
ENDBLK
  5
6E
330
6B
100
AcDbEntity
  8
0
100
AcDbBlockEnd
  0
BLOCK
  5
EF
330
ED
100
AcDbEntity
  8
0
100
AcDbBlockBegin
  2
block 4
 70
     0
 71
     0
 10
0.0
 20
0.0
 30
0.0
  3
block 4
  1

  0
SPLINE
  5
F1
330
ED
100
AcDbEntity
  8
\U+30EC\U+30A4\U+30E4\U+30FC 1
370
     0
100
AcDbSpline
210
0.0
220
0.0
230
1.0
 70
    11
 71
     3
 72
    29
 73
    25
 74
     0
 42
0.0000000001
 43
0.0000000001
 40
0.0
 40
0.0
 40
0.0
 40
0.0
 40
1.0
 40
1.0
 40
1.0
 40
2.0
 40
2.0
 40
2.0
 40
3.0
 40
3.0
 40
3.0
 40
4.0
 40
4.0
 40
4.0
 40
5.0
 40
5.0
 40
5.0
 40
6.0
 40
6.0
 40
6.0
 40
7.0
 40
7.0
 40
7.0
 40
8.0
 40
8.0
 40
8.0
 40
8.0
 10
-1043.618641232151
 20
1016.771701134696
 30
0.0
 10
-1043.618641232151
 20
1009.771267108668
 30
0.0
 10
-1044.007248002887
 20
1003.680338290747
 30
0.0
 10
-1047.512977168677
 20
1000.30690079159
 30
0.0
 10
-1049.458767098746
 20
998.3583547851326
 30
0.0
 10
-1052.054991056431
 20
997.3248261395577
 30
0.0
 10
-1055.431184631976
 20
997.3248261395577
 30
0.0
 10
-1058.677842617275
 20
997.3248261395577
 30
0.0
 10
-1061.271310498571
 20
998.3583547851326
 30
0.0
 10
-1063.219856505028
 20
1000.30690079159
 30
0.0
 10
-1066.725585670819
 20
1003.680338290747
 30
0.0
 10
-1067.114192441555
 20
1009.771267108668
 30
0.0
 10
-1067.114192441555
 20
1016.771701134696
 30
0.0
 10
-1067.114192441555
 20
1023.645355646867
 30
0.0
 10
-1066.725585670819
 20
1029.739040541176
 30
0.0
 10
-1063.219856505028
 20
1033.106965887557
 30
0.0
 10
-1061.271310498571
 20
1035.049999741238
 30
0.0
 10
-1058.677842617275
 20
1036.086284463201
 30
0.0
 10
-1055.431184631976
 20
1036.086284463201
 30
0.0
 10
-1052.054991056431
 20
1036.086284463201
 30
0.0
 10
-1049.458767098746
 20
1035.049999741238
 30
0.0
 10
-1047.512977168677
 20
1033.106965887557
 30
0.0
 10
-1044.007248002887
 20
1029.739040541176
 30
0.0
 10
-1043.618641232151
 20
1023.645355646867
 30
0.0
 10
-1043.618641232151
 20
1016.771701134696
 30
0.0
  0
SPLINE
  5
F2
330
ED
100
AcDbEntity
  8
\U+30EC\U+30A4\U+30E4\U+30FC 1
370
     0
100
AcDbSpline
210
0.0
220
0.0
230
1.0
 70
    11
 71
     3
 72
    29
 73
    25
 74
     0
 42
0.0000000001
 43
0.0000000001
 40
0.0
 40
0.0
 40
0.0
 40
0.0
 40
1.0
 40
1.0
 40
1.0
 40
2.0
 40
2.0
 40
2.0
 40
3.0
 40
3.0
 40
3.0
 40
4.0
 40
4.0
 40
4.0
 40
5.0
 40
5.0
 40
5.0
 40
6.0
 40
6.0
 40
6.0
 40
7.0
 40
7.0
 40
7.0
 40
8.0
 40
8.0
 40
8.0
 40
8.0
 10
-1026.745941583591
 20
1016.771701134696
 30
0.0
 10
-1026.745941583591
 20
1028.956314846928
 30
0.0
 10
-1028.305880819313
 20
1036.477647310325
 30
0.0
 10
-1034.405077866399
 20
1042.962695051759
 30
0.0
 10
-1038.685264497273
 20
1047.496440710348
 30
0.0
 10
-1045.440407724751
 20
1051.258484980241
 30
0.0
 10
-1055.431184631976
 20
1051.258484980241
 30
0.0
 10
-1065.424717615588
 20
1051.258484980241
 30
0.0
 10
-1072.044813100044
 20
1047.369661196491
 30
0.0
 10
-1076.327755807307
 20
1042.962695051759
 30
0.0
 10
-1082.43246500717
 20
1036.477647310325
 30
0.0
 10
-1083.986892090114
 20
1028.956314846928
 30
0.0
 10
-1083.986892090114
 20
1016.771701134696
 30
0.0
 10
-1083.986892090114
 20
1004.587087422464
 30
0.0
 10
-1082.43246500717
 20
996.9362193688215
 30
0.0
 10
-1076.327755807307
 20
990.4539277037754
 30
0.0
 10
-1072.044813100044
 20
986.0442054826557
 30
0.0
 10
-1065.424717615588
 20
982.1581377752939
 30
0.0
 10
-1055.431184631976
 20
982.1581377752939
 30
0.0
 10
-1045.440407724751
 20
982.1581377752939
 30
0.0
 10
-1038.685264497273
 20
986.0442054826557
 30
0.0
 10
-1034.405077866399
 20
990.4539277037754
 30
0.0
 10
-1028.176345229067
 20
996.8094398549644
 30
0.0
 10
-1026.745941583591
 20
1004.587087422464
 30
0.0
 10
-1026.745941583591
 20
1016.771701134696
 30
0.0
  0
SPLINE
  5
F3
330
ED
100
AcDbEntity
  8
\U+30EC\U+30A4\U+30E4\U+30FC 1
370
     0
100
AcDbSpline
210
0.0
220
0.0
230
1.0
 70
    11
 71
     3
 72
    20
 73
    16
 74
     0
 42
0.0000000001
 43
0.0000000001
 40
0.0
 40
0.0
 40
0.0
 40
0.0
 40
1.0
 40
1.0
 40
1.0
 40
2.0
 40
2.0
 40
2.0
 40
3.0
 40
3.0
 40
3.0
 40
4.0
 40
4.0
 40
4.0
 40
5.0
 40
5.0
 40
5.0
 40
5.0
 10
-1148.043619504656
 20
1022.994921619251
 30
0.0
 10
-1148.043619504656
 20
1022.994921619251
 30
0.0
 10
-1173.741275748231
 20
1022.994921619251
 30
0.0
 10
-1173.741275748231
 20
1022.994921619251
 30
0.0
 10
-1173.611740157986
 20
1025.976996271283
 30
0.0
 10
-1173.349912901107
 20
1027.793250611107
 30
0.0
 10
-1172.18133651251
 20
1030.25442682577
 30
0.0
 10
-1170.365082172686
 20
1034.272786199765
 30
0.0
 10
-1166.605793979182
 20
1037.257616928186
 30
0.0
 10
-1160.892447626444
 20
1037.257616928186
 30
0.0
 10
-1155.179101273705
 20
1037.257616928186
 30
0.0
 10
-1151.417057003812
 20
1034.272786199765
 30
0.0
 10
-1149.595290511212
 20
1030.25442682577
 30
0.0
 10
-1148.429470199004
 20
1027.793250611107
 30
0.0
 10
-1148.170399018513
 20
1025.976996271283
 30
0.0
 10
-1148.043619504656
 20
1022.994921619251
 30
0.0
  0
SPLINE
  5
F4
330
ED
100
AcDbEntity
  8
\U+30EC\U+30A4\U+30E4\U+30FC 1
370
     0
100
AcDbSpline
210
0.0
220
0.0
230
1.0
 70
    11
 71
     3
 72
    32
 73
    28
 74
     0
 42
0.0000000001
 43
0.0000000001
 40
0.0
 40
0.0
 40
0.0
 40
0.0
 40
1.0
 40
1.0
 40
1.0
 40
2.0
 40
2.0
 40
2.0
 40
3.0
 40
3.0
 40
3.0
 40
4.0
 40
4.0
 40
4.0
 40
5.0
 40
5.0
 40
5.0
 40
6.0
 40
6.0
 40
6.0
 40
7.0
 40
7.0
 40
7.0
 40
8.0
 40
8.0
 40
8.0
 40
9.0
 40
9.0
 40
9.0
 40
9.0
 10
-1131.427234960199
 20
1011.457985858247
 30
0.0
 10
-1131.427234960199
 20
1011.457985858247
 30
0.0
 10
-1131.427234960199
 20
1018.58795547452
 30
0.0
 10
-1131.427234960199
 20
1018.58795547452
 30
0.0
 10
-1131.427234960199
 20
1037.773003212779
 30
0.0
 10
-1142.071201971427
 20
1051.258484980241
 30
0.0
 10
-1160.892447626444
 20
1051.258484980241
 30
0.0
 10
-1178.41282522623
 20
1051.258484980241
 30
0.0
 10
-1190.3549042163
 20
1038.809287934742
 30
0.0
 10
-1190.3549042163
 20
1016.771701134696
 30
0.0
 10
-1190.3549042163
 20
989.414886905424
 30
0.0
 10
-1175.039387727074
 20
982.1581377752939
 30
0.0
 10
-1159.07619328662
 20
982.1581377752939
 30
0.0
 10
-1146.872287039671
 20
982.1581377752939
 30
0.0
 10
-1140.254947631603
 20
985.7851343021649
 30
0.0
 10
-1133.373024890268
 20
992.7883244045807
 30
0.0
 10
-1133.373024890268
 20
992.7883244045807
 30
0.0
 10
-1143.62838513076
 20
1002.770833082641
 30
0.0
 10
-1143.62838513076
 20
1002.770833082641
 30
0.0
 10
-1147.911327838022
 20
998.6229381183998
 30
0.0
 10
-1151.54383651767
 20
996.41807700784
 30
0.0
 10
-1158.943901619986
 20
996.41807700784
 30
0.0
 10
-1168.548827832863
 20
996.41807700784
 30
0.0
 10
-1173.741275748231
 20
1002.641297492395
 30
0.0
 10
-1173.741275748231
 20
1011.457985858247
 30
0.0
 10
-1173.741275748231
 20
1011.457985858247
 30
0.0
 10
-1131.427234960199
 20
1011.457985858247
 30
0.0
 10
-1131.427234960199
 20
1011.457985858247
 30
0.0
  0
POLYLINE
  5
F5
330
ED
100
AcDbEntity
  8
\U+30EC\U+30A4\U+30E4\U+30FC 1
370
     0
100
AcDb2dPolyline
 66
     1
 10
0.0
 20
0.0
 30
0.0
  0
VERTEX
  5
F6
330
F5
100
AcDbEntity
  8
\U+30EC\U+30A4\U+30E4\U+30FC 1
370
     0
100
AcDbVertex
100
AcDb2dVertex
 10
-1205.670420705527
 20
1075.335568307555
 30
0.0
  0
VERTEX
  5
F7
330
F5
100
AcDbEntity
  8
\U+30EC\U+30A4\U+30E4\U+30FC 1
370
     0
100
AcDbVertex
100
AcDb2dVertex
 10
-1222.691948479049
 20
1075.335568307555
 30
0.0
  0
VERTEX
  5
F8
330
F5
100
AcDbEntity
  8
\U+30EC\U+30A4\U+30E4\U+30FC 1
370
     0
100
AcDbVertex
100
AcDb2dVertex
 10
-1222.691948479049
 20
1061.59377143599
 30
0.0
  0
VERTEX
  5
F9
330
F5
100
AcDbEntity
  8
\U+30EC\U+30A4\U+30E4\U+30FC 1
370
     0
100
AcDbVertex
100
AcDb2dVertex
 10
-1205.670420705527
 20
1061.59377143599
 30
0.0
  0
VERTEX
  5
FA
330
F5
100
AcDbEntity
  8
\U+30EC\U+30A4\U+30E4\U+30FC 1
370
     0
100
AcDbVertex
100
AcDb2dVertex
 10
-1205.670420705527
 20
1075.335568307555
 30
0.0
  0
SEQEND
  5
FB
330
F5
100
AcDbEntity
  8
\U+30EC\U+30A4\U+30E4\U+30FC 1
370
     0
  0
POLYLINE
  5
FC
330
ED
100
AcDbEntity
  8
\U+30EC\U+30A4\U+30E4\U+30FC 1
370
     0
100
AcDb2dPolyline
 66
     1
 10
0.0
 20
0.0
 30
0.0
  0
VERTEX
  5
FD
330
FC
100
AcDbEntity
  8
\U+30EC\U+30A4\U+30E4\U+30FC 1
370
     0
100
AcDbVertex
100
AcDb2dVertex
 10
-1205.799956295772
 20
1049.673741057026
 30
0.0
  0
VERTEX
  5
FE
330
FC
100
AcDbEntity
  8
\U+30EC\U+30A4\U+30E4\U+30FC 1
370
     0
100
AcDbVertex
100
AcDb2dVertex
 10
-1222.67541202072
 20
1049.673741057026
 30
0.0
  0
VERTEX
  5
FF
330
FC
100
AcDbEntity
  8
\U+30EC\U+30A4\U+30E4\U+30FC 1
370
     0
100
AcDbVertex
100
AcDb2dVertex
 10
-1222.67541202072
 20
982.9353513167662
 30
0.0
  0
VERTEX
  5
100
330
FC
100
AcDbEntity
  8
\U+30EC\U+30A4\U+30E4\U+30FC 1
370
     0
100
AcDbVertex
100
AcDb2dVertex
 10
-1205.799956295772
 20
982.9353513167662
 30
0.0
  0
VERTEX
  5
101
330
FC
100
AcDbEntity
  8
\U+30EC\U+30A4\U+30E4\U+30FC 1
370
     0
100
AcDbVertex
100
AcDb2dVertex
 10
-1205.799956295772
 20
1049.673741057026
 30
0.0
  0
SEQEND
  5
102
330
FC
100
AcDbEntity
  8
\U+30EC\U+30A4\U+30E4\U+30FC 1
370
     0
  0
SPLINE
  5
103
330
ED
100
AcDbEntity
  8
\U+30EC\U+30A4\U+30E4\U+30FC 1
370
     0
100
AcDbSpline
210
0.0
220
0.0
230
1.0
 70
    11
 71
     3
 72
    41
 73
    37
 74
     0
 42
0.0000000001
 43
0.0000000001
 40
0.0
 40
0.0
 40
0.0
 40
0.0
 40
1.0
 40
1.0
 40
1.0
 40
2.0
 40
2.0
 40
2.0
 40
3.0
 40
3.0
 40
3.0
 40
4.0
 40
4.0
 40
4.0
 40
5.0
 40
5.0
 40
5.0
 40
6.0
 40
6.0
 40
6.0
 40
7.0
 40
7.0
 40
7.0
 40
8.0
 40
8.0
 40
8.0
 40
9.0
 40
9.0
 40
9.0
 40
10.0
 40
10.0
 40
10.0
 40
11.0
 40
11.0
 40
11.0
 40
12.0
 40
12.0
 40
12.0
 40
12.0
 10
-1235.783311322999
 20
991.3634329118814
 30
0.0
 10
-1235.783311322999
 20
991.3634329118814
 30
0.0
 10
-1247.204491875699
 20
1002.641297492395
 30
0.0
 10
-1247.204491875699
 20
1002.641297492395
 30
0.0
 10
-1250.710221041489
 20
998.8820092988907
 30
0.0
 10
-1253.69505176991
 20
997.3248261395577
 30
0.0
 10
-1258.107530067418
 20
997.3248261395577
 30
0.0
 10
-1262.131401594189
 20
997.3248261395577
 30
0.0
 10
-1265.248523989243
 20
998.7497176322571
 30
0.0
 10
-1267.709700203906
 20
1001.731792284289
 30
0.0
 10
-1270.30592416159
 20
1004.978450269589
 30
0.0
 10
-1271.474500550187
 20
1009.641731518423
 30
0.0
 10
-1271.474500550187
 20
1016.771701134696
 30
0.0
 10
-1271.474500550187
 20
1023.901670750969
 30
0.0
 10
-1270.30592416159
 20
1028.440928562334
 30
0.0
 10
-1267.709700203906
 20
1031.679318318469
 30
0.0
 10
-1265.248523989243
 20
1034.661392970501
 30
0.0
 10
-1262.131401594189
 20
1036.086284463201
 30
0.0
 10
-1258.107530067418
 20
1036.086284463201
 30
0.0
 10
-1253.69505176991
 20
1036.086284463201
 30
0.0
 10
-1250.710221041489
 20
1034.537369533032
 30
0.0
 10
-1247.204491875699
 20
1030.77532526314
 30
0.0
 10
-1247.204491875699
 20
1030.77532526314
 30
0.0
 10
-1235.783311322999
 20
1042.179969357511
 30
0.0
 10
-1235.783311322999
 20
1042.179969357511
 30
0.0
 10
-1241.75297277984
 20
1048.405945918454
 30
0.0
 10
-1248.761675035032
 20
1051.258484980241
 30
0.0
 10
-1258.107530067418
 20
1051.258484980241
 30
0.0
 10
-1271.606792216821
 20
1051.258484980241
 30
0.0
 10
-1288.349956275135
 20
1044.128515363968
 30
0.0
 10
-1288.349956275135
 20
1016.771701134696
 30
0.0
 10
-1288.349956275135
 20
989.414886905424
 30
0.0
 10
-1271.606792216821
 20
982.1581377752939
 30
0.0
 10
-1258.107530067418
 20
982.1581377752939
 30
0.0
 10
-1248.761675035032
 20
982.1581377752939
 30
0.0
 10
-1241.75297277984
 20
985.1347002745497
 30
0.0
 10
-1235.783311322999
 20
991.3634329118814
 30
0.0
  0
HATCH
  5
104
330
ED
100
AcDbEntity
  8
\U+30EC\U+30A4\U+30E4\U+30FC 1
 62
   179
420
  2234388
100
AcDbHatch
 10
0.0
 20
0.0
 30
0.0
210
0.0
220
0.0
230
1.0
  2
SOLID
 70
     1
 71
     0
 91
        7
 92
        1
 93
        1
 72
     4
 94
        3
 73
     0
 74
     1
 95
       32
 96
       28
 40
0.0
 40
0.0
 40
0.0
 40
0.0
 40
1.0
 40
1.0
 40
1.0
 40
2.0
 40
2.0
 40
2.0
 40
3.0
 40
3.0
 40
3.0
 40
4.0
 40
4.0
 40
4.0
 40
5.0
 40
5.0
 40
5.0
 40
6.0
 40
6.0
 40
6.0
 40
7.0
 40
7.0
 40
7.0
 40
8.0
 40
8.0
 40
8.0
 40
9.0
 40
9.0
 40
9.0
 40
9.0
 10
-1131.427234960199
 20
1011.457985858247
 10
-1131.427234960199
 20
1011.457985858247
 10
-1131.427234960199
 20
1018.58795547452
 10
-1131.427234960199
 20
1018.58795547452
 10
-1131.427234960199
 20
1037.773003212779
 10
-1142.071201971427
 20
1051.258484980241
 10
-1160.892447626444
 20
1051.258484980241
 10
-1178.41282522623
 20
1051.258484980241
 10
-1190.3549042163
 20
1038.809287934742
 10
-1190.3549042163
 20
1016.771701134696
 10
-1190.3549042163
 20
989.414886905424
 10
-1175.039387727074
 20
982.1581377752939
 10
-1159.07619328662
 20
982.1581377752939
 10
-1146.872287039671
 20
982.1581377752939
 10
-1140.254947631603
 20
985.7851343021649
 10
-1133.373024890268
 20
992.7883244045807
 10
-1133.373024890268
 20
992.7883244045807
 10
-1143.62838513076
 20
1002.770833082641
 10
-1143.62838513076
 20
1002.770833082641
 10
-1147.911327838022
 20
998.6229381183998
 10
-1151.54383651767
 20
996.41807700784
 10
-1158.943901619986
 20
996.41807700784
 10
-1168.548827832863
 20
996.41807700784
 10
-1173.741275748231
 20
1002.641297492395
 10
-1173.741275748231
 20
1011.457985858247
 10
-1173.741275748231
 20
1011.457985858247
 10
-1131.427234960199
 20
1011.457985858247
 10
-1131.427234960199
 20
1011.457985858247
 97
        0
 92
        1
 93
        4
 72
     1
 10
-1205.670420705527
 20
1075.335568307555
 11
-1222.691948479049
 21
1075.335568307555
 72
     1
 10
-1222.691948479049
 20
1075.335568307555
 11
-1222.691948479049
 21
1061.59377143599
 72
     1
 10
-1222.691948479049
 20
1061.59377143599
 11
-1205.670420705527
 21
1061.59377143599
 72
     1
 10
-1205.670420705527
 20
1061.59377143599
 11
-1205.670420705527
 21
1075.335568307555
 97
        0
 92
        1
 93
        4
 72
     1
 10
-1205.799956295772
 20
1049.673741057026
 11
-1222.67541202072
 21
1049.673741057026
 72
     1
 10
-1222.67541202072
 20
1049.673741057026
 11
-1222.67541202072
 21
982.9353513167662
 72
     1
 10
-1222.67541202072
 20
982.9353513167662
 11
-1205.799956295772
 21
982.9353513167662
 72
     1
 10
-1205.799956295772
 20
982.9353513167662
 11
-1205.799956295772
 21
1049.673741057026
 97
        0
 92
        1
 93
        2
 72
     4
 94
        3
 73
     0
 74
     0
 95
       29
 96
       25
 40
0.0
 40
0.0
 40
0.0
 40
0.0
 40
0.3527777776895833
 40
0.3527777776895833
 40
0.3527777776895833
 40
0.7055555553791667
 40
0.7055555553791667
 40
0.7055555553791667
 40
1.05833333306875
 40
1.05833333306875
 40
1.05833333306875
 40
1.411111110758333
 40
1.411111110758333
 40
1.411111110758333
 40
1.763888888447917
 40
1.763888888447917
 40
1.763888888447917
 40
2.1166666661375
 40
2.1166666661375
 40
2.1166666661375
 40
2.469444443827083
 40
2.469444443827083
 40
2.469444443827083
 40
2.822222221516667
 40
2.822222221516667
 40
2.822222221516667
 40
2.822222221516667
 10
-1043.618641232151
 20
1016.771701134696
 10
-1043.618641232151
 20
1009.771267108668
 10
-1044.007248002887
 20
1003.680338290747
 10
-1047.512977168677
 20
1000.30690079159
 10
-1049.458767098746
 20
998.3583547851326
 10
-1052.054991056431
 20
997.3248261395577
 10
-1055.431184631976
 20
997.3248261395577
 10
-1058.677842617275
 20
997.3248261395577
 10
-1061.271310498571
 20
998.3583547851326
 10
-1063.219856505028
 20
1000.30690079159
 10
-1066.725585670819
 20
1003.680338290747
 10
-1067.114192441555
 20
1009.771267108668
 10
-1067.114192441555
 20
1016.771701134696
 10
-1067.114192441555
 20
1023.645355646867
 10
-1066.725585670819
 20
1029.739040541176
 10
-1063.219856505028
 20
1033.106965887557
 10
-1061.271310498571
 20
1035.049999741238
 10
-1058.677842617275
 20
1036.086284463201
 10
-1055.431184631976
 20
1036.086284463201
 10
-1052.054991056431
 20
1036.086284463201
 10
-1049.458767098746
 20
1035.049999741238
 10
-1047.512977168677
 20
1033.106965887557
 10
-1044.007248002887
 20
1029.739040541176
 10
-1043.618641232151
 20
1023.645355646867
 10
-1043.618641232151
 20
1016.771701134696
 72
     1
 10
-1043.618641232151
 20
1016.771701134696
 11
-1043.618641232151
 21
1016.771701134696
 97
        0
 92
        1
 93
        2
 72
     4
 94
        3
 73
     0
 74
     0
 95
       29
 96
       25
 40
0.0
 40
0.0
 40
0.0
 40
0.0
 40
0.3527777776895833
 40
0.3527777776895833
 40
0.3527777776895833
 40
0.7055555553791667
 40
0.7055555553791667
 40
0.7055555553791667
 40
1.05833333306875
 40
1.05833333306875
 40
1.05833333306875
 40
1.411111110758333
 40
1.411111110758333
 40
1.411111110758333
 40
1.763888888447917
 40
1.763888888447917
 40
1.763888888447917
 40
2.1166666661375
 40
2.1166666661375
 40
2.1166666661375
 40
2.469444443827083
 40
2.469444443827083
 40
2.469444443827083
 40
2.822222221516667
 40
2.822222221516667
 40
2.822222221516667
 40
2.822222221516667
 10
-1026.745941583591
 20
1016.771701134696
 10
-1026.745941583591
 20
1028.956314846928
 10
-1028.305880819313
 20
1036.477647310325
 10
-1034.405077866399
 20
1042.962695051759
 10
-1038.685264497273
 20
1047.496440710348
 10
-1045.440407724751
 20
1051.258484980241
 10
-1055.431184631976
 20
1051.258484980241
 10
-1065.424717615588
 20
1051.258484980241
 10
-1072.044813100044
 20
1047.369661196491
 10
-1076.327755807307
 20
1042.962695051759
 10
-1082.43246500717
 20
1036.477647310325
 10
-1083.986892090114
 20
1028.956314846928
 10
-1083.986892090114
 20
1016.771701134696
 10
-1083.986892090114
 20
1004.587087422464
 10
-1082.43246500717
 20
996.9362193688215
 10
-1076.327755807307
 20
990.4539277037754
 10
-1072.044813100044
 20
986.0442054826557
 10
-1065.424717615588
 20
982.1581377752939
 10
-1055.431184631976
 20
982.1581377752939
 10
-1045.440407724751
 20
982.1581377752939
 10
-1038.685264497273
 20
986.0442054826557
 10
-1034.405077866399
 20
990.4539277037754
 10
-1028.176345229067
 20
996.8094398549644
 10
-1026.745941583591
 20
1004.587087422464
 10
-1026.745941583591
 20
1016.771701134696
 72
     1
 10
-1026.745941583591
 20
1016.771701134696
 11
-1026.745941583591
 21
1016.771701134696
 97
        0
 92
        1
 93
        2
 72
     4
 94
        3
 73
     0
 74
     0
 95
       20
 96
       16
 40
0.0
 40
0.0
 40
0.0
 40
0.0
 40
0.3527777776895833
 40
0.3527777776895833
 40
0.3527777776895833
 40
0.7055555553791667
 40
0.7055555553791667
 40
0.7055555553791667
 40
1.05833333306875
 40
1.05833333306875
 40
1.05833333306875
 40
1.411111110758333
 40
1.411111110758333
 40
1.411111110758333
 40
1.763888888447917
 40
1.763888888447917
 40
1.763888888447917
 40
1.763888888447917
 10
-1148.043619504656
 20
1022.994921619251
 10
-1148.043619504656
 20
1022.994921619251
 10
-1173.741275748231
 20
1022.994921619251
 10
-1173.741275748231
 20
1022.994921619251
 10
-1173.611740157986
 20
1025.976996271283
 10
-1173.349912901107
 20
1027.793250611107
 10
-1172.18133651251
 20
1030.25442682577
 10
-1170.365082172686
 20
1034.272786199765
 10
-1166.605793979182
 20
1037.257616928186
 10
-1160.892447626444
 20
1037.257616928186
 10
-1155.179101273705
 20
1037.257616928186
 10
-1151.417057003812
 20
1034.272786199765
 10
-1149.595290511212
 20
1030.25442682577
 10
-1148.429470199004
 20
1027.793250611107
 10
-1148.170399018513
 20
1025.976996271283
 10
-1148.043619504656
 20
1022.994921619251
 72
     1
 10
-1148.043619504656
 20
1022.994921619251
 11
-1148.043619504656
 21
1022.994921619251
 97
        0
 92
        1
 93
        2
 72
     4
 94
        3
 73
     0
 74
     0
 95
       41
 96
       37
 40
0.0
 40
0.0
 40
0.0
 40
0.0
 40
0.3527777776895833
 40
0.3527777776895833
 40
0.3527777776895833
 40
0.7055555553791667
 40
0.7055555553791667
 40
0.7055555553791667
 40
1.05833333306875
 40
1.05833333306875
 40
1.05833333306875
 40
1.411111110758333
 40
1.411111110758333
 40
1.411111110758333
 40
1.763888888447917
 40
1.763888888447917
 40
1.763888888447917
 40
2.1166666661375
 40
2.1166666661375
 40
2.1166666661375
 40
2.469444443827083
 40
2.469444443827083
 40
2.469444443827083
 40
2.822222221516667
 40
2.822222221516667
 40
2.822222221516667
 40
3.17499999920625
 40
3.17499999920625
 40
3.17499999920625
 40
3.527777776895833
 40
3.527777776895833
 40
3.527777776895833
 40
3.880555554585417
 40
3.880555554585417
 40
3.880555554585417
 40
4.233333332275
 40
4.233333332275
 40
4.233333332275
 40
4.233333332275
 10
-1235.783311322999
 20
991.3634329118814
 10
-1235.783311322999
 20
991.3634329118814
 10
-1247.204491875699
 20
1002.641297492395
 10
-1247.204491875699
 20
1002.641297492395
 10
-1250.710221041489
 20
998.8820092988907
 10
-1253.69505176991
 20
997.3248261395577
 10
-1258.107530067418
 20
997.3248261395577
 10
-1262.131401594189
 20
997.3248261395577
 10
-1265.248523989243
 20
998.7497176322571
 10
-1267.709700203906
 20
1001.731792284289
 10
-1270.30592416159
 20
1004.978450269589
 10
-1271.474500550187
 20
1009.641731518423
 10
-1271.474500550187
 20
1016.771701134696
 10
-1271.474500550187
 20
1023.901670750969
 10
-1270.30592416159
 20
1028.440928562334
 10
-1267.709700203906
 20
1031.679318318469
 10
-1265.248523989243
 20
1034.661392970501
 10
-1262.131401594189
 20
1036.086284463201
 10
-1258.107530067418
 20
1036.086284463201
 10
-1253.69505176991
 20
1036.086284463201
 10
-1250.710221041489
 20
1034.537369533032
 10
-1247.204491875699
 20
1030.77532526314
 10
-1247.204491875699
 20
1030.77532526314
 10
-1235.783311322999
 20
1042.179969357511
 10
-1235.783311322999
 20
1042.179969357511
 10
-1241.75297277984
 20
1048.405945918454
 10
-1248.761675035032
 20
1051.258484980241
 10
-1258.107530067418
 20
1051.258484980241
 10
-1271.606792216821
 20
1051.258484980241
 10
-1288.349956275135
 20
1044.128515363968
 10
-1288.349956275135
 20
1016.771701134696
 10
-1288.349956275135
 20
989.414886905424
 10
-1271.606792216821
 20
982.1581377752939
 10
-1258.107530067418
 20
982.1581377752939
 10
-1248.761675035032
 20
982.1581377752939
 10
-1241.75297277984
 20
985.1347002745497
 10
-1235.783311322999
 20
991.3634329118814
 72
     1
 10
-1235.783311322999
 20
991.3634329118814
 11
-1235.783311322999
 21
991.3634329118814
 97
        0
 75
     2
 76
     1
 98
        0
  0
SPLINE
  5
105
330
ED
100
AcDbEntity
  8
\U+30EC\U+30A4\U+30E4\U+30FC 1
370
     0
100
AcDbSpline
210
0.0
220
0.0
230
1.0
 70
    11
 71
     3
 72
    17
 73
    13
 74
     0
 42
0.0000000001
 43
0.0000000001
 40
0.0
 40
0.0
 40
0.0
 40
0.0
 40
1.0
 40
1.0
 40
1.0
 40
2.0
 40
2.0
 40
2.0
 40
3.0
 40
3.0
 40
3.0
 40
4.0
 40
4.0
 40
4.0
 40
4.0
 10
-1097.902321774136
 20
1075.244617786744
 30
0.0
 10
-1097.902321774136
 20
1075.244617786744
 30
0.0
 10
-1114.775021422695
 20
1075.244617786744
 30
0.0
 10
-1114.775021422695
 20
1075.244617786744
 30
0.0
 10
-1114.775021422695
 20
1075.244617786744
 30
0.0
 10
-1114.775021422695
 20
1002.249934645271
 30
0.0
 10
-1114.775021422695
 20
1002.249934645271
 30
0.0
 10
-1114.775021422695
 20
993.3533200641617
 30
0.0
 10
-1109.745182014231
 20
984.3381941983599
 30
0.0
 10
-1097.929882538018
 20
983.0814233653408
 30
0.0
 10
-1097.929882538018
 20
986.2729598228763
 30
0.0
 10
-1097.902321774136
 20
1075.244617786744
 30
0.0
 10
-1097.902321774136
 20
1075.244617786744
 30
0.0
  0
HATCH
  5
106
330
ED
100
AcDbEntity
  8
\U+30EC\U+30A4\U+30E4\U+30FC 1
 62
   179
420
  2234388
100
AcDbHatch
 10
0.0
 20
0.0
 30
0.0
210
0.0
220
0.0
230
1.0
  2
SOLID
 70
     1
 71
     0
 91
        1
 92
        1
 93
        2
 72
     4
 94
        3
 73
     0
 74
     0
 95
       17
 96
       13
 40
0.0
 40
0.0
 40
0.0
 40
0.0
 40
0.3527777776895833
 40
0.3527777776895833
 40
0.3527777776895833
 40
0.7055555553791667
 40
0.7055555553791667
 40
0.7055555553791667
 40
1.05833333306875
 40
1.05833333306875
 40
1.05833333306875
 40
1.411111110758333
 40
1.411111110758333
 40
1.411111110758333
 40
1.411111110758333
 10
-1097.902321774136
 20
1075.244617786744
 10
-1097.902321774136
 20
1075.244617786744
 10
-1114.775021422695
 20
1075.244617786744
 10
-1114.775021422695
 20
1075.244617786744
 10
-1114.775021422695
 20
1075.244617786744
 10
-1114.775021422695
 20
1002.249934645271
 10
-1114.775021422695
 20
1002.249934645271
 10
-1114.775021422695
 20
993.3533200641617
 10
-1109.745182014231
 20
984.3381941983599
 10
-1097.929882538018
 20
983.0814233653408
 10
-1097.929882538018
 20
986.2729598228763
 10
-1097.902321774136
 20
1075.244617786744
 10
-1097.902321774136
 20
1075.244617786744
 72
     1
 10
-1097.902321774136
 20
1075.244617786744
 11
-1097.902321774136
 21
1075.244617786744
 97
        0
 75
     2
 76
     1
 98
        0
  0
SPLINE
  5
107
330
ED
100
AcDbEntity
  8
\U+30EC\U+30A4\U+30E4\U+30FC 1
370
     0
100
AcDbSpline
210
0.0
220
0.0
230
1.0
 70
    11
 71
     3
 72
    44
 73
    40
 74
     0
 42
0.0000000001
 43
0.0000000001
 40
0.0
 40
0.0
 40
0.0
 40
0.0
 40
1.0
 40
1.0
 40
1.0
 40
2.0
 40
2.0
 40
2.0
 40
3.0
 40
3.0
 40
3.0
 40
4.0
 40
4.0
 40
4.0
 40
5.0
 40
5.0
 40
5.0
 40
6.0
 40
6.0
 40
6.0
 40
7.0
 40
7.0
 40
7.0
 40
8.0
 40
8.0
 40
8.0
 40
9.0
 40
9.0
 40
9.0
 40
10.0
 40
10.0
 40
10.0
 40
11.0
 40
11.0
 40
11.0
 40
12.0
 40
12.0
 40
12.0
 40
13.0
 40
13.0
 40
13.0
 40
13.0
 10
-1027.886957208306
 20
966.0020179876662
 30
0.0
 10
-1027.886957208306
 20
966.0020179876662
 30
0.0
 10
-1031.271419013015
 20
966.0020179876662
 30
0.0
 10
-1031.271419013015
 20
966.0020179876662
 30
0.0
 10
-1031.271419013015
 20
966.0020179876662
 30
0.0
 10
-1033.83732613043
 20
958.0590058368742
 30
0.0
 10
-1033.83732613043
 20
958.0590058368742
 30
0.0
 10
-1033.83732613043
 20
958.0590058368742
 30
0.0
 10
-1036.507964150595
 20
966.0020179876662
 30
0.0
 10
-1036.507964150595
 20
966.0020179876662
 30
0.0
 10
-1036.507964150595
 20
966.0020179876662
 30
0.0
 10
-1039.886913802528
 20
966.0020179876662
 30
0.0
 10
-1039.886913802528
 20
966.0020179876662
 30
0.0
 10
-1039.886913802528
 20
966.0020179876662
 30
0.0
 10
-1035.493728039738
 20
954.0626950739844
 30
0.0
 10
-1035.493728039738
 20
954.0626950739844
 30
0.0
 10
-1035.493728039738
 20
954.0626950739844
 30
0.0
 10
-1036.036675088213
 20
952.4834633035458
 30
0.0
 10
-1036.036675088213
 20
952.4834633035458
 30
0.0
 10
-1036.356379949244
 20
951.549153407946
 30
0.0
 10
-1036.728450261651
 20
951.3231551441137
 30
0.0
 10
-1037.640711546145
 20
951.3231551441137
 30
0.0
 10
-1037.640711546145
 20
951.3231551441137
 30
0.0
 10
-1038.379340018183
 20
951.3231551441137
 30
0.0
 10
-1038.379340018183
 20
951.3231551441137
 30
0.0
 10
-1038.379340018183
 20
951.3231551441137
 30
0.0
 10
-1038.379340018183
 20
948.4375431656684
 30
0.0
 10
-1038.379340018183
 20
948.4375431656684
 30
0.0
 10
-1038.379340018183
 20
948.4375431656684
 30
0.0
 10
-1037.122569185164
 20
948.4375431656684
 30
0.0
 10
-1037.122569185164
 20
948.4375431656684
 30
0.0
 10
-1036.061479775707
 20
948.4375431656684
 30
0.0
 10
-1035.096853039837
 20
948.6828339642183
 30
0.0
 10
-1034.360980644188
 20
949.4269745890322
 30
0.0
 10
-1033.961349567899
 20
949.8183374361565
 30
0.0
 10
-1033.666449394361
 20
950.3612844846319
 30
0.0
 10
-1033.393597831929
 20
951.077864345564
 30
0.0
 10
-1033.393597831929
 20
951.077864345564
 30
0.0
 10
-1027.886957208306
 20
966.0020179876662
 30
0.0
 10
-1027.886957208306
 20
966.0020179876662
 30
0.0
  0
SPLINE
  5
108
330
ED
100
AcDbEntity
  8
\U+30EC\U+30A4\U+30E4\U+30FC 1
370
     0
100
AcDbSpline
210
0.0
220
0.0
230
1.0
 70
    11
 71
     3
 72
    29
 73
    25
 74
     0
 42
0.0000000001
 43
0.0000000001
 40
0.0
 40
0.0
 40
0.0
 40
0.0
 40
1.0
 40
1.0
 40
1.0
 40
2.0
 40
2.0
 40
2.0
 40
3.0
 40
3.0
 40
3.0
 40
4.0
 40
4.0
 40
4.0
 40
5.0
 40
5.0
 40
5.0
 40
6.0
 40
6.0
 40
6.0
 40
7.0
 40
7.0
 40
7.0
 40
8.0
 40
8.0
 40
8.0
 40
8.0
 10
-1040.261740191323
 20
953.1504337894902
 30
0.0
 10
-1040.261740191323
 20
953.1504337894902
 30
0.0
 10
-1040.261740191323
 20
955.8596568790907
 30
0.0
 10
-1040.261740191323
 20
955.8596568790907
 30
0.0
 10
-1040.261740191323
 20
955.8596568790907
 30
0.0
 10
-1041.493706336849
 20
955.8596568790907
 30
0.0
 10
-1041.493706336849
 20
955.8596568790907
 30
0.0
 10
-1042.306748871368
 20
955.8596568790907
 30
0.0
 10
-1042.629209808787
 20
956.2592879553797
 30
0.0
 10
-1042.629209808787
 20
957.0227211149111
 30
0.0
 10
-1042.629209808787
 20
957.0227211149111
 30
0.0
 10
-1042.629209808787
 20
970.7121525350998
 30
0.0
 10
-1042.629209808787
 20
970.7121525350998
 30
0.0
 10
-1042.629209808787
 20
970.7121525350998
 30
0.0
 10
-1045.837282724652
 20
970.7121525350998
 30
0.0
 10
-1045.837282724652
 20
970.7121525350998
 30
0.0
 10
-1045.837282724652
 20
970.7121525350998
 30
0.0
 10
-1045.837282724652
 20
956.8270396913489
 30
0.0
 10
-1045.837282724652
 20
956.8270396913489
 30
0.0
 10
-1045.837282724652
 20
954.9997610459724
 30
0.0
 10
-1044.729340016595
 20
953.1504337894902
 30
0.0
 10
-1042.0890188367
 20
953.1504337894902
 30
0.0
 10
-1042.0890188367
 20
953.1504337894902
 30
0.0
 10
-1040.261740191323
 20
953.1504337894902
 30
0.0
 10
-1040.261740191323
 20
953.1504337894902
 30
0.0
  0
SPLINE
  5
109
330
ED
100
AcDbEntity
  8
\U+30EC\U+30A4\U+30E4\U+30FC 1
370
     0
100
AcDbSpline
210
0.0
220
0.0
230
1.0
 70
    11
 71
     3
 72
    23
 73
    19
 74
     0
 42
0.0000000001
 43
0.0000000001
 40
0.0
 40
0.0
 40
0.0
 40
0.0
 40
1.0
 40
1.0
 40
1.0
 40
2.0
 40
2.0
 40
2.0
 40
3.0
 40
3.0
 40
3.0
 40
4.0
 40
4.0
 40
4.0
 40
5.0
 40
5.0
 40
5.0
 40
6.0
 40
6.0
 40
6.0
 40
6.0
 10
-1051.647091750977
 20
957.8853730244176
 30
0.0
 10
-1051.647091750977
 20
957.0695744135104
 30
0.0
 10
-1051.76560303567
 20
956.5789928164108
 30
0.0
 10
-1052.137673348077
 20
956.2592879553797
 30
0.0
 10
-1052.680620396552
 20
955.7383895180099
 30
0.0
 10
-1053.248372132521
 20
955.6391707680347
 30
0.0
 10
-1054.039366055935
 20
955.6391707680347
 30
0.0
 10
-1055.370550951435
 20
955.6391707680347
 30
0.0
 10
-1055.99066813878
 20
956.209678580392
 30
0.0
 10
-1055.99066813878
 20
957.0971351773924
 30
0.0
 10
-1055.99066813878
 20
958.0590058368742
 30
0.0
 10
-1055.370550951435
 20
958.5771481978558
 30
0.0
 10
-1054.088975430922
 20
958.5771481978558
 30
0.0
 10
-1054.088975430922
 20
958.5771481978558
 30
0.0
 10
-1051.647091750977
 20
958.5771481978558
 30
0.0
 10
-1051.647091750977
 20
958.5771481978558
 30
0.0
 10
-1051.647091750977
 20
958.5771481978558
 30
0.0
 10
-1051.647091750977
 20
957.8853730244176
 30
0.0
 10
-1051.647091750977
 20
957.8853730244176
 30
0.0
  0
SPLINE
  5
10A
330
ED
100
AcDbEntity
  8
\U+30EC\U+30A4\U+30E4\U+30FC 1
370
     0
100
AcDbSpline
210
0.0
220
0.0
230
1.0
 70
    11
 71
     3
 72
    47
 73
    43
 74
     0
 42
0.0000000001
 43
0.0000000001
 40
0.0
 40
0.0
 40
0.0
 40
0.0
 40
1.0
 40
1.0
 40
1.0
 40
2.0
 40
2.0
 40
2.0
 40
3.0
 40
3.0
 40
3.0
 40
4.0
 40
4.0
 40
4.0
 40
5.0
 40
5.0
 40
5.0
 40
6.0
 40
6.0
 40
6.0
 40
7.0
 40
7.0
 40
7.0
 40
8.0
 40
8.0
 40
8.0
 40
9.0
 40
9.0
 40
9.0
 40
10.0
 40
10.0
 40
10.0
 40
11.0
 40
11.0
 40
11.0
 40
12.0
 40
12.0
 40
12.0
 40
13.0
 40
13.0
 40
13.0
 40
14.0
 40
14.0
 40
14.0
 40
14.0
 10
-1048.433506682336
 20
953.1504337894902
 30
0.0
 10
-1048.433506682336
 20
953.1504337894902
 30
0.0
 10
-1048.433506682336
 20
961.6115883012639
 30
0.0
 10
-1048.433506682336
 20
961.6115883012639
 30
0.0
 10
-1048.433506682336
 20
964.6184676407898
 30
0.0
 10
-1050.288346091595
 20
966.1480900362408
 30
0.0
 10
-1053.918098694854
 20
966.1480900362408
 30
0.0
 10
-1056.065082201261
 20
966.1480900362408
 30
0.0
 10
-1057.272243659293
 20
965.7071178141288
 30
0.0
 10
-1058.5317705687
 20
964.3235674672525
 30
0.0
 10
-1058.5317705687
 20
964.3235674672525
 30
0.0
 10
-1056.508810499762
 20
962.3254120858076
 30
0.0
 10
-1056.508810499762
 20
962.3254120858076
 30
0.0
 10
-1055.814279249935
 20
963.1136499328327
 30
0.0
 10
-1055.199674215367
 20
963.4388669466404
 30
0.0
 10
-1054.039366055935
 20
963.4388669466404
 30
0.0
 10
-1052.336110848027
 20
963.4388669466404
 30
0.0
 10
-1051.647091750977
 20
962.8159936829071
 30
0.0
 10
-1051.647091750977
 20
961.4131508013135
 30
0.0
 10
-1051.647091750977
 20
961.4131508013135
 30
0.0
 10
-1051.647091750977
 20
960.7737410792511
 30
0.0
 10
-1051.647091750977
 20
960.7737410792511
 30
0.0
 10
-1051.647091750977
 20
960.7737410792511
 30
0.0
 10
-1054.631922479398
 20
960.7737410792511
 30
0.0
 10
-1054.631922479398
 20
960.7737410792511
 30
0.0
 10
-1057.666362582806
 20
960.7737410792511
 30
0.0
 10
-1059.077473693564
 20
959.0952905588373
 30
0.0
 10
-1059.077473693564
 20
957.0475258024048
 30
0.0
 10
-1059.077473693564
 20
955.9092662540783
 30
0.0
 10
-1058.705403381157
 20
954.8757376085033
 30
0.0
 10
-1058.016384284107
 20
954.1619138239596
 30
0.0
 10
-1057.272243659293
 20
953.4205292755338
 30
0.0
 10
-1056.186349562342
 20
953.023654275633
 30
0.0
 10
-1054.731141229373
 20
953.023654275633
 30
0.0
 10
-1053.248372132521
 20
953.023654275633
 30
0.0
 10
-1052.435329598002
 20
953.39572458804
 30
0.0
 10
-1051.567165535719
 20
954.2611325739348
 30
0.0
 10
-1051.567165535719
 20
954.2611325739348
 30
0.0
 10
-1051.567165535719
 20
953.1504337894902
 30
0.0
 10
-1051.567165535719
 20
953.1504337894902
 30
0.0
 10
-1051.567165535719
 20
953.1504337894902
 30
0.0
 10
-1048.433506682336
 20
953.1504337894902
 30
0.0
 10
-1048.433506682336
 20
953.1504337894902
 30
0.0
  0
SPLINE
  5
10B
330
ED
100
AcDbEntity
  8
\U+30EC\U+30A4\U+30E4\U+30FC 1
370
     0
100
AcDbSpline
210
0.0
220
0.0
230
1.0
 70
    11
 71
     3
 72
    53
 73
    49
 74
     0
 42
0.0000000001
 43
0.0000000001
 40
0.0
 40
0.0
 40
0.0
 40
0.0
 40
1.0
 40
1.0
 40
1.0
 40
2.0
 40
2.0
 40
2.0
 40
3.0
 40
3.0
 40
3.0
 40
4.0
 40
4.0
 40
4.0
 40
5.0
 40
5.0
 40
5.0
 40
6.0
 40
6.0
 40
6.0
 40
7.0
 40
7.0
 40
7.0
 40
8.0
 40
8.0
 40
8.0
 40
9.0
 40
9.0
 40
9.0
 40
10.0
 40
10.0
 40
10.0
 40
11.0
 40
11.0
 40
11.0
 40
12.0
 40
12.0
 40
12.0
 40
13.0
 40
13.0
 40
13.0
 40
14.0
 40
14.0
 40
14.0
 40
15.0
 40
15.0
 40
15.0
 40
16.0
 40
16.0
 40
16.0
 40
16.0
 10
-1060.95160563754
 20
953.1504337894902
 30
0.0
 10
-1060.95160563754
 20
953.1504337894902
 30
0.0
 10
-1060.95160563754
 20
955.8596568790907
 30
0.0
 10
-1060.95160563754
 20
955.8596568790907
 30
0.0
 10
-1060.95160563754
 20
955.8596568790907
 30
0.0
 10
-1062.11466987336
 20
955.8596568790907
 30
0.0
 10
-1062.11466987336
 20
955.8596568790907
 30
0.0
 10
-1062.88085910928
 20
955.8596568790907
 30
0.0
 10
-1063.228124734193
 20
956.2840926428735
 30
0.0
 10
-1063.228124734193
 20
957.0227211149111
 30
0.0
 10
-1063.228124734193
 20
957.0227211149111
 30
0.0
 10
-1063.228124734193
 20
963.1908200717023
 30
0.0
 10
-1063.228124734193
 20
963.1908200717023
 30
0.0
 10
-1063.228124734193
 20
963.1908200717023
 30
0.0
 10
-1060.95160563754
 20
963.1908200717023
 30
0.0
 10
-1060.95160563754
 20
963.1908200717023
 30
0.0
 10
-1060.95160563754
 20
963.1908200717023
 30
0.0
 10
-1060.95160563754
 20
965.627191598871
 30
0.0
 10
-1060.95160563754
 20
965.627191598871
 30
0.0
 10
-1060.95160563754
 20
965.627191598871
 30
0.0
 10
-1063.228124734193
 20
965.627191598871
 30
0.0
 10
-1063.228124734193
 20
965.627191598871
 30
0.0
 10
-1063.228124734193
 20
965.627191598871
 30
0.0
 10
-1063.228124734193
 20
969.4278209381987
 30
0.0
 10
-1063.228124734193
 20
969.4278209381987
 30
0.0
 10
-1063.228124734193
 20
969.4278209381987
 30
0.0
 10
-1066.433441573669
 20
969.4278209381987
 30
0.0
 10
-1066.433441573669
 20
969.4278209381987
 30
0.0
 10
-1066.433441573669
 20
969.4278209381987
 30
0.0
 10
-1066.433441573669
 20
965.627191598871
 30
0.0
 10
-1066.433441573669
 20
965.627191598871
 30
0.0
 10
-1066.433441573669
 20
965.627191598871
 30
0.0
 10
-1067.79494330944
 20
965.627191598871
 30
0.0
 10
-1067.79494330944
 20
965.627191598871
 30
0.0
 10
-1067.79494330944
 20
965.627191598871
 30
0.0
 10
-1067.79494330944
 20
963.1908200717023
 30
0.0
 10
-1067.79494330944
 20
963.1908200717023
 30
0.0
 10
-1067.79494330944
 20
963.1908200717023
 30
0.0
 10
-1066.433441573669
 20
963.1908200717023
 30
0.0
 10
-1066.433441573669
 20
963.1908200717023
 30
0.0
 10
-1066.433441573669
 20
963.1908200717023
 30
0.0
 10
-1066.433441573669
 20
956.8270396913489
 30
0.0
 10
-1066.433441573669
 20
956.8270396913489
 30
0.0
 10
-1066.433441573669
 20
954.9997610459724
 30
0.0
 10
-1065.322742789225
 20
953.1504337894902
 30
0.0
 10
-1062.704470220435
 20
953.1504337894902
 30
0.0
 10
-1062.704470220435
 20
953.1504337894902
 30
0.0
 10
-1060.95160563754
 20
953.1504337894902
 30
0.0
 10
-1060.95160563754
 20
953.1504337894902
 30
0.0
  0
POLYLINE
  5
10C
330
ED
100
AcDbEntity
  8
\U+30EC\U+30A4\U+30E4\U+30FC 1
370
     0
100
AcDb2dPolyline
 66
     1
 10
0.0
 20
0.0
 30
0.0
  0
VERTEX
  5
10D
330
10C
100
AcDbEntity
  8
\U+30EC\U+30A4\U+30E4\U+30FC 1
370
     0
100
AcDbVertex
100
AcDb2dVertex
 10
-1070.58133653791
 20
970.7121525350998
 30
0.0
  0
VERTEX
  5
10E
330
10C
100
AcDbEntity
  8
\U+30EC\U+30A4\U+30E4\U+30FC 1
370
     0
100
AcDbVertex
100
AcDb2dVertex
 10
-1074.015407717607
 20
970.7121525350998
 30
0.0
  0
VERTEX
  5
10F
330
10C
100
AcDbEntity
  8
\U+30EC\U+30A4\U+30E4\U+30FC 1
370
     0
100
AcDbVertex
100
AcDb2dVertex
 10
-1074.015407717607
 20
953.1504337894902
 30
0.0
  0
VERTEX
  5
110
330
10C
100
AcDbEntity
  8
\U+30EC\U+30A4\U+30E4\U+30FC 1
370
     0
100
AcDbVertex
100
AcDb2dVertex
 10
-1070.58133653791
 20
953.1504337894902
 30
0.0
  0
VERTEX
  5
111
330
10C
100
AcDbEntity
  8
\U+30EC\U+30A4\U+30E4\U+30FC 1
370
     0
100
AcDbVertex
100
AcDb2dVertex
 10
-1070.58133653791
 20
970.7121525350998
 30
0.0
  0
SEQEND
  5
112
330
10C
100
AcDbEntity
  8
\U+30EC\U+30A4\U+30E4\U+30FC 1
370
     0
  0
SPLINE
  5
113
330
ED
100
AcDbEntity
  8
\U+30EC\U+30A4\U+30E4\U+30FC 1
370
     0
100
AcDbSpline
210
0.0
220
0.0
230
1.0
 70
    11
 71
     3
 72
    44
 73
    40
 74
     0
 42
0.0000000001
 43
0.0000000001
 40
0.0
 40
0.0
 40
0.0
 40
0.0
 40
1.0
 40
1.0
 40
1.0
 40
2.0
 40
2.0
 40
2.0
 40
3.0
 40
3.0
 40
3.0
 40
4.0
 40
4.0
 40
4.0
 40
5.0
 40
5.0
 40
5.0
 40
6.0
 40
6.0
 40
6.0
 40
7.0
 40
7.0
 40
7.0
 40
8.0
 40
8.0
 40
8.0
 40
9.0
 40
9.0
 40
9.0
 40
10.0
 40
10.0
 40
10.0
 40
11.0
 40
11.0
 40
11.0
 40
12.0
 40
12.0
 40
12.0
 40
13.0
 40
13.0
 40
13.0
 40
13.0
 10
-1083.449457194416
 20
953.1504337894902
 30
0.0
 10
-1083.449457194416
 20
953.1504337894902
 30
0.0
 10
-1083.449457194416
 20
961.3635414263258
 30
0.0
 10
-1083.449457194416
 20
961.3635414263258
 30
0.0
 10
-1083.449457194416
 20
962.7691403843078
 30
0.0
 10
-1083.719552680459
 20
963.9790579187274
 30
0.0
 10
-1084.755837402422
 20
965.0098304879142
 30
0.0
 10
-1085.475173339742
 20
965.7264103488462
 30
0.0
 10
-1086.508701985317
 20
966.1480900362408
 30
0.0
 10
-1087.795789658607
 20
966.1480900362408
 30
0.0
 10
-1088.980902505533
 20
966.1480900362408
 30
0.0
 10
-1090.166015352459
 20
965.7071178141288
 30
0.0
 10
-1091.00661865086
 20
964.8169051407402
 30
0.0
 10
-1091.00661865086
 20
964.8169051407402
 30
0.0
 10
-1091.00661865086
 20
966.0020179876662
 30
0.0
 10
-1091.00661865086
 20
966.0020179876662
 30
0.0
 10
-1091.00661865086
 20
966.0020179876662
 30
0.0
 10
-1094.140277504243
 20
966.0020179876662
 30
0.0
 10
-1094.140277504243
 20
966.0020179876662
 30
0.0
 10
-1094.140277504243
 20
966.0020179876662
 30
0.0
 10
-1094.140277504243
 20
953.1504337894902
 30
0.0
 10
-1094.140277504243
 20
953.1504337894902
 30
0.0
 10
-1094.140277504243
 20
953.1504337894902
 30
0.0
 10
-1090.932204588378
 20
953.1504337894902
 30
0.0
 10
-1090.932204588378
 20
953.1504337894902
 30
0.0
 10
-1090.932204588378
 20
953.1504337894902
 30
0.0
 10
-1090.932204588378
 20
960.9225692042138
 30
0.0
 10
-1090.932204588378
 20
960.9225692042138
 30
0.0
 10
-1090.932204588378
 20
962.6699216343326
 30
0.0
 10
-1089.793945040052
 20
963.2597219814073
 30
0.0
 10
-1088.779708929194
 20
963.2597219814073
 30
0.0
 10
-1087.770984971113
 20
963.2597219814073
 30
0.0
 10
-1086.65753011028
 20
962.6699216343326
 30
0.0
 10
-1086.65753011028
 20
960.9225692042138
 30
0.0
 10
-1086.65753011028
 20
960.9225692042138
 30
0.0
 10
-1086.65753011028
 20
953.1504337894902
 30
0.0
 10
-1086.65753011028
 20
953.1504337894902
 30
0.0
 10
-1086.65753011028
 20
953.1504337894902
 30
0.0
 10
-1083.449457194416
 20
953.1504337894902
 30
0.0
 10
-1083.449457194416
 20
953.1504337894902
 30
0.0
  0
POLYLINE
  5
114
330
ED
100
AcDbEntity
  8
\U+30EC\U+30A4\U+30E4\U+30FC 1
370
     0
100
AcDb2dPolyline
 66
     1
 10
0.0
 20
0.0
 30
0.0
  0
VERTEX
  5
115
330
114
100
AcDbEntity
  8
\U+30EC\U+30A4\U+30E4\U+30FC 1
370
     0
100
AcDbVertex
100
AcDb2dVertex
 10
-1097.695616045021
 20
970.811371285075
 30
0.0
  0
VERTEX
  5
116
330
114
100
AcDbEntity
  8
\U+30EC\U+30A4\U+30E4\U+30FC 1
370
     0
100
AcDbVertex
100
AcDb2dVertex
 10
-1100.980859099755
 20
970.811371285075
 30
0.0
  0
VERTEX
  5
117
330
114
100
AcDbEntity
  8
\U+30EC\U+30A4\U+30E4\U+30FC 1
370
     0
100
AcDbVertex
100
AcDb2dVertex
 10
-1100.980859099755
 20
968.1930987162851
 30
0.0
  0
VERTEX
  5
118
330
114
100
AcDbEntity
  8
\U+30EC\U+30A4\U+30E4\U+30FC 1
370
     0
100
AcDbVertex
100
AcDb2dVertex
 10
-1097.695616045021
 20
968.1930987162851
 30
0.0
  0
VERTEX
  5
119
330
114
100
AcDbEntity
  8
\U+30EC\U+30A4\U+30E4\U+30FC 1
370
     0
100
AcDbVertex
100
AcDb2dVertex
 10
-1097.695616045021
 20
970.811371285075
 30
0.0
  0
SEQEND
  5
11A
330
114
100
AcDbEntity
  8
\U+30EC\U+30A4\U+30E4\U+30FC 1
370
     0
  0
POLYLINE
  5
11B
330
ED
100
AcDbEntity
  8
\U+30EC\U+30A4\U+30E4\U+30FC 1
370
     0
100
AcDb2dPolyline
 66
     1
 10
0.0
 20
0.0
 30
0.0
  0
VERTEX
  5
11C
330
11B
100
AcDbEntity
  8
\U+30EC\U+30A4\U+30E4\U+30FC 1
370
     0
100
AcDbVertex
100
AcDb2dVertex
 10
-1097.720420732514
 20
965.627191598871
 30
0.0
  0
VERTEX
  5
11D
330
11B
100
AcDbEntity
  8
\U+30EC\U+30A4\U+30E4\U+30FC 1
370
     0
100
AcDbVertex
100
AcDb2dVertex
 10
-1100.934005801156
 20
965.627191598871
 30
0.0
  0
VERTEX
  5
11E
330
11B
100
AcDbEntity
  8
\U+30EC\U+30A4\U+30E4\U+30FC 1
370
     0
100
AcDbVertex
100
AcDb2dVertex
 10
-1100.934005801156
 20
953.1504337894902
 30
0.0
  0
VERTEX
  5
11F
330
11B
100
AcDbEntity
  8
\U+30EC\U+30A4\U+30E4\U+30FC 1
370
     0
100
AcDbVertex
100
AcDb2dVertex
 10
-1097.720420732514
 20
953.1504337894902
 30
0.0
  0
VERTEX
  5
120
330
11B
100
AcDbEntity
  8
\U+30EC\U+30A4\U+30E4\U+30FC 1
370
     0
100
AcDbVertex
100
AcDb2dVertex
 10
-1097.720420732514
 20
965.627191598871
 30
0.0
  0
SEQEND
  5
121
330
11B
100
AcDbEntity
  8
\U+30EC\U+30A4\U+30E4\U+30FC 1
370
     0
  0
SPLINE
  5
122
330
ED
100
AcDbEntity
  8
\U+30EC\U+30A4\U+30E4\U+30FC 1
370
     0
100
AcDbSpline
210
0.0
220
0.0
230
1.0
 70
    11
 71
     3
 72
    20
 73
    16
 74
     0
 42
0.0000000001
 43
0.0000000001
 40
0.0
 40
0.0
 40
0.0
 40
0.0
 40
1.0
 40
1.0
 40
1.0
 40
2.0
 40
2.0
 40
2.0
 40
3.0
 40
3.0
 40
3.0
 40
4.0
 40
4.0
 40
4.0
 40
5.0
 40
5.0
 40
5.0
 40
5.0
 10
-1112.785134270415
 20
960.7737410792511
 30
0.0
 10
-1112.785134270415
 20
960.7737410792511
 30
0.0
 10
-1117.67716985947
 20
960.7737410792511
 30
0.0
 10
-1117.67716985947
 20
960.7737410792511
 30
0.0
 10
-1117.649609095588
 20
961.3414928152202
 30
0.0
 10
-1117.597243644212
 20
961.6832462873571
 30
0.0
 10
-1117.376757533156
 20
962.1517792733509
 30
0.0
 10
-1117.032247984631
 20
962.9152124328823
 30
0.0
 10
-1116.318424200087
 20
963.4802080924633
 30
0.0
 10
-1115.229774026748
 20
963.4802080924633
 30
0.0
 10
-1114.146636006186
 20
963.4802080924633
 30
0.0
 10
-1113.427300068865
 20
962.9152124328823
 30
0.0
 10
-1113.08279052034
 20
962.1517792733509
 30
0.0
 10
-1112.859548332896
 20
961.6832462873571
 30
0.0
 10
-1112.809938957909
 20
961.3414928152202
 30
0.0
 10
-1112.785134270415
 20
960.7737410792511
 30
0.0
  0
SPLINE
  5
123
330
ED
100
AcDbEntity
  8
\U+30EC\U+30A4\U+30E4\U+30FC 1
370
     0
100
AcDbSpline
210
0.0
220
0.0
230
1.0
 70
    11
 71
     3
 72
    32
 73
    28
 74
     0
 42
0.0000000001
 43
0.0000000001
 40
0.0
 40
0.0
 40
0.0
 40
0.0
 40
1.0
 40
1.0
 40
1.0
 40
2.0
 40
2.0
 40
2.0
 40
3.0
 40
3.0
 40
3.0
 40
4.0
 40
4.0
 40
4.0
 40
5.0
 40
5.0
 40
5.0
 40
6.0
 40
6.0
 40
6.0
 40
7.0
 40
7.0
 40
7.0
 40
8.0
 40
8.0
 40
8.0
 40
9.0
 40
9.0
 40
9.0
 40
9.0
 10
-1109.62391465315
 20
958.5771481978558
 30
0.0
 10
-1109.62391465315
 20
958.5771481978558
 30
0.0
 10
-1109.62391465315
 20
959.9331377808501
 30
0.0
 10
-1109.62391465315
 20
959.9331377808501
 30
0.0
 10
-1109.62391465315
 20
963.5794268424385
 30
0.0
 10
-1111.646874722088
 20
966.1480900362408
 30
0.0
 10
-1115.229774026748
 20
966.1480900362408
 30
0.0
 10
-1118.56462645647
 20
966.1480900362408
 30
0.0
 10
-1120.835633400347
 20
963.7806204187771
 30
0.0
 10
-1120.835633400347
 20
959.5886282323252
 30
0.0
 10
-1120.835633400347
 20
954.3823999350155
 30
0.0
 10
-1117.925216734408
 20
953.0016056645275
 30
0.0
 10
-1114.885264478223
 20
953.0016056645275
 30
0.0
 10
-1112.561892082971
 20
953.0016056645275
 30
0.0
 10
-1111.302365173563
 20
953.6906247615774
 30
0.0
 10
-1109.993228889168
 20
955.0245657334661
 30
0.0
 10
-1109.993228889168
 20
955.0245657334661
 30
0.0
 10
-1111.944530972014
 20
956.9262584413241
 30
0.0
 10
-1111.944530972014
 20
956.9262584413241
 30
0.0
 10
-1112.763085659309
 20
956.1325084415224
 30
0.0
 10
-1113.452104756359
 20
955.7190969832925
 30
0.0
 10
-1114.857703714341
 20
955.7190969832925
 30
0.0
 10
-1116.684982359718
 20
955.7190969832925
 30
0.0
 10
-1117.67716985947
 20
956.898697677442
 30
0.0
 10
-1117.67716985947
 20
958.5771481978558
 30
0.0
 10
-1117.67716985947
 20
958.5771481978558
 30
0.0
 10
-1109.62391465315
 20
958.5771481978558
 30
0.0
 10
-1109.62391465315
 20
958.5771481978558
 30
0.0
  0
SPLINE
  5
124
330
ED
100
AcDbEntity
  8
\U+30EC\U+30A4\U+30E4\U+30FC 1
370
     0
100
AcDbSpline
210
0.0
220
0.0
230
1.0
 70
    11
 71
     3
 72
    17
 73
    13
 74
     0
 42
0.0000000001
 43
0.0000000001
 40
0.0
 40
0.0
 40
0.0
 40
0.0
 40
1.0
 40
1.0
 40
1.0
 40
2.0
 40
2.0
 40
2.0
 40
3.0
 40
3.0
 40
3.0
 40
4.0
 40
4.0
 40
4.0
 40
4.0
 10
-1127.006488433526
 20
959.5886282323252
 30
0.0
 10
-1127.006488433526
 20
957.5160587883988
 30
0.0
 10
-1127.279339995958
 20
955.8872176429727
 30
0.0
 10
-1129.20583739131
 20
955.8872176429727
 30
0.0
 10
-1131.132334786661
 20
955.8872176429727
 30
0.0
 10
-1131.377625585211
 20
957.5160587883988
 30
0.0
 10
-1131.377625585211
 20
959.5886282323252
 30
0.0
 10
-1131.377625585211
 20
961.6611976762514
 30
0.0
 10
-1131.132334786661
 20
963.2597219814073
 30
0.0
 10
-1129.20583739131
 20
963.2597219814073
 30
0.0
 10
-1127.279339995958
 20
963.2597219814073
 30
0.0
 10
-1127.006488433526
 20
961.6611976762514
 30
0.0
 10
-1127.006488433526
 20
959.5886282323252
 30
0.0
  0
SPLINE
  5
125
330
ED
100
AcDbEntity
  8
\U+30EC\U+30A4\U+30E4\U+30FC 1
370
     0
100
AcDbSpline
210
0.0
220
0.0
230
1.0
 70
    11
 71
     3
 72
    38
 73
    34
 74
     0
 42
0.0000000001
 43
0.0000000001
 40
0.0
 40
0.0
 40
0.0
 40
0.0
 40
1.0
 40
1.0
 40
1.0
 40
2.0
 40
2.0
 40
2.0
 40
3.0
 40
3.0
 40
3.0
 40
4.0
 40
4.0
 40
4.0
 40
5.0
 40
5.0
 40
5.0
 40
6.0
 40
6.0
 40
6.0
 40
7.0
 40
7.0
 40
7.0
 40
8.0
 40
8.0
 40
8.0
 40
9.0
 40
9.0
 40
9.0
 40
10.0
 40
10.0
 40
10.0
 40
11.0
 40
11.0
 40
11.0
 40
11.0
 10
-1123.795659441273
 20
953.1504337894902
 30
0.0
 10
-1123.795659441273
 20
953.1504337894902
 30
0.0
 10
-1123.795659441273
 20
970.7121525350998
 30
0.0
 10
-1123.795659441273
 20
970.7121525350998
 30
0.0
 10
-1123.795659441273
 20
970.7121525350998
 30
0.0
 10
-1127.006488433526
 20
970.7121525350998
 30
0.0
 10
-1127.006488433526
 20
970.7121525350998
 30
0.0
 10
-1127.006488433526
 20
970.7121525350998
 30
0.0
 10
-1127.006488433526
 20
964.8665145157279
 30
0.0
 10
-1127.006488433526
 20
964.8665145157279
 30
0.0
 10
-1127.849847808315
 20
965.8035804877159
 30
0.0
 10
-1128.836523155291
 20
966.1480900362408
 30
0.0
 10
-1130.145659439686
 20
966.1480900362408
 30
0.0
 10
-1131.427234960199
 20
966.1480900362408
 30
0.0
 10
-1132.540689821031
 20
965.7264103488462
 30
0.0
 10
-1133.254513605575
 20
964.9877818768086
 30
0.0
 10
-1134.491991903877
 20
963.7310110437895
 30
0.0
 10
-1134.591210653852
 20
961.7328556623446
 30
0.0
 10
-1134.591210653852
 20
959.5886282323252
 30
0.0
 10
-1134.591210653852
 20
957.4168400384236
 30
0.0
 10
-1134.491991903877
 20
955.4186846569787
 30
0.0
 10
-1133.254513605575
 20
954.1619138239596
 30
0.0
 10
-1132.540689821031
 20
953.4205292755338
 30
0.0
 10
-1131.407942425481
 20
953.0016056645275
 30
0.0
 10
-1130.120854752192
 20
953.0016056645275
 30
0.0
 10
-1128.76210909281
 20
953.0016056645275
 30
0.0
 10
-1127.825043120822
 20
953.3709199005463
 30
0.0
 10
-1126.934830447433
 20
954.36035132391
 30
0.0
 10
-1126.934830447433
 20
954.36035132391
 30
0.0
 10
-1126.934830447433
 20
953.1504337894902
 30
0.0
 10
-1126.934830447433
 20
953.1504337894902
 30
0.0
 10
-1126.934830447433
 20
953.1504337894902
 30
0.0
 10
-1123.795659441273
 20
953.1504337894902
 30
0.0
 10
-1123.795659441273
 20
953.1504337894902
 30
0.0
  0
SPLINE
  5
126
330
ED
100
AcDbEntity
  8
\U+30EC\U+30A4\U+30E4\U+30FC 1
370
     0
100
AcDbSpline
210
0.0
220
0.0
230
1.0
 70
    11
 71
     3
 72
    23
 73
    19
 74
     0
 42
0.0000000001
 43
0.0000000001
 40
0.0
 40
0.0
 40
0.0
 40
0.0
 40
1.0
 40
1.0
 40
1.0
 40
2.0
 40
2.0
 40
2.0
 40
3.0
 40
3.0
 40
3.0
 40
4.0
 40
4.0
 40
4.0
 40
5.0
 40
5.0
 40
5.0
 40
6.0
 40
6.0
 40
6.0
 40
6.0
 10
-1140.712456312044
 20
957.8853730244176
 30
0.0
 10
-1140.712456312044
 20
957.0695744135104
 30
0.0
 10
-1140.836479749513
 20
956.5789928164108
 30
0.0
 10
-1141.205793985532
 20
956.2592879553797
 30
0.0
 10
-1141.751497110396
 20
955.7383895180099
 30
0.0
 10
-1142.316492769977
 20
955.6391707680347
 30
0.0
 10
-1143.10748669339
 20
955.6391707680347
 30
0.0
 10
-1144.441427665279
 20
955.6391707680347
 30
0.0
 10
-1145.056032699847
 20
956.209678580392
 30
0.0
 10
-1145.056032699847
 20
957.0971351773924
 30
0.0
 10
-1145.056032699847
 20
958.0590058368742
 30
0.0
 10
-1144.441427665279
 20
958.5771481978558
 30
0.0
 10
-1143.159852144766
 20
958.5771481978558
 30
0.0
 10
-1143.159852144766
 20
958.5771481978558
 30
0.0
 10
-1140.712456312044
 20
958.5771481978558
 30
0.0
 10
-1140.712456312044
 20
958.5771481978558
 30
0.0
 10
-1140.712456312044
 20
958.5771481978558
 30
0.0
 10
-1140.712456312044
 20
957.8853730244176
 30
0.0
 10
-1140.712456312044
 20
957.8853730244176
 30
0.0
  0
SPLINE
  5
127
330
ED
100
AcDbEntity
  8
\U+30EC\U+30A4\U+30E4\U+30FC 1
370
     0
100
AcDbSpline
210
0.0
220
0.0
230
1.0
 70
    11
 71
     3
 72
    47
 73
    43
 74
     0
 42
0.0000000001
 43
0.0000000001
 40
0.0
 40
0.0
 40
0.0
 40
0.0
 40
1.0
 40
1.0
 40
1.0
 40
2.0
 40
2.0
 40
2.0
 40
3.0
 40
3.0
 40
3.0
 40
4.0
 40
4.0
 40
4.0
 40
5.0
 40
5.0
 40
5.0
 40
6.0
 40
6.0
 40
6.0
 40
7.0
 40
7.0
 40
7.0
 40
8.0
 40
8.0
 40
8.0
 40
9.0
 40
9.0
 40
9.0
 40
10.0
 40
10.0
 40
10.0
 40
11.0
 40
11.0
 40
11.0
 40
12.0
 40
12.0
 40
12.0
 40
13.0
 40
13.0
 40
13.0
 40
14.0
 40
14.0
 40
14.0
 40
14.0
 10
-1137.504383396179
 20
953.1504337894902
 30
0.0
 10
-1137.504383396179
 20
953.1504337894902
 30
0.0
 10
-1137.504383396179
 20
961.6115883012639
 30
0.0
 10
-1137.504383396179
 20
961.6115883012639
 30
0.0
 10
-1137.504383396179
 20
964.6184676407898
 30
0.0
 10
-1139.35646672905
 20
966.1480900362408
 30
0.0
 10
-1142.988975408697
 20
966.1480900362408
 30
0.0
 10
-1145.135958915105
 20
966.1480900362408
 30
0.0
 10
-1146.343120373137
 20
965.7071178141288
 30
0.0
 10
-1147.602647282544
 20
964.3235674672525
 30
0.0
 10
-1147.602647282544
 20
964.3235674672525
 30
0.0
 10
-1145.579687213605
 20
962.3254120858076
 30
0.0
 10
-1145.579687213605
 20
962.3254120858076
 30
0.0
 10
-1144.885155963779
 20
963.1136499328327
 30
0.0
 10
-1144.267794852822
 20
963.4388669466404
 30
0.0
 10
-1143.10748669339
 20
963.4388669466404
 30
0.0
 10
-1141.401475409094
 20
963.4388669466404
 30
0.0
 10
-1140.712456312044
 20
962.8159936829071
 30
0.0
 10
-1140.712456312044
 20
961.4131508013135
 30
0.0
 10
-1140.712456312044
 20
961.4131508013135
 30
0.0
 10
-1140.712456312044
 20
960.7737410792511
 30
0.0
 10
-1140.712456312044
 20
960.7737410792511
 30
0.0
 10
-1140.712456312044
 20
960.7737410792511
 30
0.0
 10
-1143.702799193241
 20
960.7737410792511
 30
0.0
 10
-1143.702799193241
 20
960.7737410792511
 30
0.0
 10
-1146.742751449425
 20
960.7737410792511
 30
0.0
 10
-1148.145594331019
 20
959.0952905588373
 30
0.0
 10
-1148.145594331019
 20
957.0475258024048
 30
0.0
 10
-1148.145594331019
 20
955.9092662540783
 30
0.0
 10
-1147.776280095
 20
954.8757376085033
 30
0.0
 10
-1147.08726099795
 20
954.1619138239596
 30
0.0
 10
-1146.343120373137
 20
953.4205292755338
 30
0.0
 10
-1145.259982352574
 20
953.023654275633
 30
0.0
 10
-1143.799261866828
 20
953.023654275633
 30
0.0
 10
-1142.316492769977
 20
953.023654275633
 30
0.0
 10
-1141.503450235457
 20
953.39572458804
 30
0.0
 10
-1140.638042249563
 20
954.2611325739348
 30
0.0
 10
-1140.638042249563
 20
954.2611325739348
 30
0.0
 10
-1140.638042249563
 20
953.1504337894902
 30
0.0
 10
-1140.638042249563
 20
953.1504337894902
 30
0.0
 10
-1140.638042249563
 20
953.1504337894902
 30
0.0
 10
-1137.504383396179
 20
953.1504337894902
 30
0.0
 10
-1137.504383396179
 20
953.1504337894902
 30
0.0
  0
SPLINE
  5
128
330
ED
100
AcDbEntity
  8
\U+30EC\U+30A4\U+30E4\U+30FC 1
370
     0
100
AcDbSpline
210
0.0
220
0.0
230
1.0
 70
    11
 71
     3
 72
    65
 73
    61
 74
     0
 42
0.0000000001
 43
0.0000000001
 40
0.0
 40
0.0
 40
0.0
 40
0.0
 40
1.0
 40
1.0
 40
1.0
 40
2.0
 40
2.0
 40
2.0
 40
3.0
 40
3.0
 40
3.0
 40
4.0
 40
4.0
 40
4.0
 40
5.0
 40
5.0
 40
5.0
 40
6.0
 40
6.0
 40
6.0
 40
7.0
 40
7.0
 40
7.0
 40
8.0
 40
8.0
 40
8.0
 40
9.0
 40
9.0
 40
9.0
 40
10.0
 40
10.0
 40
10.0
 40
11.0
 40
11.0
 40
11.0
 40
12.0
 40
12.0
 40
12.0
 40
13.0
 40
13.0
 40
13.0
 40
14.0
 40
14.0
 40
14.0
 40
15.0
 40
15.0
 40
15.0
 40
16.0
 40
16.0
 40
16.0
 40
17.0
 40
17.0
 40
17.0
 40
18.0
 40
18.0
 40
18.0
 40
19.0
 40
19.0
 40
19.0
 40
20.0
 40
20.0
 40
20.0
 40
20.0
 10
-1150.689452837328
 20
953.1504337894902
 30
0.0
 10
-1150.689452837328
 20
953.1504337894902
 30
0.0
 10
-1150.689452837328
 20
961.3635414263258
 30
0.0
 10
-1150.689452837328
 20
961.3635414263258
 30
0.0
 10
-1150.689452837328
 20
962.7691403843078
 30
0.0
 10
-1151.061523149735
 20
963.9790579187274
 30
0.0
 10
-1152.097807871698
 20
965.0098304879142
 30
0.0
 10
-1152.817143809018
 20
965.7264103488462
 30
0.0
 10
-1153.971939815674
 20
966.1480900362408
 30
0.0
 10
-1155.259027488963
 20
966.1480900362408
 30
0.0
 10
-1156.860307870507
 20
966.1480900362408
 30
0.0
 10
-1158.023372106328
 20
965.6575084391412
 30
0.0
 10
-1159.112022279666
 20
964.5192488908147
 30
0.0
 10
-1159.927820890574
 20
965.627191598871
 30
0.0
 10
-1161.085372973617
 20
966.1480900362408
 30
0.0
 10
-1162.52128877187
 20
966.1480900362408
 30
0.0
 10
-1163.700889466019
 20
966.1480900362408
 30
0.0
 10
-1164.888758389333
 20
965.6768009738586
 30
0.0
 10
-1165.729361687734
 20
964.8169051407402
 30
0.0
 10
-1165.729361687734
 20
964.8169051407402
 30
0.0
 10
-1165.729361687734
 20
966.0020179876662
 30
0.0
 10
-1165.729361687734
 20
966.0020179876662
 30
0.0
 10
-1165.729361687734
 20
966.0020179876662
 30
0.0
 10
-1168.865776617506
 20
966.0020179876662
 30
0.0
 10
-1168.865776617506
 20
966.0020179876662
 30
0.0
 10
-1168.865776617506
 20
966.0020179876662
 30
0.0
 10
-1168.865776617506
 20
953.1504337894902
 30
0.0
 10
-1168.865776617506
 20
953.1504337894902
 30
0.0
 10
-1168.865776617506
 20
953.1504337894902
 30
0.0
 10
-1165.652191548865
 20
953.1504337894902
 30
0.0
 10
-1165.652191548865
 20
953.1504337894902
 30
0.0
 10
-1165.652191548865
 20
953.1504337894902
 30
0.0
 10
-1165.652191548865
 20
960.9225692042138
 30
0.0
 10
-1165.652191548865
 20
960.9225692042138
 30
0.0
 10
-1165.652191548865
 20
962.6699216343326
 30
0.0
 10
-1164.516688076926
 20
963.2597219814073
 30
0.0
 10
-1163.505208042457
 20
963.2597219814073
 30
0.0
 10
-1162.496484084376
 20
963.2597219814073
 30
0.0
 10
-1161.383029223543
 20
962.6699216343326
 30
0.0
 10
-1161.383029223543
 20
960.9225692042138
 30
0.0
 10
-1161.383029223543
 20
960.9225692042138
 30
0.0
 10
-1161.383029223543
 20
953.1504337894902
 30
0.0
 10
-1161.383029223543
 20
953.1504337894902
 30
0.0
 10
-1161.383029223543
 20
953.1504337894902
 30
0.0
 10
-1158.17220023129
 20
953.1504337894902
 30
0.0
 10
-1158.17220023129
 20
953.1504337894902
 30
0.0
 10
-1158.17220023129
 20
953.1504337894902
 30
0.0
 10
-1158.17220023129
 20
960.994227190307
 30
0.0
 10
-1158.17220023129
 20
960.994227190307
 30
0.0
 10
-1158.17220023129
 20
962.6699216343326
 30
0.0
 10
-1157.011892071858
 20
963.2597219814073
 30
0.0
 10
-1156.025216724883
 20
963.2597219814073
 30
0.0
 10
-1155.008224537637
 20
963.2597219814073
 30
0.0
 10
-1153.900281829581
 20
962.6699216343326
 30
0.0
 10
-1153.900281829581
 20
960.9225692042138
 30
0.0
 10
-1153.900281829581
 20
960.9225692042138
 30
0.0
 10
-1153.900281829581
 20
953.1504337894902
 30
0.0
 10
-1153.900281829581
 20
953.1504337894902
 30
0.0
 10
-1153.900281829581
 20
953.1504337894902
 30
0.0
 10
-1150.689452837328
 20
953.1504337894902
 30
0.0
 10
-1150.689452837328
 20
953.1504337894902
 30
0.0
  0
SPLINE
  5
129
330
ED
100
AcDbEntity
  8
\U+30EC\U+30A4\U+30E4\U+30FC 1
370
     0
100
AcDbSpline
210
0.0
220
0.0
230
1.0
 70
    11
 71
     3
 72
    17
 73
    13
 74
     0
 42
0.0000000001
 43
0.0000000001
 40
0.0
 40
0.0
 40
0.0
 40
0.0
 40
1.0
 40
1.0
 40
1.0
 40
2.0
 40
2.0
 40
2.0
 40
3.0
 40
3.0
 40
3.0
 40
4.0
 40
4.0
 40
4.0
 40
4.0
 10
-1174.670073491055
 20
959.2165579199182
 30
0.0
 10
-1174.670073491055
 20
956.8490883024544
 30
0.0
 10
-1175.061436338179
 20
954.5808374349659
 30
0.0
 10
-1177.704513594463
 20
954.5808374349659
 30
0.0
 10
-1180.37239553824
 20
954.5808374349659
 30
0.0
 10
-1180.766514461753
 20
956.8490883024544
 30
0.0
 10
-1180.766514461753
 20
959.2165579199182
 30
0.0
 10
-1180.766514461753
 20
961.58678361377
 30
0.0
 10
-1180.37239553824
 20
963.8550344812585
 30
0.0
 10
-1177.704513594463
 20
963.8550344812585
 30
0.0
 10
-1175.061436338179
 20
963.8550344812585
 30
0.0
 10
-1174.670073491055
 20
961.58678361377
 30
0.0
 10
-1174.670073491055
 20
959.2165579199182
 30
0.0
  0
SPLINE
  5
12A
330
ED
100
AcDbEntity
  8
\U+30EC\U+30A4\U+30E4\U+30FC 1
370
     0
100
AcDbSpline
210
0.0
220
0.0
230
1.0
 70
    11
 71
     3
 72
    38
 73
    34
 74
     0
 42
0.0000000001
 43
0.0000000001
 40
0.0
 40
0.0
 40
0.0
 40
0.0
 40
1.0
 40
1.0
 40
1.0
 40
2.0
 40
2.0
 40
2.0
 40
3.0
 40
3.0
 40
3.0
 40
4.0
 40
4.0
 40
4.0
 40
5.0
 40
5.0
 40
5.0
 40
6.0
 40
6.0
 40
6.0
 40
7.0
 40
7.0
 40
7.0
 40
8.0
 40
8.0
 40
8.0
 40
9.0
 40
9.0
 40
9.0
 40
10.0
 40
10.0
 40
10.0
 40
11.0
 40
11.0
 40
11.0
 40
11.0
 10
-1172.889648144278
 20
953.1504337894902
 30
0.0
 10
-1172.889648144278
 20
953.1504337894902
 30
0.0
 10
-1172.889648144278
 20
970.7121525350998
 30
0.0
 10
-1172.889648144278
 20
970.7121525350998
 30
0.0
 10
-1172.889648144278
 20
970.7121525350998
 30
0.0
 10
-1174.670073491055
 20
970.7121525350998
 30
0.0
 10
-1174.670073491055
 20
970.7121525350998
 30
0.0
 10
-1174.670073491055
 20
970.7121525350998
 30
0.0
 10
-1174.670073491055
 20
963.8798391687523
 30
0.0
 10
-1174.670073491055
 20
963.8798391687523
 30
0.0
 10
-1175.678797449136
 20
965.1366100017715
 30
0.0
 10
-1176.742642934981
 20
965.4370223280853
 30
0.0
 10
-1178.101388594364
 20
965.4370223280853
 30
0.0
 10
-1179.360915503771
 20
965.4370223280853
 30
0.0
 10
-1180.424760989616
 20
965.0098304879142
 30
0.0
 10
-1181.064170711678
 20
964.3704207658519
 30
0.0
 10
-1182.274088246098
 20
963.1605032314321
 30
0.0
 10
-1182.54693980853
 20
961.1623478499872
 30
0.0
 10
-1182.54693980853
 20
959.2165579199182
 30
0.0
 10
-1182.54693980853
 20
957.2680119134608
 30
0.0
 10
-1182.274088246098
 20
955.297417295898
 30
0.0
 10
-1181.064170711678
 20
954.0626950739844
 30
0.0
 10
-1180.424760989616
 20
953.4205292755338
 30
0.0
 10
-1179.360915503771
 20
953.0016056645275
 30
0.0
 10
-1178.101388594364
 20
953.0016056645275
 30
0.0
 10
-1176.717838247487
 20
953.0016056645275
 30
0.0
 10
-1175.653992761642
 20
953.3213105255586
 30
0.0
 10
-1174.645268803561
 20
954.6056421224597
 30
0.0
 10
-1174.645268803561
 20
954.6056421224597
 30
0.0
 10
-1174.645268803561
 20
953.1504337894902
 30
0.0
 10
-1174.645268803561
 20
953.1504337894902
 30
0.0
 10
-1174.645268803561
 20
953.1504337894902
 30
0.0
 10
-1172.889648144278
 20
953.1504337894902
 30
0.0
 10
-1172.889648144278
 20
953.1504337894902
 30
0.0
  0
SPLINE
  5
12B
330
ED
100
AcDbEntity
  8
\U+30EC\U+30A4\U+30E4\U+30FC 1
370
     0
100
AcDbSpline
210
0.0
220
0.0
230
1.0
 70
    11
 71
     3
 72
    44
 73
    40
 74
     0
 42
0.0000000001
 43
0.0000000001
 40
0.0
 40
0.0
 40
0.0
 40
0.0
 40
1.0
 40
1.0
 40
1.0
 40
2.0
 40
2.0
 40
2.0
 40
3.0
 40
3.0
 40
3.0
 40
4.0
 40
4.0
 40
4.0
 40
5.0
 40
5.0
 40
5.0
 40
6.0
 40
6.0
 40
6.0
 40
7.0
 40
7.0
 40
7.0
 40
8.0
 40
8.0
 40
8.0
 40
9.0
 40
9.0
 40
9.0
 40
10.0
 40
10.0
 40
10.0
 40
11.0
 40
11.0
 40
11.0
 40
12.0
 40
12.0
 40
12.0
 40
13.0
 40
13.0
 40
13.0
 40
13.0
 10
-1186.226301786777
 20
953.1504337894902
 30
0.0
 10
-1186.226301786777
 20
953.1504337894902
 30
0.0
 10
-1186.226301786777
 20
960.9225692042138
 30
0.0
 10
-1186.226301786777
 20
960.9225692042138
 30
0.0
 10
-1186.226301786777
 20
962.3254120858076
 30
0.0
 10
-1186.620420710289
 20
963.4609155577459
 30
0.0
 10
-1187.483072619796
 20
964.2987627797587
 30
0.0
 10
-1188.224457168222
 20
965.0373912517963
 30
0.0
 10
-1189.285546577679
 20
965.4370223280853
 30
0.0
 10
-1190.597438938462
 20
965.4370223280853
 30
0.0
 10
-1191.956184597844
 20
965.4370223280853
 30
0.0
 10
-1193.135785291994
 20
964.9381725018211
 30
0.0
 10
-1194.003949354277
 20
963.9514971548455
 30
0.0
 10
-1194.003949354277
 20
963.9514971548455
 30
0.0
 10
-1194.003949354277
 20
965.2881942031224
 30
0.0
 10
-1194.003949354277
 20
965.2881942031224
 30
0.0
 10
-1194.003949354277
 20
965.2881942031224
 30
0.0
 10
-1195.781618624666
 20
965.2881942031224
 30
0.0
 10
-1195.781618624666
 20
965.2881942031224
 30
0.0
 10
-1195.781618624666
 20
965.2881942031224
 30
0.0
 10
-1195.781618624666
 20
953.1504337894902
 30
0.0
 10
-1195.781618624666
 20
953.1504337894902
 30
0.0
 10
-1195.781618624666
 20
953.1504337894902
 30
0.0
 10
-1194.003949354277
 20
953.1504337894902
 30
0.0
 10
-1194.003949354277
 20
953.1504337894902
 30
0.0
 10
-1194.003949354277
 20
953.1504337894902
 30
0.0
 10
-1194.003949354277
 20
960.6221568779
 30
0.0
 10
-1194.003949354277
 20
960.6221568779
 30
0.0
 10
-1194.003949354277
 20
962.7415796204258
 30
0.0
 10
-1192.816080430963
 20
963.8550344812585
 30
0.0
 10
-1190.988801785586
 20
963.8550344812585
 30
0.0
 10
-1189.16152314021
 20
963.8550344812585
 30
0.0
 10
-1188.003971057166
 20
962.7691403843078
 30
0.0
 10
-1188.003971057166
 20
960.6221568779
 30
0.0
 10
-1188.003971057166
 20
960.6221568779
 30
0.0
 10
-1188.003971057166
 20
953.1504337894902
 30
0.0
 10
-1188.003971057166
 20
953.1504337894902
 30
0.0
 10
-1188.003971057166
 20
953.1504337894902
 30
0.0
 10
-1186.226301786777
 20
953.1504337894902
 30
0.0
 10
-1186.226301786777
 20
953.1504337894902
 30
0.0
  0
SPLINE
  5
12C
330
ED
100
AcDbEntity
  8
\U+30EC\U+30A4\U+30E4\U+30FC 1
370
     0
100
AcDbSpline
210
0.0
220
0.0
230
1.0
 70
    11
 71
     3
 72
    23
 73
    19
 74
     0
 42
0.0000000001
 43
0.0000000001
 40
0.0
 40
0.0
 40
0.0
 40
0.0
 40
1.0
 40
1.0
 40
1.0
 40
2.0
 40
2.0
 40
2.0
 40
3.0
 40
3.0
 40
3.0
 40
4.0
 40
4.0
 40
4.0
 40
5.0
 40
5.0
 40
5.0
 40
6.0
 40
6.0
 40
6.0
 40
6.0
 10
-1201.880815671752
 20
957.4388886495292
 30
0.0
 10
-1201.880815671752
 20
956.4301646914481
 30
0.0
 10
-1202.079253171702
 20
955.7383895180099
 30
0.0
 10
-1202.498176782709
 20
955.3442705944973
 30
0.0
 10
-1203.286414629734
 20
954.6304468099536
 30
0.0
 10
-1204.176627303123
 20
954.5312280599784
 30
0.0
 10
-1205.188107337592
 20
954.5312280599784
 30
0.0
 10
-1207.142165496826
 20
954.5312280599784
 30
0.0
 10
-1208.004817406332
 20
955.1954424695346
 30
0.0
 10
-1208.004817406332
 20
956.6065535802928
 30
0.0
 10
-1208.004817406332
 20
958.0342011493804
 30
0.0
 10
-1207.08980004545
 20
958.745268857536
 30
0.0
 10
-1205.265277476462
 20
958.745268857536
 30
0.0
 10
-1205.265277476462
 20
958.745268857536
 30
0.0
 10
-1201.880815671752
 20
958.745268857536
 30
0.0
 10
-1201.880815671752
 20
958.745268857536
 30
0.0
 10
-1201.880815671752
 20
958.745268857536
 30
0.0
 10
-1201.880815671752
 20
957.4388886495292
 30
0.0
 10
-1201.880815671752
 20
957.4388886495292
 30
0.0
  0
SPLINE
  5
12D
330
ED
100
AcDbEntity
  8
\U+30EC\U+30A4\U+30E4\U+30FC 1
370
     0
100
AcDbSpline
210
0.0
220
0.0
230
1.0
 70
    11
 71
     3
 72
    47
 73
    43
 74
     0
 42
0.0000000001
 43
0.0000000001
 40
0.0
 40
0.0
 40
0.0
 40
0.0
 40
1.0
 40
1.0
 40
1.0
 40
2.0
 40
2.0
 40
2.0
 40
3.0
 40
3.0
 40
3.0
 40
4.0
 40
4.0
 40
4.0
 40
5.0
 40
5.0
 40
5.0
 40
6.0
 40
6.0
 40
6.0
 40
7.0
 40
7.0
 40
7.0
 40
8.0
 40
8.0
 40
8.0
 40
9.0
 40
9.0
 40
9.0
 40
10.0
 40
10.0
 40
10.0
 40
11.0
 40
11.0
 40
11.0
 40
12.0
 40
12.0
 40
12.0
 40
13.0
 40
13.0
 40
13.0
 40
14.0
 40
14.0
 40
14.0
 40
14.0
 10
-1200.100390324975
 20
953.1504337894902
 30
0.0
 10
-1200.100390324975
 20
953.1504337894902
 30
0.0
 10
-1200.100390324975
 20
961.3828339610433
 30
0.0
 10
-1200.100390324975
 20
961.3828339610433
 30
0.0
 10
-1200.100390324975
 20
964.0038626062213
 30
0.0
 10
-1201.68513424819
 20
965.4370223280853
 30
0.0
 10
-1204.964865150148
 20
965.4370223280853
 30
0.0
 10
-1206.971288760757
 20
965.4370223280853
 30
0.0
 10
-1208.203254906283
 20
965.0098304879142
 30
0.0
 10
-1209.264344315739
 20
963.6097436827088
 30
0.0
 10
-1209.264344315739
 20
963.6097436827088
 30
0.0
 10
-1208.05442678132
 20
962.496288821876
 30
0.0
 10
-1208.05442678132
 20
962.496288821876
 30
0.0
 10
-1207.315798309282
 20
963.5105249327336
 30
0.0
 10
-1206.522048309481
 20
963.9073999326343
 30
0.0
 10
-1204.995181990418
 20
963.9073999326343
 30
0.0
 10
-1202.743467581259
 20
963.9073999326343
 30
0.0
 10
-1201.880815671752
 20
962.9896264953637
 30
0.0
 10
-1201.880815671752
 20
961.242274065245
 30
0.0
 10
-1201.880815671752
 20
961.242274065245
 30
0.0
 10
-1201.880815671752
 20
960.0792098294247
 30
0.0
 10
-1201.880815671752
 20
960.0792098294247
 30
0.0
 10
-1201.880815671752
 20
960.0792098294247
 30
0.0
 10
-1205.510568275011
 20
960.0792098294247
 30
0.0
 10
-1205.510568275011
 20
960.0792098294247
 30
0.0
 10
-1208.228059593776
 20
960.0792098294247
 30
0.0
 10
-1209.732877301733
 20
958.7204641700422
 30
0.0
 10
-1209.732877301733
 20
956.5789928164108
 30
0.0
 10
-1209.732877301733
 20
955.6171221569291
 30
0.0
 10
-1209.437977128196
 20
954.7021047960467
 30
0.0
 10
-1208.817859940851
 20
954.1123044489719
 30
0.0
 10
-1207.980012718838
 20
953.3020179908413
 30
0.0
 10
-1207.064995357956
 20
953.0016056645275
 30
0.0
 10
-1205.383788761154
 20
953.0016056645275
 30
0.0
 10
-1203.760459768504
 20
953.0016056645275
 30
0.0
 10
-1202.84819848401
 20
953.3433591366642
 30
0.0
 10
-1201.880815671752
 20
954.3079858725341
 30
0.0
 10
-1201.880815671752
 20
954.3079858725341
 30
0.0
 10
-1201.880815671752
 20
953.1504337894902
 30
0.0
 10
-1201.880815671752
 20
953.1504337894902
 30
0.0
 10
-1201.880815671752
 20
953.1504337894902
 30
0.0
 10
-1200.100390324975
 20
953.1504337894902
 30
0.0
 10
-1200.100390324975
 20
953.1504337894902
 30
0.0
  0
SPLINE
  5
12E
330
ED
100
AcDbEntity
  8
\U+30EC\U+30A4\U+30E4\U+30FC 1
370
     0
100
AcDbSpline
210
0.0
220
0.0
230
1.0
 70
    11
 71
     3
 72
    41
 73
    37
 74
     0
 42
0.0000000001
 43
0.0000000001
 40
0.0
 40
0.0
 40
0.0
 40
0.0
 40
1.0
 40
1.0
 40
1.0
 40
2.0
 40
2.0
 40
2.0
 40
3.0
 40
3.0
 40
3.0
 40
4.0
 40
4.0
 40
4.0
 40
5.0
 40
5.0
 40
5.0
 40
6.0
 40
6.0
 40
6.0
 40
7.0
 40
7.0
 40
7.0
 40
8.0
 40
8.0
 40
8.0
 40
9.0
 40
9.0
 40
9.0
 40
10.0
 40
10.0
 40
10.0
 40
11.0
 40
11.0
 40
11.0
 40
12.0
 40
12.0
 40
12.0
 40
12.0
 10
-1213.092534418949
 20
953.1504337894902
 30
0.0
 10
-1213.092534418949
 20
953.1504337894902
 30
0.0
 10
-1213.092534418949
 20
960.9418617389313
 30
0.0
 10
-1213.092534418949
 20
960.9418617389313
 30
0.0
 10
-1213.092534418949
 20
963.6841577451901
 30
0.0
 10
-1214.69932695327
 20
965.4370223280853
 30
0.0
 10
-1217.463671570634
 20
965.4370223280853
 30
0.0
 10
-1218.847221917511
 20
965.4370223280853
 30
0.0
 10
-1219.979969313061
 20
964.9381725018211
 30
0.0
 10
-1220.867425910061
 20
963.9514971548455
 30
0.0
 10
-1220.867425910061
 20
963.9514971548455
 30
0.0
 10
-1220.867425910061
 20
970.7121525350998
 30
0.0
 10
-1220.867425910061
 20
970.7121525350998
 30
0.0
 10
-1220.867425910061
 20
970.7121525350998
 30
0.0
 10
-1222.650607333226
 20
970.7121525350998
 30
0.0
 10
-1222.650607333226
 20
970.7121525350998
 30
0.0
 10
-1222.650607333226
 20
970.7121525350998
 30
0.0
 10
-1222.650607333226
 20
953.1504337894902
 30
0.0
 10
-1222.650607333226
 20
953.1504337894902
 30
0.0
 10
-1222.650607333226
 20
953.1504337894902
 30
0.0
 10
-1220.867425910061
 20
953.1504337894902
 30
0.0
 10
-1220.867425910061
 20
953.1504337894902
 30
0.0
 10
-1220.867425910061
 20
953.1504337894902
 30
0.0
 10
-1220.867425910061
 20
960.6469615653939
 30
0.0
 10
-1220.867425910061
 20
960.6469615653939
 30
0.0
 10
-1220.867425910061
 20
962.7939450718015
 30
0.0
 10
-1219.685069139523
 20
963.8550344812585
 30
0.0
 10
-1217.832985806653
 20
963.8550344812585
 30
0.0
 10
-1215.980902473783
 20
963.8550344812585
 30
0.0
 10
-1214.86744761295
 20
962.7939450718015
 30
0.0
 10
-1214.86744761295
 20
960.6469615653939
 30
0.0
 10
-1214.86744761295
 20
960.6469615653939
 30
0.0
 10
-1214.86744761295
 20
953.1504337894902
 30
0.0
 10
-1214.86744761295
 20
953.1504337894902
 30
0.0
 10
-1214.86744761295
 20
953.1504337894902
 30
0.0
 10
-1213.092534418949
 20
953.1504337894902
 30
0.0
 10
-1213.092534418949
 20
953.1504337894902
 30
0.0
  0
HATCH
  5
12F
330
ED
100
AcDbEntity
  8
\U+30EC\U+30A4\U+30E4\U+30FC 1
 62
   179
420
  2234388
100
AcDbHatch
 10
0.0
 20
0.0
 30
0.0
210
0.0
220
0.0
230
1.0
  2
SOLID
 70
     1
 71
     0
 91
       22
 92
        1
 93
        1
 72
     4
 94
        3
 73
     0
 74
     1
 95
       44
 96
       40
 40
0.0
 40
0.0
 40
0.0
 40
0.0
 40
1.0
 40
1.0
 40
1.0
 40
2.0
 40
2.0
 40
2.0
 40
3.0
 40
3.0
 40
3.0
 40
4.0
 40
4.0
 40
4.0
 40
5.0
 40
5.0
 40
5.0
 40
6.0
 40
6.0
 40
6.0
 40
7.0
 40
7.0
 40
7.0
 40
8.0
 40
8.0
 40
8.0
 40
9.0
 40
9.0
 40
9.0
 40
10.0
 40
10.0
 40
10.0
 40
11.0
 40
11.0
 40
11.0
 40
12.0
 40
12.0
 40
12.0
 40
13.0
 40
13.0
 40
13.0
 40
13.0
 10
-1027.886957208306
 20
966.0020179876662
 10
-1027.886957208306
 20
966.0020179876662
 10
-1031.271419013015
 20
966.0020179876662
 10
-1031.271419013015
 20
966.0020179876662
 10
-1031.271419013015
 20
966.0020179876662
 10
-1033.83732613043
 20
958.0590058368742
 10
-1033.83732613043
 20
958.0590058368742
 10
-1033.83732613043
 20
958.0590058368742
 10
-1036.507964150595
 20
966.0020179876662
 10
-1036.507964150595
 20
966.0020179876662
 10
-1036.507964150595
 20
966.0020179876662
 10
-1039.886913802528
 20
966.0020179876662
 10
-1039.886913802528
 20
966.0020179876662
 10
-1039.886913802528
 20
966.0020179876662
 10
-1035.493728039738
 20
954.0626950739844
 10
-1035.493728039738
 20
954.0626950739844
 10
-1035.493728039738
 20
954.0626950739844
 10
-1036.036675088213
 20
952.4834633035458
 10
-1036.036675088213
 20
952.4834633035458
 10
-1036.356379949244
 20
951.549153407946
 10
-1036.728450261651
 20
951.3231551441137
 10
-1037.640711546145
 20
951.3231551441137
 10
-1037.640711546145
 20
951.3231551441137
 10
-1038.379340018183
 20
951.3231551441137
 10
-1038.379340018183
 20
951.3231551441137
 10
-1038.379340018183
 20
951.3231551441137
 10
-1038.379340018183
 20
948.4375431656684
 10
-1038.379340018183
 20
948.4375431656684
 10
-1038.379340018183
 20
948.4375431656684
 10
-1037.122569185164
 20
948.4375431656684
 10
-1037.122569185164
 20
948.4375431656684
 10
-1036.061479775707
 20
948.4375431656684
 10
-1035.096853039837
 20
948.6828339642183
 10
-1034.360980644188
 20
949.4269745890322
 10
-1033.961349567899
 20
949.8183374361565
 10
-1033.666449394361
 20
950.3612844846319
 10
-1033.393597831929
 20
951.077864345564
 10
-1033.393597831929
 20
951.077864345564
 10
-1027.886957208306
 20
966.0020179876662
 10
-1027.886957208306
 20
966.0020179876662
 97
        0
 92
        1
 93
        1
 72
     4
 94
        3
 73
     0
 74
     1
 95
       29
 96
       25
 40
0.0
 40
0.0
 40
0.0
 40
0.0
 40
1.0
 40
1.0
 40
1.0
 40
2.0
 40
2.0
 40
2.0
 40
3.0
 40
3.0
 40
3.0
 40
4.0
 40
4.0
 40
4.0
 40
5.0
 40
5.0
 40
5.0
 40
6.0
 40
6.0
 40
6.0
 40
7.0
 40
7.0
 40
7.0
 40
8.0
 40
8.0
 40
8.0
 40
8.0
 10
-1040.261740191323
 20
953.1504337894902
 10
-1040.261740191323
 20
953.1504337894902
 10
-1040.261740191323
 20
955.8596568790907
 10
-1040.261740191323
 20
955.8596568790907
 10
-1040.261740191323
 20
955.8596568790907
 10
-1041.493706336849
 20
955.8596568790907
 10
-1041.493706336849
 20
955.8596568790907
 10
-1042.306748871368
 20
955.8596568790907
 10
-1042.629209808787
 20
956.2592879553797
 10
-1042.629209808787
 20
957.0227211149111
 10
-1042.629209808787
 20
957.0227211149111
 10
-1042.629209808787
 20
970.7121525350998
 10
-1042.629209808787
 20
970.7121525350998
 10
-1042.629209808787
 20
970.7121525350998
 10
-1045.837282724652
 20
970.7121525350998
 10
-1045.837282724652
 20
970.7121525350998
 10
-1045.837282724652
 20
970.7121525350998
 10
-1045.837282724652
 20
956.8270396913489
 10
-1045.837282724652
 20
956.8270396913489
 10
-1045.837282724652
 20
954.9997610459724
 10
-1044.729340016595
 20
953.1504337894902
 10
-1042.0890188367
 20
953.1504337894902
 10
-1042.0890188367
 20
953.1504337894902
 10
-1040.261740191323
 20
953.1504337894902
 10
-1040.261740191323
 20
953.1504337894902
 97
        0
 92
        1
 93
        1
 72
     4
 94
        3
 73
     0
 74
     1
 95
       23
 96
       19
 40
0.0
 40
0.0
 40
0.0
 40
0.0
 40
1.0
 40
1.0
 40
1.0
 40
2.0
 40
2.0
 40
2.0
 40
3.0
 40
3.0
 40
3.0
 40
4.0
 40
4.0
 40
4.0
 40
5.0
 40
5.0
 40
5.0
 40
6.0
 40
6.0
 40
6.0
 40
6.0
 10
-1051.647091750977
 20
957.8853730244176
 10
-1051.647091750977
 20
957.0695744135104
 10
-1051.76560303567
 20
956.5789928164108
 10
-1052.137673348077
 20
956.2592879553797
 10
-1052.680620396552
 20
955.7383895180099
 10
-1053.248372132521
 20
955.6391707680347
 10
-1054.039366055935
 20
955.6391707680347
 10
-1055.370550951435
 20
955.6391707680347
 10
-1055.99066813878
 20
956.209678580392
 10
-1055.99066813878
 20
957.0971351773924
 10
-1055.99066813878
 20
958.0590058368742
 10
-1055.370550951435
 20
958.5771481978558
 10
-1054.088975430922
 20
958.5771481978558
 10
-1054.088975430922
 20
958.5771481978558
 10
-1051.647091750977
 20
958.5771481978558
 10
-1051.647091750977
 20
958.5771481978558
 10
-1051.647091750977
 20
958.5771481978558
 10
-1051.647091750977
 20
957.8853730244176
 10
-1051.647091750977
 20
957.8853730244176
 97
        0
 92
        1
 93
        1
 72
     4
 94
        3
 73
     0
 74
     1
 95
       47
 96
       43
 40
0.0
 40
0.0
 40
0.0
 40
0.0
 40
1.0
 40
1.0
 40
1.0
 40
2.0
 40
2.0
 40
2.0
 40
3.0
 40
3.0
 40
3.0
 40
4.0
 40
4.0
 40
4.0
 40
5.0
 40
5.0
 40
5.0
 40
6.0
 40
6.0
 40
6.0
 40
7.0
 40
7.0
 40
7.0
 40
8.0
 40
8.0
 40
8.0
 40
9.0
 40
9.0
 40
9.0
 40
10.0
 40
10.0
 40
10.0
 40
11.0
 40
11.0
 40
11.0
 40
12.0
 40
12.0
 40
12.0
 40
13.0
 40
13.0
 40
13.0
 40
14.0
 40
14.0
 40
14.0
 40
14.0
 10
-1048.433506682336
 20
953.1504337894902
 10
-1048.433506682336
 20
953.1504337894902
 10
-1048.433506682336
 20
961.6115883012639
 10
-1048.433506682336
 20
961.6115883012639
 10
-1048.433506682336
 20
964.6184676407898
 10
-1050.288346091595
 20
966.1480900362408
 10
-1053.918098694854
 20
966.1480900362408
 10
-1056.065082201261
 20
966.1480900362408
 10
-1057.272243659293
 20
965.7071178141288
 10
-1058.5317705687
 20
964.3235674672525
 10
-1058.5317705687
 20
964.3235674672525
 10
-1056.508810499762
 20
962.3254120858076
 10
-1056.508810499762
 20
962.3254120858076
 10
-1055.814279249935
 20
963.1136499328327
 10
-1055.199674215367
 20
963.4388669466404
 10
-1054.039366055935
 20
963.4388669466404
 10
-1052.336110848027
 20
963.4388669466404
 10
-1051.647091750977
 20
962.8159936829071
 10
-1051.647091750977
 20
961.4131508013135
 10
-1051.647091750977
 20
961.4131508013135
 10
-1051.647091750977
 20
960.7737410792511
 10
-1051.647091750977
 20
960.7737410792511
 10
-1051.647091750977
 20
960.7737410792511
 10
-1054.631922479398
 20
960.7737410792511
 10
-1054.631922479398
 20
960.7737410792511
 10
-1057.666362582806
 20
960.7737410792511
 10
-1059.077473693564
 20
959.0952905588373
 10
-1059.077473693564
 20
957.0475258024048
 10
-1059.077473693564
 20
955.9092662540783
 10
-1058.705403381157
 20
954.8757376085033
 10
-1058.016384284107
 20
954.1619138239596
 10
-1057.272243659293
 20
953.4205292755338
 10
-1056.186349562342
 20
953.023654275633
 10
-1054.731141229373
 20
953.023654275633
 10
-1053.248372132521
 20
953.023654275633
 10
-1052.435329598002
 20
953.39572458804
 10
-1051.567165535719
 20
954.2611325739348
 10
-1051.567165535719
 20
954.2611325739348
 10
-1051.567165535719
 20
953.1504337894902
 10
-1051.567165535719
 20
953.1504337894902
 10
-1051.567165535719
 20
953.1504337894902
 10
-1048.433506682336
 20
953.1504337894902
 10
-1048.433506682336
 20
953.1504337894902
 97
        0
 92
        1
 93
        1
 72
     4
 94
        3
 73
     0
 74
     1
 95
       53
 96
       49
 40
0.0
 40
0.0
 40
0.0
 40
0.0
 40
1.0
 40
1.0
 40
1.0
 40
2.0
 40
2.0
 40
2.0
 40
3.0
 40
3.0
 40
3.0
 40
4.0
 40
4.0
 40
4.0
 40
5.0
 40
5.0
 40
5.0
 40
6.0
 40
6.0
 40
6.0
 40
7.0
 40
7.0
 40
7.0
 40
8.0
 40
8.0
 40
8.0
 40
9.0
 40
9.0
 40
9.0
 40
10.0
 40
10.0
 40
10.0
 40
11.0
 40
11.0
 40
11.0
 40
12.0
 40
12.0
 40
12.0
 40
13.0
 40
13.0
 40
13.0
 40
14.0
 40
14.0
 40
14.0
 40
15.0
 40
15.0
 40
15.0
 40
16.0
 40
16.0
 40
16.0
 40
16.0
 10
-1060.95160563754
 20
953.1504337894902
 10
-1060.95160563754
 20
953.1504337894902
 10
-1060.95160563754
 20
955.8596568790907
 10
-1060.95160563754
 20
955.8596568790907
 10
-1060.95160563754
 20
955.8596568790907
 10
-1062.11466987336
 20
955.8596568790907
 10
-1062.11466987336
 20
955.8596568790907
 10
-1062.88085910928
 20
955.8596568790907
 10
-1063.228124734193
 20
956.2840926428735
 10
-1063.228124734193
 20
957.0227211149111
 10
-1063.228124734193
 20
957.0227211149111
 10
-1063.228124734193
 20
963.1908200717023
 10
-1063.228124734193
 20
963.1908200717023
 10
-1063.228124734193
 20
963.1908200717023
 10
-1060.95160563754
 20
963.1908200717023
 10
-1060.95160563754
 20
963.1908200717023
 10
-1060.95160563754
 20
963.1908200717023
 10
-1060.95160563754
 20
965.627191598871
 10
-1060.95160563754
 20
965.627191598871
 10
-1060.95160563754
 20
965.627191598871
 10
-1063.228124734193
 20
965.627191598871
 10
-1063.228124734193
 20
965.627191598871
 10
-1063.228124734193
 20
965.627191598871
 10
-1063.228124734193
 20
969.4278209381987
 10
-1063.228124734193
 20
969.4278209381987
 10
-1063.228124734193
 20
969.4278209381987
 10
-1066.433441573669
 20
969.4278209381987
 10
-1066.433441573669
 20
969.4278209381987
 10
-1066.433441573669
 20
969.4278209381987
 10
-1066.433441573669
 20
965.627191598871
 10
-1066.433441573669
 20
965.627191598871
 10
-1066.433441573669
 20
965.627191598871
 10
-1067.79494330944
 20
965.627191598871
 10
-1067.79494330944
 20
965.627191598871
 10
-1067.79494330944
 20
965.627191598871
 10
-1067.79494330944
 20
963.1908200717023
 10
-1067.79494330944
 20
963.1908200717023
 10
-1067.79494330944
 20
963.1908200717023
 10
-1066.433441573669
 20
963.1908200717023
 10
-1066.433441573669
 20
963.1908200717023
 10
-1066.433441573669
 20
963.1908200717023
 10
-1066.433441573669
 20
956.8270396913489
 10
-1066.433441573669
 20
956.8270396913489
 10
-1066.433441573669
 20
954.9997610459724
 10
-1065.322742789225
 20
953.1504337894902
 10
-1062.704470220435
 20
953.1504337894902
 10
-1062.704470220435
 20
953.1504337894902
 10
-1060.95160563754
 20
953.1504337894902
 10
-1060.95160563754
 20
953.1504337894902
 97
        0
 92
        1
 93
        4
 72
     1
 10
-1070.58133653791
 20
970.7121525350998
 11
-1074.015407717607
 21
970.7121525350998
 72
     1
 10
-1074.015407717607
 20
970.7121525350998
 11
-1074.015407717607
 21
953.1504337894902
 72
     1
 10
-1074.015407717607
 20
953.1504337894902
 11
-1070.58133653791
 21
953.1504337894902
 72
     1
 10
-1070.58133653791
 20
953.1504337894902
 11
-1070.58133653791
 21
970.7121525350998
 97
        0
 92
        1
 93
        1
 72
     4
 94
        3
 73
     0
 74
     1
 95
       44
 96
       40
 40
0.0
 40
0.0
 40
0.0
 40
0.0
 40
1.0
 40
1.0
 40
1.0
 40
2.0
 40
2.0
 40
2.0
 40
3.0
 40
3.0
 40
3.0
 40
4.0
 40
4.0
 40
4.0
 40
5.0
 40
5.0
 40
5.0
 40
6.0
 40
6.0
 40
6.0
 40
7.0
 40
7.0
 40
7.0
 40
8.0
 40
8.0
 40
8.0
 40
9.0
 40
9.0
 40
9.0
 40
10.0
 40
10.0
 40
10.0
 40
11.0
 40
11.0
 40
11.0
 40
12.0
 40
12.0
 40
12.0
 40
13.0
 40
13.0
 40
13.0
 40
13.0
 10
-1083.449457194416
 20
953.1504337894902
 10
-1083.449457194416
 20
953.1504337894902
 10
-1083.449457194416
 20
961.3635414263258
 10
-1083.449457194416
 20
961.3635414263258
 10
-1083.449457194416
 20
962.7691403843078
 10
-1083.719552680459
 20
963.9790579187274
 10
-1084.755837402422
 20
965.0098304879142
 10
-1085.475173339742
 20
965.7264103488462
 10
-1086.508701985317
 20
966.1480900362408
 10
-1087.795789658607
 20
966.1480900362408
 10
-1088.980902505533
 20
966.1480900362408
 10
-1090.166015352459
 20
965.7071178141288
 10
-1091.00661865086
 20
964.8169051407402
 10
-1091.00661865086
 20
964.8169051407402
 10
-1091.00661865086
 20
966.0020179876662
 10
-1091.00661865086
 20
966.0020179876662
 10
-1091.00661865086
 20
966.0020179876662
 10
-1094.140277504243
 20
966.0020179876662
 10
-1094.140277504243
 20
966.0020179876662
 10
-1094.140277504243
 20
966.0020179876662
 10
-1094.140277504243
 20
953.1504337894902
 10
-1094.140277504243
 20
953.1504337894902
 10
-1094.140277504243
 20
953.1504337894902
 10
-1090.932204588378
 20
953.1504337894902
 10
-1090.932204588378
 20
953.1504337894902
 10
-1090.932204588378
 20
953.1504337894902
 10
-1090.932204588378
 20
960.9225692042138
 10
-1090.932204588378
 20
960.9225692042138
 10
-1090.932204588378
 20
962.6699216343326
 10
-1089.793945040052
 20
963.2597219814073
 10
-1088.779708929194
 20
963.2597219814073
 10
-1087.770984971113
 20
963.2597219814073
 10
-1086.65753011028
 20
962.6699216343326
 10
-1086.65753011028
 20
960.9225692042138
 10
-1086.65753011028
 20
960.9225692042138
 10
-1086.65753011028
 20
953.1504337894902
 10
-1086.65753011028
 20
953.1504337894902
 10
-1086.65753011028
 20
953.1504337894902
 10
-1083.449457194416
 20
953.1504337894902
 10
-1083.449457194416
 20
953.1504337894902
 97
        0
 92
        1
 93
        4
 72
     1
 10
-1097.695616045021
 20
970.811371285075
 11
-1100.980859099755
 21
970.811371285075
 72
     1
 10
-1100.980859099755
 20
970.811371285075
 11
-1100.980859099755
 21
968.1930987162851
 72
     1
 10
-1100.980859099755
 20
968.1930987162851
 11
-1097.695616045021
 21
968.1930987162851
 72
     1
 10
-1097.695616045021
 20
968.1930987162851
 11
-1097.695616045021
 21
970.811371285075
 97
        0
 92
        1
 93
        4
 72
     1
 10
-1097.720420732514
 20
965.627191598871
 11
-1100.934005801156
 21
965.627191598871
 72
     1
 10
-1100.934005801156
 20
965.627191598871
 11
-1100.934005801156
 21
953.1504337894902
 72
     1
 10
-1100.934005801156
 20
953.1504337894902
 11
-1097.720420732514
 21
953.1504337894902
 72
     1
 10
-1097.720420732514
 20
953.1504337894902
 11
-1097.720420732514
 21
965.627191598871
 97
        0
 92
        1
 93
        1
 72
     4
 94
        3
 73
     0
 74
     1
 95
       32
 96
       28
 40
0.0
 40
0.0
 40
0.0
 40
0.0
 40
1.0
 40
1.0
 40
1.0
 40
2.0
 40
2.0
 40
2.0
 40
3.0
 40
3.0
 40
3.0
 40
4.0
 40
4.0
 40
4.0
 40
5.0
 40
5.0
 40
5.0
 40
6.0
 40
6.0
 40
6.0
 40
7.0
 40
7.0
 40
7.0
 40
8.0
 40
8.0
 40
8.0
 40
9.0
 40
9.0
 40
9.0
 40
9.0
 10
-1109.62391465315
 20
958.5771481978558
 10
-1109.62391465315
 20
958.5771481978558
 10
-1109.62391465315
 20
959.9331377808501
 10
-1109.62391465315
 20
959.9331377808501
 10
-1109.62391465315
 20
963.5794268424385
 10
-1111.646874722088
 20
966.1480900362408
 10
-1115.229774026748
 20
966.1480900362408
 10
-1118.56462645647
 20
966.1480900362408
 10
-1120.835633400347
 20
963.7806204187771
 10
-1120.835633400347
 20
959.5886282323252
 10
-1120.835633400347
 20
954.3823999350155
 10
-1117.925216734408
 20
953.0016056645275
 10
-1114.885264478223
 20
953.0016056645275
 10
-1112.561892082971
 20
953.0016056645275
 10
-1111.302365173563
 20
953.6906247615774
 10
-1109.993228889168
 20
955.0245657334661
 10
-1109.993228889168
 20
955.0245657334661
 10
-1111.944530972014
 20
956.9262584413241
 10
-1111.944530972014
 20
956.9262584413241
 10
-1112.763085659309
 20
956.1325084415224
 10
-1113.452104756359
 20
955.7190969832925
 10
-1114.857703714341
 20
955.7190969832925
 10
-1116.684982359718
 20
955.7190969832925
 10
-1117.67716985947
 20
956.898697677442
 10
-1117.67716985947
 20
958.5771481978558
 10
-1117.67716985947
 20
958.5771481978558
 10
-1109.62391465315
 20
958.5771481978558
 10
-1109.62391465315
 20
958.5771481978558
 97
        0
 92
        1
 93
        1
 72
     4
 94
        3
 73
     0
 74
     1
 95
       38
 96
       34
 40
0.0
 40
0.0
 40
0.0
 40
0.0
 40
1.0
 40
1.0
 40
1.0
 40
2.0
 40
2.0
 40
2.0
 40
3.0
 40
3.0
 40
3.0
 40
4.0
 40
4.0
 40
4.0
 40
5.0
 40
5.0
 40
5.0
 40
6.0
 40
6.0
 40
6.0
 40
7.0
 40
7.0
 40
7.0
 40
8.0
 40
8.0
 40
8.0
 40
9.0
 40
9.0
 40
9.0
 40
10.0
 40
10.0
 40
10.0
 40
11.0
 40
11.0
 40
11.0
 40
11.0
 10
-1123.795659441273
 20
953.1504337894902
 10
-1123.795659441273
 20
953.1504337894902
 10
-1123.795659441273
 20
970.7121525350998
 10
-1123.795659441273
 20
970.7121525350998
 10
-1123.795659441273
 20
970.7121525350998
 10
-1127.006488433526
 20
970.7121525350998
 10
-1127.006488433526
 20
970.7121525350998
 10
-1127.006488433526
 20
970.7121525350998
 10
-1127.006488433526
 20
964.8665145157279
 10
-1127.006488433526
 20
964.8665145157279
 10
-1127.849847808315
 20
965.8035804877159
 10
-1128.836523155291
 20
966.1480900362408
 10
-1130.145659439686
 20
966.1480900362408
 10
-1131.427234960199
 20
966.1480900362408
 10
-1132.540689821031
 20
965.7264103488462
 10
-1133.254513605575
 20
964.9877818768086
 10
-1134.491991903877
 20
963.7310110437895
 10
-1134.591210653852
 20
961.7328556623446
 10
-1134.591210653852
 20
959.5886282323252
 10
-1134.591210653852
 20
957.4168400384236
 10
-1134.491991903877
 20
955.4186846569787
 10
-1133.254513605575
 20
954.1619138239596
 10
-1132.540689821031
 20
953.4205292755338
 10
-1131.407942425481
 20
953.0016056645275
 10
-1130.120854752192
 20
953.0016056645275
 10
-1128.76210909281
 20
953.0016056645275
 10
-1127.825043120822
 20
953.3709199005463
 10
-1126.934830447433
 20
954.36035132391
 10
-1126.934830447433
 20
954.36035132391
 10
-1126.934830447433
 20
953.1504337894902
 10
-1126.934830447433
 20
953.1504337894902
 10
-1126.934830447433
 20
953.1504337894902
 10
-1123.795659441273
 20
953.1504337894902
 10
-1123.795659441273
 20
953.1504337894902
 97
        0
 92
        1
 93
        1
 72
     4
 94
        3
 73
     0
 74
     1
 95
       23
 96
       19
 40
0.0
 40
0.0
 40
0.0
 40
0.0
 40
1.0
 40
1.0
 40
1.0
 40
2.0
 40
2.0
 40
2.0
 40
3.0
 40
3.0
 40
3.0
 40
4.0
 40
4.0
 40
4.0
 40
5.0
 40
5.0
 40
5.0
 40
6.0
 40
6.0
 40
6.0
 40
6.0
 10
-1140.712456312044
 20
957.8853730244176
 10
-1140.712456312044
 20
957.0695744135104
 10
-1140.836479749513
 20
956.5789928164108
 10
-1141.205793985532
 20
956.2592879553797
 10
-1141.751497110396
 20
955.7383895180099
 10
-1142.316492769977
 20
955.6391707680347
 10
-1143.10748669339
 20
955.6391707680347
 10
-1144.441427665279
 20
955.6391707680347
 10
-1145.056032699847
 20
956.209678580392
 10
-1145.056032699847
 20
957.0971351773924
 10
-1145.056032699847
 20
958.0590058368742
 10
-1144.441427665279
 20
958.5771481978558
 10
-1143.159852144766
 20
958.5771481978558
 10
-1143.159852144766
 20
958.5771481978558
 10
-1140.712456312044
 20
958.5771481978558
 10
-1140.712456312044
 20
958.5771481978558
 10
-1140.712456312044
 20
958.5771481978558
 10
-1140.712456312044
 20
957.8853730244176
 10
-1140.712456312044
 20
957.8853730244176
 97
        0
 92
        1
 93
        1
 72
     4
 94
        3
 73
     0
 74
     1
 95
       47
 96
       43
 40
0.0
 40
0.0
 40
0.0
 40
0.0
 40
1.0
 40
1.0
 40
1.0
 40
2.0
 40
2.0
 40
2.0
 40
3.0
 40
3.0
 40
3.0
 40
4.0
 40
4.0
 40
4.0
 40
5.0
 40
5.0
 40
5.0
 40
6.0
 40
6.0
 40
6.0
 40
7.0
 40
7.0
 40
7.0
 40
8.0
 40
8.0
 40
8.0
 40
9.0
 40
9.0
 40
9.0
 40
10.0
 40
10.0
 40
10.0
 40
11.0
 40
11.0
 40
11.0
 40
12.0
 40
12.0
 40
12.0
 40
13.0
 40
13.0
 40
13.0
 40
14.0
 40
14.0
 40
14.0
 40
14.0
 10
-1137.504383396179
 20
953.1504337894902
 10
-1137.504383396179
 20
953.1504337894902
 10
-1137.504383396179
 20
961.6115883012639
 10
-1137.504383396179
 20
961.6115883012639
 10
-1137.504383396179
 20
964.6184676407898
 10
-1139.35646672905
 20
966.1480900362408
 10
-1142.988975408697
 20
966.1480900362408
 10
-1145.135958915105
 20
966.1480900362408
 10
-1146.343120373137
 20
965.7071178141288
 10
-1147.602647282544
 20
964.3235674672525
 10
-1147.602647282544
 20
964.3235674672525
 10
-1145.579687213605
 20
962.3254120858076
 10
-1145.579687213605
 20
962.3254120858076
 10
-1144.885155963779
 20
963.1136499328327
 10
-1144.267794852822
 20
963.4388669466404
 10
-1143.10748669339
 20
963.4388669466404
 10
-1141.401475409094
 20
963.4388669466404
 10
-1140.712456312044
 20
962.8159936829071
 10
-1140.712456312044
 20
961.4131508013135
 10
-1140.712456312044
 20
961.4131508013135
 10
-1140.712456312044
 20
960.7737410792511
 10
-1140.712456312044
 20
960.7737410792511
 10
-1140.712456312044
 20
960.7737410792511
 10
-1143.702799193241
 20
960.7737410792511
 10
-1143.702799193241
 20
960.7737410792511
 10
-1146.742751449425
 20
960.7737410792511
 10
-1148.145594331019
 20
959.0952905588373
 10
-1148.145594331019
 20
957.0475258024048
 10
-1148.145594331019
 20
955.9092662540783
 10
-1147.776280095
 20
954.8757376085033
 10
-1147.08726099795
 20
954.1619138239596
 10
-1146.343120373137
 20
953.4205292755338
 10
-1145.259982352574
 20
953.023654275633
 10
-1143.799261866828
 20
953.023654275633
 10
-1142.316492769977
 20
953.023654275633
 10
-1141.503450235457
 20
953.39572458804
 10
-1140.638042249563
 20
954.2611325739348
 10
-1140.638042249563
 20
954.2611325739348
 10
-1140.638042249563
 20
953.1504337894902
 10
-1140.638042249563
 20
953.1504337894902
 10
-1140.638042249563
 20
953.1504337894902
 10
-1137.504383396179
 20
953.1504337894902
 10
-1137.504383396179
 20
953.1504337894902
 97
        0
 92
        1
 93
        1
 72
     4
 94
        3
 73
     0
 74
     1
 95
       65
 96
       61
 40
0.0
 40
0.0
 40
0.0
 40
0.0
 40
1.0
 40
1.0
 40
1.0
 40
2.0
 40
2.0
 40
2.0
 40
3.0
 40
3.0
 40
3.0
 40
4.0
 40
4.0
 40
4.0
 40
5.0
 40
5.0
 40
5.0
 40
6.0
 40
6.0
 40
6.0
 40
7.0
 40
7.0
 40
7.0
 40
8.0
 40
8.0
 40
8.0
 40
9.0
 40
9.0
 40
9.0
 40
10.0
 40
10.0
 40
10.0
 40
11.0
 40
11.0
 40
11.0
 40
12.0
 40
12.0
 40
12.0
 40
13.0
 40
13.0
 40
13.0
 40
14.0
 40
14.0
 40
14.0
 40
15.0
 40
15.0
 40
15.0
 40
16.0
 40
16.0
 40
16.0
 40
17.0
 40
17.0
 40
17.0
 40
18.0
 40
18.0
 40
18.0
 40
19.0
 40
19.0
 40
19.0
 40
20.0
 40
20.0
 40
20.0
 40
20.0
 10
-1150.689452837328
 20
953.1504337894902
 10
-1150.689452837328
 20
953.1504337894902
 10
-1150.689452837328
 20
961.3635414263258
 10
-1150.689452837328
 20
961.3635414263258
 10
-1150.689452837328
 20
962.7691403843078
 10
-1151.061523149735
 20
963.9790579187274
 10
-1152.097807871698
 20
965.0098304879142
 10
-1152.817143809018
 20
965.7264103488462
 10
-1153.971939815674
 20
966.1480900362408
 10
-1155.259027488963
 20
966.1480900362408
 10
-1156.860307870507
 20
966.1480900362408
 10
-1158.023372106328
 20
965.6575084391412
 10
-1159.112022279666
 20
964.5192488908147
 10
-1159.927820890574
 20
965.627191598871
 10
-1161.085372973617
 20
966.1480900362408
 10
-1162.52128877187
 20
966.1480900362408
 10
-1163.700889466019
 20
966.1480900362408
 10
-1164.888758389333
 20
965.6768009738586
 10
-1165.729361687734
 20
964.8169051407402
 10
-1165.729361687734
 20
964.8169051407402
 10
-1165.729361687734
 20
966.0020179876662
 10
-1165.729361687734
 20
966.0020179876662
 10
-1165.729361687734
 20
966.0020179876662
 10
-1168.865776617506
 20
966.0020179876662
 10
-1168.865776617506
 20
966.0020179876662
 10
-1168.865776617506
 20
966.0020179876662
 10
-1168.865776617506
 20
953.1504337894902
 10
-1168.865776617506
 20
953.1504337894902
 10
-1168.865776617506
 20
953.1504337894902
 10
-1165.652191548865
 20
953.1504337894902
 10
-1165.652191548865
 20
953.1504337894902
 10
-1165.652191548865
 20
953.1504337894902
 10
-1165.652191548865
 20
960.9225692042138
 10
-1165.652191548865
 20
960.9225692042138
 10
-1165.652191548865
 20
962.6699216343326
 10
-1164.516688076926
 20
963.2597219814073
 10
-1163.505208042457
 20
963.2597219814073
 10
-1162.496484084376
 20
963.2597219814073
 10
-1161.383029223543
 20
962.6699216343326
 10
-1161.383029223543
 20
960.9225692042138
 10
-1161.383029223543
 20
960.9225692042138
 10
-1161.383029223543
 20
953.1504337894902
 10
-1161.383029223543
 20
953.1504337894902
 10
-1161.383029223543
 20
953.1504337894902
 10
-1158.17220023129
 20
953.1504337894902
 10
-1158.17220023129
 20
953.1504337894902
 10
-1158.17220023129
 20
953.1504337894902
 10
-1158.17220023129
 20
960.994227190307
 10
-1158.17220023129
 20
960.994227190307
 10
-1158.17220023129
 20
962.6699216343326
 10
-1157.011892071858
 20
963.2597219814073
 10
-1156.025216724883
 20
963.2597219814073
 10
-1155.008224537637
 20
963.2597219814073
 10
-1153.900281829581
 20
962.6699216343326
 10
-1153.900281829581
 20
960.9225692042138
 10
-1153.900281829581
 20
960.9225692042138
 10
-1153.900281829581
 20
953.1504337894902
 10
-1153.900281829581
 20
953.1504337894902
 10
-1153.900281829581
 20
953.1504337894902
 10
-1150.689452837328
 20
953.1504337894902
 10
-1150.689452837328
 20
953.1504337894902
 97
        0
 92
        1
 93
        1
 72
     4
 94
        3
 73
     0
 74
     1
 95
       38
 96
       34
 40
0.0
 40
0.0
 40
0.0
 40
0.0
 40
1.0
 40
1.0
 40
1.0
 40
2.0
 40
2.0
 40
2.0
 40
3.0
 40
3.0
 40
3.0
 40
4.0
 40
4.0
 40
4.0
 40
5.0
 40
5.0
 40
5.0
 40
6.0
 40
6.0
 40
6.0
 40
7.0
 40
7.0
 40
7.0
 40
8.0
 40
8.0
 40
8.0
 40
9.0
 40
9.0
 40
9.0
 40
10.0
 40
10.0
 40
10.0
 40
11.0
 40
11.0
 40
11.0
 40
11.0
 10
-1172.889648144278
 20
953.1504337894902
 10
-1172.889648144278
 20
953.1504337894902
 10
-1172.889648144278
 20
970.7121525350998
 10
-1172.889648144278
 20
970.7121525350998
 10
-1172.889648144278
 20
970.7121525350998
 10
-1174.670073491055
 20
970.7121525350998
 10
-1174.670073491055
 20
970.7121525350998
 10
-1174.670073491055
 20
970.7121525350998
 10
-1174.670073491055
 20
963.8798391687523
 10
-1174.670073491055
 20
963.8798391687523
 10
-1175.678797449136
 20
965.1366100017715
 10
-1176.742642934981
 20
965.4370223280853
 10
-1178.101388594364
 20
965.4370223280853
 10
-1179.360915503771
 20
965.4370223280853
 10
-1180.424760989616
 20
965.0098304879142
 10
-1181.064170711678
 20
964.3704207658519
 10
-1182.274088246098
 20
963.1605032314321
 10
-1182.54693980853
 20
961.1623478499872
 10
-1182.54693980853
 20
959.2165579199182
 10
-1182.54693980853
 20
957.2680119134608
 10
-1182.274088246098
 20
955.297417295898
 10
-1181.064170711678
 20
954.0626950739844
 10
-1180.424760989616
 20
953.4205292755338
 10
-1179.360915503771
 20
953.0016056645275
 10
-1178.101388594364
 20
953.0016056645275
 10
-1176.717838247487
 20
953.0016056645275
 10
-1175.653992761642
 20
953.3213105255586
 10
-1174.645268803561
 20
954.6056421224597
 10
-1174.645268803561
 20
954.6056421224597
 10
-1174.645268803561
 20
953.1504337894902
 10
-1174.645268803561
 20
953.1504337894902
 10
-1174.645268803561
 20
953.1504337894902
 10
-1172.889648144278
 20
953.1504337894902
 10
-1172.889648144278
 20
953.1504337894902
 97
        0
 92
        1
 93
        1
 72
     4
 94
        3
 73
     0
 74
     1
 95
       44
 96
       40
 40
0.0
 40
0.0
 40
0.0
 40
0.0
 40
1.0
 40
1.0
 40
1.0
 40
2.0
 40
2.0
 40
2.0
 40
3.0
 40
3.0
 40
3.0
 40
4.0
 40
4.0
 40
4.0
 40
5.0
 40
5.0
 40
5.0
 40
6.0
 40
6.0
 40
6.0
 40
7.0
 40
7.0
 40
7.0
 40
8.0
 40
8.0
 40
8.0
 40
9.0
 40
9.0
 40
9.0
 40
10.0
 40
10.0
 40
10.0
 40
11.0
 40
11.0
 40
11.0
 40
12.0
 40
12.0
 40
12.0
 40
13.0
 40
13.0
 40
13.0
 40
13.0
 10
-1186.226301786777
 20
953.1504337894902
 10
-1186.226301786777
 20
953.1504337894902
 10
-1186.226301786777
 20
960.9225692042138
 10
-1186.226301786777
 20
960.9225692042138
 10
-1186.226301786777
 20
962.3254120858076
 10
-1186.620420710289
 20
963.4609155577459
 10
-1187.483072619796
 20
964.2987627797587
 10
-1188.224457168222
 20
965.0373912517963
 10
-1189.285546577679
 20
965.4370223280853
 10
-1190.597438938462
 20
965.4370223280853
 10
-1191.956184597844
 20
965.4370223280853
 10
-1193.135785291994
 20
964.9381725018211
 10
-1194.003949354277
 20
963.9514971548455
 10
-1194.003949354277
 20
963.9514971548455
 10
-1194.003949354277
 20
965.2881942031224
 10
-1194.003949354277
 20
965.2881942031224
 10
-1194.003949354277
 20
965.2881942031224
 10
-1195.781618624666
 20
965.2881942031224
 10
-1195.781618624666
 20
965.2881942031224
 10
-1195.781618624666
 20
965.2881942031224
 10
-1195.781618624666
 20
953.1504337894902
 10
-1195.781618624666
 20
953.1504337894902
 10
-1195.781618624666
 20
953.1504337894902
 10
-1194.003949354277
 20
953.1504337894902
 10
-1194.003949354277
 20
953.1504337894902
 10
-1194.003949354277
 20
953.1504337894902
 10
-1194.003949354277
 20
960.6221568779
 10
-1194.003949354277
 20
960.6221568779
 10
-1194.003949354277
 20
962.7415796204258
 10
-1192.816080430963
 20
963.8550344812585
 10
-1190.988801785586
 20
963.8550344812585
 10
-1189.16152314021
 20
963.8550344812585
 10
-1188.003971057166
 20
962.7691403843078
 10
-1188.003971057166
 20
960.6221568779
 10
-1188.003971057166
 20
960.6221568779
 10
-1188.003971057166
 20
953.1504337894902
 10
-1188.003971057166
 20
953.1504337894902
 10
-1188.003971057166
 20
953.1504337894902
 10
-1186.226301786777
 20
953.1504337894902
 10
-1186.226301786777
 20
953.1504337894902
 97
        0
 92
        1
 93
        1
 72
     4
 94
        3
 73
     0
 74
     1
 95
       23
 96
       19
 40
0.0
 40
0.0
 40
0.0
 40
0.0
 40
1.0
 40
1.0
 40
1.0
 40
2.0
 40
2.0
 40
2.0
 40
3.0
 40
3.0
 40
3.0
 40
4.0
 40
4.0
 40
4.0
 40
5.0
 40
5.0
 40
5.0
 40
6.0
 40
6.0
 40
6.0
 40
6.0
 10
-1201.880815671752
 20
957.4388886495292
 10
-1201.880815671752
 20
956.4301646914481
 10
-1202.079253171702
 20
955.7383895180099
 10
-1202.498176782709
 20
955.3442705944973
 10
-1203.286414629734
 20
954.6304468099536
 10
-1204.176627303123
 20
954.5312280599784
 10
-1205.188107337592
 20
954.5312280599784
 10
-1207.142165496826
 20
954.5312280599784
 10
-1208.004817406332
 20
955.1954424695346
 10
-1208.004817406332
 20
956.6065535802928
 10
-1208.004817406332
 20
958.0342011493804
 10
-1207.08980004545
 20
958.745268857536
 10
-1205.265277476462
 20
958.745268857536
 10
-1205.265277476462
 20
958.745268857536
 10
-1201.880815671752
 20
958.745268857536
 10
-1201.880815671752
 20
958.745268857536
 10
-1201.880815671752
 20
958.745268857536
 10
-1201.880815671752
 20
957.4388886495292
 10
-1201.880815671752
 20
957.4388886495292
 97
        0
 92
        1
 93
        1
 72
     4
 94
        3
 73
     0
 74
     1
 95
       47
 96
       43
 40
0.0
 40
0.0
 40
0.0
 40
0.0
 40
1.0
 40
1.0
 40
1.0
 40
2.0
 40
2.0
 40
2.0
 40
3.0
 40
3.0
 40
3.0
 40
4.0
 40
4.0
 40
4.0
 40
5.0
 40
5.0
 40
5.0
 40
6.0
 40
6.0
 40
6.0
 40
7.0
 40
7.0
 40
7.0
 40
8.0
 40
8.0
 40
8.0
 40
9.0
 40
9.0
 40
9.0
 40
10.0
 40
10.0
 40
10.0
 40
11.0
 40
11.0
 40
11.0
 40
12.0
 40
12.0
 40
12.0
 40
13.0
 40
13.0
 40
13.0
 40
14.0
 40
14.0
 40
14.0
 40
14.0
 10
-1200.100390324975
 20
953.1504337894902
 10
-1200.100390324975
 20
953.1504337894902
 10
-1200.100390324975
 20
961.3828339610433
 10
-1200.100390324975
 20
961.3828339610433
 10
-1200.100390324975
 20
964.0038626062213
 10
-1201.68513424819
 20
965.4370223280853
 10
-1204.964865150148
 20
965.4370223280853
 10
-1206.971288760757
 20
965.4370223280853
 10
-1208.203254906283
 20
965.0098304879142
 10
-1209.264344315739
 20
963.6097436827088
 10
-1209.264344315739
 20
963.6097436827088
 10
-1208.05442678132
 20
962.496288821876
 10
-1208.05442678132
 20
962.496288821876
 10
-1207.315798309282
 20
963.5105249327336
 10
-1206.522048309481
 20
963.9073999326343
 10
-1204.995181990418
 20
963.9073999326343
 10
-1202.743467581259
 20
963.9073999326343
 10
-1201.880815671752
 20
962.9896264953637
 10
-1201.880815671752
 20
961.242274065245
 10
-1201.880815671752
 20
961.242274065245
 10
-1201.880815671752
 20
960.0792098294247
 10
-1201.880815671752
 20
960.0792098294247
 10
-1201.880815671752
 20
960.0792098294247
 10
-1205.510568275011
 20
960.0792098294247
 10
-1205.510568275011
 20
960.0792098294247
 10
-1208.228059593776
 20
960.0792098294247
 10
-1209.732877301733
 20
958.7204641700422
 10
-1209.732877301733
 20
956.5789928164108
 10
-1209.732877301733
 20
955.6171221569291
 10
-1209.437977128196
 20
954.7021047960467
 10
-1208.817859940851
 20
954.1123044489719
 10
-1207.980012718838
 20
953.3020179908413
 10
-1207.064995357956
 20
953.0016056645275
 10
-1205.383788761154
 20
953.0016056645275
 10
-1203.760459768504
 20
953.0016056645275
 10
-1202.84819848401
 20
953.3433591366642
 10
-1201.880815671752
 20
954.3079858725341
 10
-1201.880815671752
 20
954.3079858725341
 10
-1201.880815671752
 20
953.1504337894902
 10
-1201.880815671752
 20
953.1504337894902
 10
-1201.880815671752
 20
953.1504337894902
 10
-1200.100390324975
 20
953.1504337894902
 10
-1200.100390324975
 20
953.1504337894902
 97
        0
 92
        1
 93
        1
 72
     4
 94
        3
 73
     0
 74
     1
 95
       41
 96
       37
 40
0.0
 40
0.0
 40
0.0
 40
0.0
 40
1.0
 40
1.0
 40
1.0
 40
2.0
 40
2.0
 40
2.0
 40
3.0
 40
3.0
 40
3.0
 40
4.0
 40
4.0
 40
4.0
 40
5.0
 40
5.0
 40
5.0
 40
6.0
 40
6.0
 40
6.0
 40
7.0
 40
7.0
 40
7.0
 40
8.0
 40
8.0
 40
8.0
 40
9.0
 40
9.0
 40
9.0
 40
10.0
 40
10.0
 40
10.0
 40
11.0
 40
11.0
 40
11.0
 40
12.0
 40
12.0
 40
12.0
 40
12.0
 10
-1213.092534418949
 20
953.1504337894902
 10
-1213.092534418949
 20
953.1504337894902
 10
-1213.092534418949
 20
960.9418617389313
 10
-1213.092534418949
 20
960.9418617389313
 10
-1213.092534418949
 20
963.6841577451901
 10
-1214.69932695327
 20
965.4370223280853
 10
-1217.463671570634
 20
965.4370223280853
 10
-1218.847221917511
 20
965.4370223280853
 10
-1219.979969313061
 20
964.9381725018211
 10
-1220.867425910061
 20
963.9514971548455
 10
-1220.867425910061
 20
963.9514971548455
 10
-1220.867425910061
 20
970.7121525350998
 10
-1220.867425910061
 20
970.7121525350998
 10
-1220.867425910061
 20
970.7121525350998
 10
-1222.650607333226
 20
970.7121525350998
 10
-1222.650607333226
 20
970.7121525350998
 10
-1222.650607333226
 20
970.7121525350998
 10
-1222.650607333226
 20
953.1504337894902
 10
-1222.650607333226
 20
953.1504337894902
 10
-1222.650607333226
 20
953.1504337894902
 10
-1220.867425910061
 20
953.1504337894902
 10
-1220.867425910061
 20
953.1504337894902
 10
-1220.867425910061
 20
953.1504337894902
 10
-1220.867425910061
 20
960.6469615653939
 10
-1220.867425910061
 20
960.6469615653939
 10
-1220.867425910061
 20
962.7939450718015
 10
-1219.685069139523
 20
963.8550344812585
 10
-1217.832985806653
 20
963.8550344812585
 10
-1215.980902473783
 20
963.8550344812585
 10
-1214.86744761295
 20
962.7939450718015
 10
-1214.86744761295
 20
960.6469615653939
 10
-1214.86744761295
 20
960.6469615653939
 10
-1214.86744761295
 20
953.1504337894902
 10
-1214.86744761295
 20
953.1504337894902
 10
-1214.86744761295
 20
953.1504337894902
 10
-1213.092534418949
 20
953.1504337894902
 10
-1213.092534418949
 20
953.1504337894902
 97
        0
 92
        1
 93
        2
 72
     4
 94
        3
 73
     0
 74
     0
 95
       20
 96
       16
 40
0.0
 40
0.0
 40
0.0
 40
0.0
 40
0.3527777776895833
 40
0.3527777776895833
 40
0.3527777776895833
 40
0.7055555553791667
 40
0.7055555553791667
 40
0.7055555553791667
 40
1.05833333306875
 40
1.05833333306875
 40
1.05833333306875
 40
1.411111110758333
 40
1.411111110758333
 40
1.411111110758333
 40
1.763888888447917
 40
1.763888888447917
 40
1.763888888447917
 40
1.763888888447917
 10
-1112.785134270415
 20
960.7737410792511
 10
-1112.785134270415
 20
960.7737410792511
 10
-1117.67716985947
 20
960.7737410792511
 10
-1117.67716985947
 20
960.7737410792511
 10
-1117.649609095588
 20
961.3414928152202
 10
-1117.597243644212
 20
961.6832462873571
 10
-1117.376757533156
 20
962.1517792733509
 10
-1117.032247984631
 20
962.9152124328823
 10
-1116.318424200087
 20
963.4802080924633
 10
-1115.229774026748
 20
963.4802080924633
 10
-1114.146636006186
 20
963.4802080924633
 10
-1113.427300068865
 20
962.9152124328823
 10
-1113.08279052034
 20
962.1517792733509
 10
-1112.859548332896
 20
961.6832462873571
 10
-1112.809938957909
 20
961.3414928152202
 10
-1112.785134270415
 20
960.7737410792511
 72
     1
 10
-1112.785134270415
 20
960.7737410792511
 11
-1112.785134270415
 21
960.7737410792511
 97
        0
 92
        1
 93
        2
 72
     4
 94
        3
 73
     0
 74
     0
 95
       17
 96
       13
 40
0.0
 40
0.0
 40
0.0
 40
0.0
 40
0.3527777776895833
 40
0.3527777776895833
 40
0.3527777776895833
 40
0.7055555553791667
 40
0.7055555553791667
 40
0.7055555553791667
 40
1.05833333306875
 40
1.05833333306875
 40
1.05833333306875
 40
1.411111110758333
 40
1.411111110758333
 40
1.411111110758333
 40
1.411111110758333
 10
-1127.006488433526
 20
959.5886282323252
 10
-1127.006488433526
 20
957.5160587883988
 10
-1127.279339995958
 20
955.8872176429727
 10
-1129.20583739131
 20
955.8872176429727
 10
-1131.132334786661
 20
955.8872176429727
 10
-1131.377625585211
 20
957.5160587883988
 10
-1131.377625585211
 20
959.5886282323252
 10
-1131.377625585211
 20
961.6611976762514
 10
-1131.132334786661
 20
963.2597219814073
 10
-1129.20583739131
 20
963.2597219814073
 10
-1127.279339995958
 20
963.2597219814073
 10
-1127.006488433526
 20
961.6611976762514
 10
-1127.006488433526
 20
959.5886282323252
 72
     1
 10
-1127.006488433526
 20
959.5886282323252
 11
-1127.006488433526
 21
959.5886282323252
 97
        0
 92
        1
 93
        2
 72
     4
 94
        3
 73
     0
 74
     0
 95
       17
 96
       13
 40
0.0
 40
0.0
 40
0.0
 40
0.0
 40
0.3527777776895833
 40
0.3527777776895833
 40
0.3527777776895833
 40
0.7055555553791667
 40
0.7055555553791667
 40
0.7055555553791667
 40
1.05833333306875
 40
1.05833333306875
 40
1.05833333306875
 40
1.411111110758333
 40
1.411111110758333
 40
1.411111110758333
 40
1.411111110758333
 10
-1174.670073491055
 20
959.2165579199182
 10
-1174.670073491055
 20
956.8490883024544
 10
-1175.061436338179
 20
954.5808374349659
 10
-1177.704513594463
 20
954.5808374349659
 10
-1180.37239553824
 20
954.5808374349659
 10
-1180.766514461753
 20
956.8490883024544
 10
-1180.766514461753
 20
959.2165579199182
 10
-1180.766514461753
 20
961.58678361377
 10
-1180.37239553824
 20
963.8550344812585
 10
-1177.704513594463
 20
963.8550344812585
 10
-1175.061436338179
 20
963.8550344812585
 10
-1174.670073491055
 20
961.58678361377
 10
-1174.670073491055
 20
959.2165579199182
 72
     1
 10
-1174.670073491055
 20
959.2165579199182
 11
-1174.670073491055
 21
959.2165579199182
 97
        0
 75
     2
 76
     1
 98
        0
  0
ENDBLK
  5
F0
330
ED
100
AcDbEntity
  8
0
100
AcDbBlockEnd
  0
ENDSEC
  0
SECTION
  2
ENTITIES
  0
MTEXT
  5
3C
330
1F
100
AcDbEntity
  8
\U+30EC\U+30A4\U+30E4\U+30FC 1
 62
     7
420
 16777215
100
AcDbMText
 10
-1302.179947591122
 20
-782.9627168181482
 30
0.0
 40
22.27610432555348
 41
0.0
 71
     7
 72
     1
  1
\fATC-65b030b44c2d5357495353|b0|i0|c0|p34;\W1;\U+4ED5\U+69D8
 73
     1
 44
1.0
  0
POLYLINE
  5
3D
330
1F
100
AcDbEntity
  8
\U+30EC\U+30A4\U+30E4\U+30FC 1
 62
     7
420
 16777215
370
    35
100
AcDb2dPolyline
 66
     1
 10
0.0
 20
0.0
 30
0.0
  0
VERTEX
  5
3E
330
3D
100
AcDbEntity
  8
\U+30EC\U+30A4\U+30E4\U+30FC 1
 62
     7
420
 16777215
370
    35
100
AcDbVertex
100
AcDb2dVertex
 10
1555.129882423718
 20
-692.375998090795
 30
0.0
  0
VERTEX
  5
3F
330
3D
100
AcDbEntity
  8
\U+30EC\U+30A4\U+30E4\U+30FC 1
 62
     7
420
 16777215
370
    35
100
AcDbVertex
100
AcDb2dVertex
 10
-1333.775607305445
 20
-692.375998090795
 30
0.0
  0
SEQEND
  5
40
330
3D
100
AcDbEntity
  8
\U+30EC\U+30A4\U+30E4\U+30FC 1
370
    35
  0
POLYLINE
  5
41
330
1F
100
AcDbEntity
  8
\U+30EC\U+30A4\U+30E4\U+30FC 1
 62
     7
420
 16777215
370
    70
100
AcDb2dPolyline
 66
     1
 10
0.0
 20
0.0
 30
0.0
  0
VERTEX
  5
42
330
41
100
AcDbEntity
  8
\U+30EC\U+30A4\U+30E4\U+30FC 1
 62
     7
420
 16777215
370
    70
100
AcDbVertex
100
AcDb2dVertex
 10
1565.448632421138
 20
1148.175911171289
 30
0.0
  0
VERTEX
  5
43
330
41
100
AcDbEntity
  8
\U+30EC\U+30A4\U+30E4\U+30FC 1
 62
     7
420
 16777215
370
    70
100
AcDbVertex
100
AcDb2dVertex
 10
1565.448632421138
 20
-884.5158634941489
 30
0.0
  0
VERTEX
  5
44
330
41
100
AcDbEntity
  8
\U+30EC\U+30A4\U+30E4\U+30FC 1
 62
     7
420
 16777215
370
    70
100
AcDbVertex
100
AcDb2dVertex
 10
-1344.091601226477
 20
-884.5158634941489
 30
0.0
  0
VERTEX
  5
45
330
41
100
AcDbEntity
  8
\U+30EC\U+30A4\U+30E4\U+30FC 1
 62
     7
420
 16777215
370
    70
100
AcDbVertex
100
AcDb2dVertex
 10
-1344.091601226477
 20
1148.175911171289
 30
0.0
  0
VERTEX
  5
46
330
41
100
AcDbEntity
  8
\U+30EC\U+30A4\U+30E4\U+30FC 1
 62
     7
420
 16777215
370
    70
100
AcDbVertex
100
AcDb2dVertex
 10
1565.448632421138
 20
1148.175911171289
 30
0.0
  0
SEQEND
  5
47
330
41
100
AcDbEntity
  8
\U+30EC\U+30A4\U+30E4\U+30FC 1
370
    70
  0
POLYLINE
  5
48
330
1F
100
AcDbEntity
  8
\U+30EC\U+30A4\U+30E4\U+30FC 1
 62
     7
420
 16777215
370
    35
100
AcDb2dPolyline
 66
     1
 10
0.0
 20
0.0
 30
0.0
  0
VERTEX
  5
49
330
48
100
AcDbEntity
  8
\U+30EC\U+30A4\U+30E4\U+30FC 1
 62
     7
420
 16777215
370
    35
100
AcDbVertex
100
AcDb2dVertex
 10
-1333.775607305445
 20
1137.857161173869
 30
0.0
  0
VERTEX
  5
4A
330
48
100
AcDbEntity
  8
\U+30EC\U+30A4\U+30E4\U+30FC 1
 62
     7
420
 16777215
370
    35
100
AcDbVertex
100
AcDb2dVertex
 10
-1333.775607305445
 20
-874.1998695731168
 30
0.0
  0
VERTEX
  5
4B
330
48
100
AcDbEntity
  8
\U+30EC\U+30A4\U+30E4\U+30FC 1
 62
     7
420
 16777215
370
    35
100
AcDbVertex
100
AcDb2dVertex
 10
1555.129882423718
 20
-874.1998695731168
 30
0.0
  0
VERTEX
  5
4C
330
48
100
AcDbEntity
  8
\U+30EC\U+30A4\U+30E4\U+30FC 1
 62
     7
420
 16777215
370
    35
100
AcDbVertex
100
AcDb2dVertex
 10
1555.129882423718
 20
1137.857161173869
 30
0.0
  0
VERTEX
  5
4D
330
48
100
AcDbEntity
  8
\U+30EC\U+30A4\U+30E4\U+30FC 1
 62
     7
420
 16777215
370
    35
100
AcDbVertex
100
AcDb2dVertex
 10
-1333.775607305445
 20
1137.857161173869
 30
0.0
  0
SEQEND
  5
4E
330
48
100
AcDbEntity
  8
\U+30EC\U+30A4\U+30E4\U+30FC 1
370
    35
  0
POLYLINE
  5
4F
330
1F
100
AcDbEntity
  8
\U+30EC\U+30A4\U+30E4\U+30FC 1
 62
     7
420
 16777215
370
    35
100
AcDb2dPolyline
 66
     1
 10
0.0
 20
0.0
 30
0.0
  0
VERTEX
  5
50
330
4F
100
AcDbEntity
  8
\U+30EC\U+30A4\U+30E4\U+30FC 1
 62
     7
420
 16777215
370
    35
100
AcDbVertex
100
AcDb2dVertex
 10
1555.129882423718
 20
-604.581184744688
 30
0.0
  0
VERTEX
  5
51
330
4F
100
AcDbEntity
  8
\U+30EC\U+30A4\U+30E4\U+30FC 1
 62
     7
420
 16777215
370
    35
100
AcDbVertex
100
AcDb2dVertex
 10
-1333.775607305445
 20
-604.581184744688
 30
0.0
  0
SEQEND
  5
52
330
4F
100
AcDbEntity
  8
\U+30EC\U+30A4\U+30E4\U+30FC 1
370
    35
  0
POLYLINE
  5
53
330
1F
100
AcDbEntity
  8
\U+30EC\U+30A4\U+30E4\U+30FC 1
 62
     7
420
 16777215
370
    35
100
AcDb2dPolyline
 66
     1
 10
0.0
 20
0.0
 30
0.0
  0
VERTEX
  5
54
330
53
100
AcDbEntity
  8
\U+30EC\U+30A4\U+30E4\U+30FC 1
 62
     7
420
 16777215
370
    35
100
AcDbVertex
100
AcDb2dVertex
 10
1555.129882423718
 20
-780.1708114369018
 30
0.0
  0
VERTEX
  5
55
330
53
100
AcDbEntity
  8
\U+30EC\U+30A4\U+30E4\U+30FC 1
 62
     7
420
 16777215
370
    35
100
AcDbVertex
100
AcDb2dVertex
 10
449.6731552695261
 20
-780.1708114369018
 30
0.0
  0
SEQEND
  5
56
330
53
100
AcDbEntity
  8
\U+30EC\U+30A4\U+30E4\U+30FC 1
370
    35
  0
MTEXT
  5
57
330
1F
100
AcDbEntity
  8
\U+30EC\U+30A4\U+30E4\U+30FC 1
 62
     7
420
 16777215
100
AcDbMText
 10
910.2438365779947
 20
-756.6907631571816
 30
0.0
 40
25.39475861246874
 41
0.0
 71
     7
 72
     1
  1
\fATC-65b030b44c2d5357495353|b0|i0|c0|p34;\W1.02;-
 73
     1
 44
1.0
  0
MTEXT
  5
58
330
1F
100
AcDbEntity
  8
\U+30EC\U+30A4\U+30E4\U+30FC 1
 62
     7
420
 16777215
100
AcDbMText
 10
855.6459633277552
 20
-717.9275822857959
 30
0.0
 40
14.85073682710465
 41
0.0
 71
     7
 72
     1
  1
\fATC-65b030b44c2d5357495353|b0|i0|c0|p34;\W1;\U+7E2E\U+5C3A
 73
     1
 44
1.0
  0
POLYLINE
  5
59
330
1F
100
AcDbEntity
  8
\U+30EC\U+30A4\U+30E4\U+30FC 1
 62
     7
420
 16777215
370
    35
100
AcDb2dPolyline
 66
     1
 10
0.0
 20
0.0
 30
0.0
  0
VERTEX
  5
5A
330
59
100
AcDbEntity
  8
\U+30EC\U+30A4\U+30E4\U+30FC 1
 62
     7
420
 16777215
370
    35
100
AcDbVertex
100
AcDb2dVertex
 10
839.8784503108637
 20
-780.1708114369018
 30
0.0
  0
VERTEX
  5
5B
330
59
100
AcDbEntity
  8
\U+30EC\U+30A4\U+30E4\U+30FC 1
 62
     7
420
 16777215
370
    35
100
AcDbVertex
100
AcDb2dVertex
 10
839.8784503108637
 20
-692.375998090795
 30
0.0
  0
SEQEND
  5
5C
330
59
100
AcDbEntity
  8
\U+30EC\U+30A4\U+30E4\U+30FC 1
370
    35
  0
MTEXT
  5
5D
330
1F
100
AcDbEntity
  8
\U+30EC\U+30A4\U+30E4\U+30FC 1
 62
     7
420
 16777215
100
AcDbMText
 10
456.883051101057
 20
-630.1327689396891
 30
0.0
 40
14.85073682710465
 41
0.0
 71
     7
 72
     1
  1
\fATC-65b030b44c2d5357495353|b0|i0|c0|p34;\W1;\U+54C1\U+756A
 73
     1
 44
1.0
  0
MTEXT
  5
5E
330
1F
100
AcDbEntity
  8
\U+30EC\U+30A4\U+30E4\U+30FC 1
 62
     7
420
 16777215
100
AcDbMText
 10
-1321.836284391763
 20
-630.1327689396891
 30
0.0
 40
14.85073682710465
 41
0.0
 71
     7
 72
     1
  1
\fATC-65b030b44c2d5357495353|b0|i0|c0|p34;\W1;\U+54C1\U+540D
 73
     1
 44
1.0
  0
MTEXT
  5
5F
330
1F
100
AcDbEntity
  8
\U+30EC\U+30A4\U+30E4\U+30FC 1
 62
     7
420
 16777215
100
AcDbMText
 10
456.883051101057
 20
-717.9275822857959
 30
0.0
 40
14.85073682710465
 41
0.0
 71
     7
 72
     1
  1
\fATC-65b030b44c2d5357495353|b0|i0|c0|p34;\W1;\U+91CD\U+91CF
 73
     1
 44
1.0
  0
MTEXT
  5
60
330
1F
100
AcDbEntity
  8
\U+30EC\U+30A4\U+30E4\U+30FC 1
 62
   179
420
  2234388
100
AcDbMText
 10
519.0187932730231
 20
-669.6676511997706
 30
0.0
 40
35.9925805209499
 41
0.0
 71
     7
 72
     1
  1
\fATC-30d230e930ae30ce7736206675747572612d626f6c64|b0|i0|c0|p34;\W1;CIE-SHLAA60/
 73
     1
 44
1.0
  0
MTEXT
  5
61
330
1F
100
AcDbEntity
  8
\U+30EC\U+30A4\U+30E4\U+30FC 1
 62
     7
420
 16777215
100
AcDbMText
 10
511.6986543859642
 20
-756.6907631571816
 30
0.0
 40
25.39475861246874
 41
0.0
 71
     7
 72
     1
  1
\fATC-65b030b44c2d5357495353|b0|i0|c0|p34;\W1.02;15.0kg
 73
     1
 44
1.0
  0
POLYLINE
  5
62
330
1F
100
AcDbEntity
  8
\U+30EC\U+30A4\U+30E4\U+30FC 1
 62
     7
420
 16777215
370
    35
100
AcDb2dPolyline
 66
     1
 10
0.0
 20
0.0
 30
0.0
  0
VERTEX
  5
63
330
62
100
AcDbEntity
  8
\U+30EC\U+30A4\U+30E4\U+30FC 1
 62
     7
420
 16777215
370
    35
100
AcDbVertex
100
AcDb2dVertex
 10
449.6731552695261
 20
-867.7451386719526
 30
0.0
  0
VERTEX
  5
64
330
62
100
AcDbEntity
  8
\U+30EC\U+30A4\U+30E4\U+30FC 1
 62
     7
420
 16777215
370
    35
100
AcDbVertex
100
AcDb2dVertex
 10
449.6731552695261
 20
-604.581184744688
 30
0.0
  0
SEQEND
  5
65
330
62
100
AcDbEntity
  8
\U+30EC\U+30A4\U+30E4\U+30FC 1
370
    35
  0
MTEXT
  5
66
330
1F
100
AcDbEntity
  8
\U+30EC\U+30A4\U+30E4\U+30FC 1
 62
     7
420
 16777215
100
AcDbMText
 10
-1189.628850342784
 20
-662.0371092094907
 30
0.0
 40
24.5563354049327
 41
0.0
 71
     7
 72
     1
  1
\fATC-65b030b44c2d5357495353|b0|i0|c0|p34;\W0.94;\U+30B7\U+30E5\U+30A4\U+FF0F\U+30B8\U+30E3\U+30F3\U+30B0\U+30EB\U+30AB\U+30A6\U+30F3\U+30BF\U+30FC\U+7F6E\U+304D\U+578B\U+624B\U+6D17\U+5668\H27.9942;\W0.9588;600\H24.5563;\W0.94;\U+FF4D\U+FF4D
 73
     1
 44
1.0
  0
INSERT
  5
68
330
1F
100
AcDbEntity
  8
\U+30EC\U+30A4\U+30E4\U+30FC 1
100
AcDbBlockReference
  2
block 2
 10
0.0
 20
0.0
 30
0.0
  0
MTEXT
  5
EB
330
1F
100
AcDbEntity
  8
\U+30EC\U+30A4\U+30E4\U+30FC 1
 62
   179
420
  2234388
100
AcDbMText
 10
615.6578557488633
 20
-820.4674043087721
 30
0.0
 40
20.04849535716371
 41
0.0
 71
     7
 72
     1
  1
\fATC-65b030b44c2d5357495353|b0|i0|c0|p34;\W1;\U+25CF\H22.8553;\W1.02;TEL 0120-65-1232\H20.0485;\W1;\U+25CF\H22.8553;\W1.02;FAX 06-6532-1580
 73
     1
 44
1.0
  0
MTEXT
  5
EC
330
1F
100
AcDbEntity
  8
\U+30EC\U+30A4\U+30E4\U+30FC 1
 62
   179
420
  2234388
100
AcDbMText
 10
615.6578557488633
 20
-856.7315129151574
 30
0.0
 40
22.85528442037061
 41
0.0
 71
     7
 72
     1
  1
\fATC-65b030b44c2d5357495353|b0|i0|c0|p34;\W1.02;hits@hiratatile.co.jp
 73
     1
 44
1.0
  0
INSERT
  5
EE
330
1F
100
AcDbEntity
  8
\U+30EC\U+30A4\U+30E4\U+30FC 1
100
AcDbBlockReference
  2
block 4
 10
0.0
 20
0.0
 30
0.0
  0
MTEXT
  5
130
330
1F
100
AcDbEntity
  8
\U+30EC\U+30A4\U+30E4\U+30FC 1
 62
   179
420
  2234388
100
AcDbMText
 10
-1193.099956298947
 20
-774.7964624799121
 30
0.0
 40
21.04829350347952
 41
0.0
 71
     7
 72
     1
  1
\fATC-65b030b44c2d5357495353|b0|i0|c0|p34;\W1;\U+25CF\U+8A2D\U+7F6E\U+65B9\U+6CD5\U+FF1A\U+30AB\U+30A6\U+30F3\U+30BF\U+30FC\U+7F6E\U+304D\U+25CF\U+6C34\U+6813\U+53D6\U+4ED8\U+7A74\U+FF1A\U+306A\U+3057\U+25CF\U+30AA\U+30FC\U+30D0\U+30FC\U+30D5\U+30ED\U+30FC\U+306A\U+3057
 73
     1
 44
1.0
  0
MTEXT
  5
131
330
1F
100
AcDbEntity
  8
\U+30EC\U+30A4\U+30E4\U+30FC 1
 62
   179
420
  2234388
100
AcDbMText
 10
-1193.099956298947
 20
-823.8060463435277
 30
0.0
 40
21.04829350347952
 41
0.0
 71
     7
 72
     1
  1
\fATC-65b030b44c2d5357495353|b0|i0|c0|p34;\W1;\U+25CF\U+6392\U+6C34\U+91D1\U+5177\U+5225\U+9014
 73
     1
 44
1.0
  0
MTEXT
  5
132
330
1F
100
AcDbEntity
  8
\U+30EC\U+30A4\U+30E4\U+30FC 1
 62
   179
420
  2234388
100
AcDbMText
 10
1416.75004304859
 20
-575.705772425518
 30
0.0
 40
17.54022963954262
 41
0.0
 71
     7
 72
     1
  1
\fATC-65b030b44c2d5357495353|b0|i0|c0|p34;\W1;\U+5358\U+4F4D\U+FF1A\H19.9959;\W1.02;mm
 73
     1
 44
1.0
  0
MTEXT
  5
133
330
1F
100
AcDbEntity
  8
\U+30EC\U+30A4\U+30E4\U+30FC 1
 62
   179
420
  2234388
100
AcDbMText
 10
-963.9900822242803
 20
1038.825824393071
 30
0.0
 40
17.54022963954262
 41
0.0
 71
     7
 72
     1
  1
\fATC-65b030b44c2d5357495353|b0|i0|c0|p34;\W1;\U+203B\U+9676\U+5668\U+88FD\U+54C1\U+306F\U+5BF8\U+6CD5\U+516C\U+5DEE\U+304C\U+767A\U+751F\U+3057\U+307E\U+3059\U+3002
 73
     1
 44
1.0
  0
MTEXT
  5
134
330
1F
100
AcDbEntity
  8
\U+30EC\U+30A4\U+30E4\U+30FC 1
 62
   179
420
  2234388
100
AcDbMText
 10
-965.1764008546261
 20
989.8162405294557
 30
0.0
 40
17.54022963954262
 41
0.0
 71
     7
 72
     1
  1
\fATC-65b030b44c2d5357495353|b0|i0|c0|p34;\W1;\U+30AB\U+30A6\U+30F3\U+30BF\U+30FC\U+5207\U+308A\U+8FBC\U+307F\U+306E\U+969B\U+306F\U+5FC5\U+305A\U+73FE\U+7269\U+3092\U+5408\U+308F\U+305B\U+3066\U+3054\U+78BA\U+8A8D\U+304F\U+3060\U+3055\U+3044\U+3002
 73
     1
 44
1.0
  0
MTEXT
  5
135
330
1F
100
AcDbEntity
  8
\U+30EC\U+30A4\U+30E4\U+30FC 1
 62
   179
420
  2234388
100
AcDbMText
 10
-963.9900822242803
 20
940.8068289206143
 30
0.0
 40
17.54022963954262
 41
0.0
 71
     7
 72
     1
  1
\fATC-65b030b44c2d5357495353|b0|i0|c0|p34;\W1;\U+203B\U+56FA\U+5B9A\U+306B\U+306F\U+3001\U+30B7\U+30EA\U+30B3\U+30F3\U+30B3\U+30FC\U+30AD\U+30F3\U+30B0\U+6750\U+7B49\U+3092\U+624B\U+6D17\U+5668\U+3068
 73
     1
 44
1.0
  0
MTEXT
  5
136
330
1F
100
AcDbEntity
  8
\U+30EC\U+30A4\U+30E4\U+30FC 1
 62
   179
420
  2234388
100
AcDbMText
 10
-965.1764008546261
 20
891.7972450569987
 30
0.0
 40
17.54022963954262
 41
0.0
 71
     7
 72
     1
  1
\fATC-65b030b44c2d5357495353|b0|i0|c0|p34;\W1;\U+30AB\U+30A6\U+30F3\U+30BF\U+30FC\U+306E\U+63A5\U+5730\U+9762\U+306B\U+5857\U+5E03\U+304F\U+3060\U+3055\U+3044\U+3002
 73
     1
 44
1.0
  0
MTEXT
  5
137
330
1F
100
AcDbEntity
  8
\U+30EC\U+30A4\U+30E4\U+30FC 1
 62
   179
420
  2234388
100
AcDbMText
 10
-440.0361896686368
 20
-252.9030815339965
 30
0.0
 40
23.69234593710399
 41
0.0
 71
     7
 72
     1
  1
\fATC-65b030b44c2d5357495353|b0|i0|c0|p34;\W1;\U+30AB\U+30A6\U+30F3\U+30BF\U+30FC\U+958B\U+53E3\U+5BF8\U+6CD5\U+FF1A\H27.0093;\W1.02;\U+00F8100
 73
     1
 44
1.0
  0
POLYLINE
  5
138
330
1F
100
AcDbEntity
  8
\U+30EC\U+30A4\U+30E4\U+30FC 1
 62
   168
420
  1643289
370
    25
100
AcDb2dPolyline
 66
     1
 10
0.0
 20
0.0
 30
0.0
  0
VERTEX
  5
139
330
138
100
AcDbEntity
  8
\U+30EC\U+30A4\U+30E4\U+30FC 1
 62
   168
420
  1643289
370
    25
100
AcDbVertex
100
AcDb2dVertex
 10
-6.876410588558675
 20
207.0667751218444
 30
0.0
  0
VERTEX
  5
13A
330
138
100
AcDbEntity
  8
\U+30EC\U+30A4\U+30E4\U+30FC 1
 62
   168
420
  1643289
370
    25
100
AcDbVertex
100
AcDb2dVertex
 10
499.3845050834872
 20
207.0667751218444
 30
0.0
  0
SEQEND
  5
13B
330
138
100
AcDbEntity
  8
\U+30EC\U+30A4\U+30E4\U+30FC 1
370
    25
  0
SPLINE
  5
13C
330
1F
100
AcDbEntity
  8
\U+30EC\U+30A4\U+30E4\U+30FC 1
 62
   168
420
  1643289
370
    25
100
AcDbSpline
210
0.0
220
0.0
230
1.0
 70
     8
 71
     3
 72
     8
 73
     4
 74
     0
 42
0.0000000001
 43
0.0000000001
 40
0.0
 40
0.0
 40
0.0
 40
0.0
 40
1.0
 40
1.0
 40
1.0
 40
1.0
 10
543.8565536834803
 20
138.0794270488135
 30
0.0
 10
553.5386500352265
 20
105.2710937236822
 30
0.0
 10
532.9314668806561
 20
71.26111109329584
 30
0.0
 10
499.3845050834872
 20
64.64928383800435
 30
0.0
  0
SPLINE
  5
13D
330
1F
100
AcDbEntity
  8
\U+30EC\U+30A4\U+30E4\U+30FC 1
 62
   168
420
  1643289
370
    25
100
AcDbSpline
210
0.0
220
0.0
230
1.0
 70
     8
 71
     3
 72
    14
 73
    10
 74
     0
 42
0.0000000001
 43
0.0000000001
 40
0.0
 40
0.0
 40
0.0
 40
0.0
 40
1.0
 40
1.0
 40
1.0
 40
2.0
 40
2.0
 40
2.0
 40
3.0
 40
3.0
 40
3.0
 40
3.0
 10
-6.876410588558675
 20
207.0667751218444
 30
0.0
 10
-6.876410588558675
 20
207.0667751218444
 30
0.0
 10
-25.18502603537041
 20
207.0667751218444
 30
0.0
 10
-25.18502603537041
 20
207.0667751218444
 30
0.0
 10
-27.34578992371911
 20
207.0667751218444
 30
0.0
 10
-29.25575086074162
 20
205.6804686985799
 30
0.0
 10
-29.92823349946239
 20
203.6189235602064
 30
0.0
 10
-37.07198349767645
 20
181.771506030946
 30
0.0
 10
-44.21022134311411
 20
159.9268445780739
 30
0.0
 10
-51.34294703577537
 20
138.0739148960371
 30
0.0
  0
SPLINE
  5
13E
330
1F
100
AcDbEntity
  8
\U+30EC\U+30A4\U+30E4\U+30FC 1
 62
   168
420
  1643289
370
    25
100
AcDbSpline
210
0.0
220
0.0
230
1.0
 70
     8
 71
     3
 72
    14
 73
    10
 74
     0
 42
0.0000000001
 43
0.0000000001
 40
0.0
 40
0.0
 40
0.0
 40
0.0
 40
1.0
 40
1.0
 40
1.0
 40
2.0
 40
2.0
 40
2.0
 40
3.0
 40
3.0
 40
3.0
 40
3.0
 10
499.3845050834872
 20
207.0667751218444
 30
0.0
 10
499.3845050834872
 20
207.0667751218444
 30
0.0
 10
517.6876083775226
 20
207.0667751218444
 30
0.0
 10
517.6876083775226
 20
207.0667751218444
 30
0.0
 10
519.8511283422595
 20
207.0667751218444
 30
0.0
 10
521.7721135848348
 20
205.6804686985799
 30
0.0
 10
522.4390840707791
 20
203.6189235602064
 30
0.0
 10
529.5773219162168
 20
181.771506030946
 30
0.0
 10
536.7100476088781
 20
159.9268445780739
 30
0.0
 10
543.8482854543157
 20
138.0739148960371
 30
0.0
  0
SPLINE
  5
13F
330
1F
100
AcDbEntity
  8
\U+30EC\U+30A4\U+30E4\U+30FC 1
 62
   168
420
  1643289
370
    25
100
AcDbSpline
210
0.0
220
0.0
230
1.0
 70
     8
 71
     3
 72
    14
 73
    10
 74
     0
 42
0.0000000001
 43
0.0000000001
 40
0.0
 40
0.0
 40
0.0
 40
0.0
 40
1.0
 40
1.0
 40
1.0
 40
2.0
 40
2.0
 40
2.0
 40
3.0
 40
3.0
 40
3.0
 40
3.0
 10
499.3845050834872
 20
64.65755206716895
 30
0.0
 10
499.3845050834872
 20
64.65755206716895
 30
0.0
 10
499.3845050834872
 20
62.06959633864927
 30
0.0
 10
499.3845050834872
 20
62.06959633864927
 30
0.0
 10
499.3845050834872
 20
59.3024956448966
 30
0.0
 10
497.1410589034925
 20
57.07007377045471
 30
0.0
 10
494.3794703625163
 20
57.07007377045471
 30
0.0
 10
494.3794703625163
 20
57.07007377045471
 30
0.0
 10
143.891992151527
 20
57.07007377045471
 30
0.0
 10
143.891992151527
 20
57.07007377045471
 30
0.0
  0
SPLINE
  5
140
330
1F
100
AcDbEntity
  8
\U+30EC\U+30A4\U+30E4\U+30FC 1
 62
   168
420
  1643289
370
    25
100
AcDbSpline
210
0.0
220
0.0
230
1.0
 70
     8
 71
     3
 72
    14
 73
    10
 74
     0
 42
0.0000000001
 43
0.0000000001
 40
0.0
 40
0.0
 40
0.0
 40
0.0
 40
1.0
 40
1.0
 40
1.0
 40
2.0
 40
2.0
 40
2.0
 40
3.0
 40
3.0
 40
3.0
 40
3.0
 10
-6.876410588558675
 20
64.65755206716895
 30
0.0
 10
-6.876410588558675
 20
64.65755206716895
 30
0.0
 10
-6.876410588558675
 20
62.06959633864927
 30
0.0
 10
-6.876410588558675
 20
62.06959633864927
 30
0.0
 10
-6.876410588558675
 20
59.3024956448966
 30
0.0
 10
-4.641232637728581
 20
57.07007377045471
 30
0.0
 10
-1.876888020364111
 20
57.07007377045471
 30
0.0
 10
-1.876888020364111
 20
57.07007377045471
 30
0.0
 10
144.0187716653842
 20
57.07007377045471
 30
0.0
 10
144.0187716653842
 20
57.07007377045471
 30
0.0
  0
SPLINE
  5
141
330
1F
100
AcDbEntity
  8
\U+30EC\U+30A4\U+30E4\U+30FC 1
 62
   168
420
  1643289
370
    25
100
AcDbSpline
210
0.0
220
0.0
230
1.0
 70
     8
 71
     3
 72
     8
 73
     4
 74
     0
 42
0.0000000001
 43
0.0000000001
 40
0.0
 40
0.0
 40
0.0
 40
0.0
 40
1.0
 40
1.0
 40
1.0
 40
1.0
 10
-51.34294703577537
 20
138.0794270488135
 30
0.0
 10
-61.02504338752152
 20
105.2710937236822
 30
0.0
 10
-40.41786023295109
 20
71.26111109329584
 30
0.0
 10
-6.876410588558675
 20
64.64928383800435
 30
0.0
  0
SPLINE
  5
142
330
1F
100
AcDbEntity
  8
\U+30EC\U+30A4\U+30E4\U+30FC 1
 62
   168
420
  1643289
370
    25
100
AcDbSpline
210
0.0
220
0.0
230
1.0
 70
     8
 71
     3
 72
    20
 73
    16
 74
     0
 42
0.0000000001
 43
0.0000000001
 40
0.0
 40
0.0
 40
0.0
 40
0.0
 40
1.0
 40
1.0
 40
1.0
 40
2.0
 40
2.0
 40
2.0
 40
3.0
 40
3.0
 40
3.0
 40
4.0
 40
4.0
 40
4.0
 40
5.0
 40
5.0
 40
5.0
 40
5.0
 10
131.6825737518016
 20
497.4497394589709
 30
0.0
 10
131.6825737518016
 20
497.4497394589709
 30
0.0
 10
467.4085068275924
 20
497.4497394589709
 30
0.0
 10
467.4085068275924
 20
497.4497394589709
 30
0.0
 10
489.4957030026261
 20
497.4497394589709
 30
0.0
 10
507.407443449537
 20
515.350455600329
 30
0.0
 10
507.407443449537
 20
537.4431639281393
 30
0.0
 10
507.407443449537
 20
537.4431639281393
 30
0.0
 10
507.407443449537
 20
777.4422958125839
 30
0.0
 10
507.407443449537
 20
777.4422958125839
 30
0.0
 10
507.407443449537
 20
799.5322480640059
 30
0.0
 10
489.4957030026261
 20
817.4384763581404
 30
0.0
 10
467.4085068275924
 20
817.4384763581404
 30
0.0
 10
467.4085068275924
 20
817.4384763581404
 30
0.0
 10
147.4059895464818
 20
817.4384763581404
 30
0.0
 10
147.4059895464818
 20
817.4384763581404
 30
0.0
  0
SPLINE
  5
143
330
1F
100
AcDbEntity
  8
\U+30EC\U+30A4\U+30E4\U+30FC 1
 62
   168
420
  1643289
370
    25
100
AcDbSpline
210
0.0
220
0.0
230
1.0
 70
     8
 71
     3
 72
    20
 73
    16
 74
     0
 42
0.0000000001
 43
0.0000000001
 40
0.0
 40
0.0
 40
0.0
 40
0.0
 40
1.0
 40
1.0
 40
1.0
 40
2.0
 40
2.0
 40
2.0
 40
3.0
 40
3.0
 40
3.0
 40
4.0
 40
4.0
 40
4.0
 40
5.0
 40
5.0
 40
5.0
 40
5.0
 10
137.4537977086921
 20
497.4497394589709
 30
0.0
 10
137.4537977086921
 20
497.4497394589709
 30
0.0
 10
27.41193575703591
 20
497.4497394589709
 30
0.0
 10
27.41193575703591
 20
497.4497394589709
 30
0.0
 10
5.321983505613948
 20
497.4497394589709
 30
0.0
 10
-12.58700086490881
 20
515.350455600329
 30
0.0
 10
-12.58700086490881
 20
537.4431639281393
 30
0.0
 10
-12.58700086490881
 20
537.4431639281393
 30
0.0
 10
-12.58700086490881
 20
777.4422958125839
 30
0.0
 10
-12.58700086490881
 20
777.4422958125839
 30
0.0
 10
-12.58700086490881
 20
799.5322480640059
 30
0.0
 10
5.321983505613948
 20
817.4384763581404
 30
0.0
 10
27.41193575703591
 20
817.4384763581404
 30
0.0
 10
27.41193575703591
 20
817.4384763581404
 30
0.0
 10
147.4059895464818
 20
817.4384763581404
 30
0.0
 10
147.4059895464818
 20
817.4384763581404
 30
0.0
  0
SPLINE
  5
144
330
1F
100
AcDbEntity
  8
\U+30EC\U+30A4\U+30E4\U+30FC 1
 62
   168
420
  1643289
370
    25
100
AcDbSpline
210
0.0
220
0.0
230
1.0
 70
     8
 71
     3
 72
    17
 73
    13
 74
     0
 42
0.0000000001
 43
0.0000000001
 40
0.0
 40
0.0
 40
0.0
 40
0.0
 40
1.0
 40
1.0
 40
1.0
 40
2.0
 40
2.0
 40
2.0
 40
3.0
 40
3.0
 40
3.0
 40
4.0
 40
4.0
 40
4.0
 40
4.0
 10
360.742838451481
 20
457.4425346078616
 30
0.0
 10
360.742838451481
 20
457.4425346078616
 30
0.0
 10
467.4085068275924
 20
457.4425346078616
 30
0.0
 10
467.4085068275924
 20
457.4425346078616
 30
0.0
 10
511.5884113304363
 20
457.4425346078616
 30
0.0
 10
547.40913614787
 20
493.2632594252953
 30
0.0
 10
547.40913614787
 20
537.4431639281393
 30
0.0
 10
547.40913614787
 20
537.4431639281393
 30
0.0
 10
547.40913614787
 20
777.4395397361957
 30
0.0
 10
547.40913614787
 20
777.4395397361957
 30
0.0
 10
547.40913614787
 20
821.6277124682042
 30
0.0
 10
511.5884113304363
 20
857.4456812092498
 30
0.0
 10
467.4085068275924
 20
857.4456812092498
 30
0.0
  0
SPLINE
  5
145
330
1F
100
AcDbEntity
  8
\U+30EC\U+30A4\U+30E4\U+30FC 1
 62
   168
420
  1643289
370
    25
100
AcDbSpline
210
0.0
220
0.0
230
1.0
 70
     8
 71
     3
 72
    17
 73
    13
 74
     0
 42
0.0000000001
 43
0.0000000001
 40
0.0
 40
0.0
 40
0.0
 40
0.0
 40
1.0
 40
1.0
 40
1.0
 40
2.0
 40
2.0
 40
2.0
 40
3.0
 40
3.0
 40
3.0
 40
4.0
 40
4.0
 40
4.0
 40
4.0
 10
360.742838451481
 20
457.4425346078616
 30
0.0
 10
360.742838451481
 20
457.4425346078616
 30
0.0
 10
27.41193575703591
 20
457.4425346078616
 30
0.0
 10
27.41193575703591
 20
457.4425346078616
 30
0.0
 10
-16.77072482219621
 20
457.4425346078616
 30
0.0
 10
-52.58869356324172
 20
493.2632594252953
 30
0.0
 10
-52.58869356324172
 20
537.4431639281393
 30
0.0
 10
-52.58869356324172
 20
537.4431639281393
 30
0.0
 10
-52.58869356324172
 20
777.4395397361957
 30
0.0
 10
-52.58869356324172
 20
777.4395397361957
 30
0.0
 10
-52.58869356324172
 20
821.6277124682042
 30
0.0
 10
-16.77072482219621
 20
857.4456812092498
 30
0.0
 10
27.41193575703591
 20
857.4456812092498
 30
0.0
  0
POLYLINE
  5
146
330
1F
100
AcDbEntity
  8
\U+30EC\U+30A4\U+30E4\U+30FC 1
 62
   168
420
  1643289
370
    25
100
AcDb2dPolyline
 66
     1
 10
0.0
 20
0.0
 30
0.0
  0
VERTEX
  5
147
330
146
100
AcDbEntity
  8
\U+30EC\U+30A4\U+30E4\U+30FC 1
 62
   168
420
  1643289
370
    25
100
AcDbVertex
100
AcDb2dVertex
 10
27.41193575703591
 20
857.4456812092498
 30
0.0
  0
VERTEX
  5
148
330
146
100
AcDbEntity
  8
\U+30EC\U+30A4\U+30E4\U+30FC 1
 62
   168
420
  1643289
370
    25
100
AcDbVertex
100
AcDb2dVertex
 10
467.4112629039805
 20
857.4456812092498
 30
0.0
  0
SEQEND
  5
149
330
146
100
AcDbEntity
  8
\U+30EC\U+30A4\U+30E4\U+30FC 1
370
    25
  0
SPLINE
  5
14A
330
1F
100
AcDbEntity
  8
\U+30EC\U+30A4\U+30E4\U+30FC 1
 62
   168
420
  1643289
370
    25
100
AcDbSpline
210
0.0
220
0.0
230
1.0
 70
    11
 71
     3
 72
    17
 73
    13
 74
     0
 42
0.0000000001
 43
0.0000000001
 40
0.0
 40
0.0
 40
0.0
 40
0.0
 40
1.0
 40
1.0
 40
1.0
 40
2.0
 40
2.0
 40
2.0
 40
3.0
 40
3.0
 40
3.0
 40
4.0
 40
4.0
 40
4.0
 40
4.0
 10
248.2921657365381
 20
635.3500215425514
 30
0.0
 10
235.8705294549213
 20
635.3500215425514
 30
0.0
 10
225.7970702560507
 20
645.4207246650337
 30
0.0
 10
225.7970702560507
 20
657.8533852522033
 30
0.0
 10
225.7970702560507
 20
670.2777776102083
 30
0.0
 10
235.8705294549213
 20
680.3512368090788
 30
0.0
 10
248.2921657365381
 20
680.3512368090788
 30
0.0
 10
260.7220702473195
 20
680.3512368090788
 30
0.0
 10
270.7872612170254
 20
670.2777776102083
 30
0.0
 10
270.7872612170254
 20
657.8533852522033
 30
0.0
 10
270.7872612170254
 20
645.4207246650337
 30
0.0
 10
260.7220702473195
 20
635.3500215425514
 30
0.0
 10
248.2921657365381
 20
635.3500215425514
 30
0.0
  0
SPLINE
  5
14B
330
1F
100
AcDbEntity
  8
\U+30EC\U+30A4\U+30E4\U+30FC 1
 62
   168
420
  1643289
370
    25
100
AcDbSpline
210
0.0
220
0.0
230
1.0
 70
    11
 71
     3
 72
    17
 73
    13
 74
     0
 42
0.0000000001
 43
0.0000000001
 40
0.0
 40
0.0
 40
0.0
 40
0.0
 40
1.0
 40
1.0
 40
1.0
 40
2.0
 40
2.0
 40
2.0
 40
3.0
 40
3.0
 40
3.0
 40
4.0
 40
4.0
 40
4.0
 40
4.0
 10
248.2921657365381
 20
625.7754121699451
 30
0.0
 10
230.5733506368011
 20
625.7754121699451
 30
0.0
 10
216.216948730668
 20
640.1345701524664
 30
0.0
 10
216.216948730668
 20
657.8533852522033
 30
0.0
 10
216.216948730668
 20
675.5584199699994
 30
0.0
 10
230.5733506368011
 20
689.9286022580734
 30
0.0
 10
248.2921657365381
 20
689.9286022580734
 30
0.0
 10
265.9972004543341
 20
689.9286022580734
 30
0.0
 10
280.3563584368554
 20
675.5584199699994
 30
0.0
 10
280.3563584368554
 20
657.8533852522033
 30
0.0
 10
280.3563584368554
 20
640.1345701524664
 30
0.0
 10
265.9972004543341
 20
625.7754121699451
 30
0.0
 10
248.2921657365381
 20
625.7754121699451
 30
0.0
  0
POLYLINE
  5
14C
330
1F
100
AcDbEntity
  8
\U+30EC\U+30A4\U+30E4\U+30FC 1
 62
   168
420
  1643289
370
    25
100
AcDb2dPolyline
 66
     1
 10
0.0
 20
0.0
 30
0.0
  0
VERTEX
  5
14D
330
14C
100
AcDbEntity
  8
\U+30EC\U+30A4\U+30E4\U+30FC 1
 62
   168
420
  1643289
370
    25
100
AcDbVertex
100
AcDb2dVertex
 10
204.5394530738651
 20
657.8203123355449
 30
0.0
  0
VERTEX
  5
14E
330
14C
100
AcDbEntity
  8
\U+30EC\U+30A4\U+30E4\U+30FC 1
 62
   168
420
  1643289
370
    25
100
AcDbVertex
100
AcDb2dVertex
 10
292.4224608643944
 20
657.8203123355449
 30
0.0
  0
SEQEND
  5
14F
330
14C
100
AcDbEntity
  8
\U+30EC\U+30A4\U+30E4\U+30FC 1
370
    25
  0
POLYLINE
  5
150
330
1F
100
AcDbEntity
  8
\U+30EC\U+30A4\U+30E4\U+30FC 1
 62
   168
420
  1643289
370
    25
100
AcDb2dPolyline
 66
     1
 10
0.0
 20
0.0
 30
0.0
  0
VERTEX
  5
151
330
150
100
AcDbEntity
  8
\U+30EC\U+30A4\U+30E4\U+30FC 1
 62
   168
420
  1643289
370
    25
100
AcDbVertex
100
AcDb2dVertex
 10
248.4768228545475
 20
613.8719182493098
 30
0.0
  0
VERTEX
  5
152
330
150
100
AcDbEntity
  8
\U+30EC\U+30A4\U+30E4\U+30FC 1
 62
   168
420
  1643289
370
    25
100
AcDbVertex
100
AcDb2dVertex
 10
248.4768228545475
 20
701.7631942690036
 30
0.0
  0
SEQEND
  5
153
330
150
100
AcDbEntity
  8
\U+30EC\U+30A4\U+30E4\U+30FC 1
370
    25
  0
POLYLINE
  5
154
330
1F
100
AcDbEntity
  8
\U+30EC\U+30A4\U+30E4\U+30FC 1
 62
   168
420
  1643289
370
    80
100
AcDb2dPolyline
 66
     1
 10
0.0
 20
0.0
 30
0.0
  0
VERTEX
  5
155
330
154
100
AcDbEntity
  8
\U+30EC\U+30A4\U+30E4\U+30FC 1
 62
   168
420
  1643289
370
    80
100
AcDbVertex
100
AcDb2dVertex
 10
-200.7222872762083
 20
57.07007377045471
 30
0.0
  0
VERTEX
  5
156
330
154
100
AcDbEntity
  8
\U+30EC\U+30A4\U+30E4\U+30FC 1
 62
   168
420
  1643289
370
    80
100
AcDbVertex
100
AcDb2dVertex
 10
737.9807940863382
 20
57.07007377045471
 30
0.0
  0
SEQEND
  5
157
330
154
100
AcDbEntity
  8
\U+30EC\U+30A4\U+30E4\U+30FC 1
370
    80
  0
POLYLINE
  5
158
330
1F
100
AcDbEntity
  8
\U+30EC\U+30A4\U+30E4\U+30FC 1
  6
AI-Linetype-1
 62
   168
420
  1643289
370
    13
100
AcDb2dPolyline
 66
     1
 10
0.0
 20
0.0
 30
0.0
  0
VERTEX
  5
159
330
158
100
AcDbEntity
  8
\U+30EC\U+30A4\U+30E4\U+30FC 1
  6
AI-Linetype-1
 62
   168
420
  1643289
370
    13
100
AcDbVertex
100
AcDb2dVertex
 10
499.3872611598754
 20
51.96030814673215
 30
0.0
  0
VERTEX
  5
15A
330
158
100
AcDbEntity
  8
\U+30EC\U+30A4\U+30E4\U+30FC 1
  6
AI-Linetype-1
 62
   168
420
  1643289
370
    13
100
AcDbVertex
100
AcDb2dVertex
 10
499.3872611598754
 20
-80.5628689034704
 30
0.0
  0
SEQEND
  5
15B
330
158
100
AcDbEntity
  8
\U+30EC\U+30A4\U+30E4\U+30FC 1
  6
AI-Linetype-1
370
    13
  0
POLYLINE
  5
15D
330
1F
100
AcDbEntity
  8
\U+30EC\U+30A4\U+30E4\U+30FC 1
  6
AI-Linetype-2
 62
   168
420
  1643289
370
    13
100
AcDb2dPolyline
 66
     1
 10
0.0
 20
0.0
 30
0.0
  0
VERTEX
  5
15E
330
15D
100
AcDbEntity
  8
\U+30EC\U+30A4\U+30E4\U+30FC 1
  6
AI-Linetype-2
 62
   168
420
  1643289
370
    13
100
AcDbVertex
100
AcDb2dVertex
 10
226.4364799781131
 20
97.80763886443698
 30
0.0
  0
VERTEX
  5
15F
330
15D
100
AcDbEntity
  8
\U+30EC\U+30A4\U+30E4\U+30FC 1
  6
AI-Linetype-2
 62
   168
420
  1643289
370
    13
100
AcDbVertex
100
AcDb2dVertex
 10
226.4364799781131
 20
62.46647133855005
 30
0.0
  0
SEQEND
  5
160
330
15D
100
AcDbEntity
  8
\U+30EC\U+30A4\U+30E4\U+30FC 1
  6
AI-Linetype-2
370
    13
  0
POLYLINE
  5
162
330
1F
100
AcDbEntity
  8
\U+30EC\U+30A4\U+30E4\U+30FC 1
  6
AI-Linetype-3
 62
   168
420
  1643289
370
    13
100
AcDb2dPolyline
 66
     1
 10
0.0
 20
0.0
 30
0.0
  0
VERTEX
  5
163
330
162
100
AcDbEntity
  8
\U+30EC\U+30A4\U+30E4\U+30FC 1
  6
AI-Linetype-3
 62
   168
420
  1643289
370
    13
100
AcDbVertex
100
AcDb2dVertex
 10
270.1561197241277
 20
62.46095918577365
 30
0.0
  0
VERTEX
  5
164
330
162
100
AcDbEntity
  8
\U+30EC\U+30A4\U+30E4\U+30FC 1
  6
AI-Linetype-3
 62
   168
420
  1643289
370
    13
100
AcDbVertex
100
AcDb2dVertex
 10
270.1120225019164
 20
97.80763886443698
 30
0.0
  0
SEQEND
  5
165
330
162
100
AcDbEntity
  8
\U+30EC\U+30A4\U+30E4\U+30FC 1
  6
AI-Linetype-3
370
    13
  0
SPLINE
  5
167
330
1F
100
AcDbEntity
  8
\U+30EC\U+30A4\U+30E4\U+30FC 1
  6
AI-Linetype-4
 62
   168
420
  1643289
370
    13
100
AcDbSpline
210
0.0
220
0.0
230
1.0
 70
     8
 71
     3
 72
    17
 73
    13
 74
     0
 42
0.0000000001
 43
0.0000000001
 40
0.0
 40
0.0
 40
0.0
 40
0.0
 40
1.0
 40
1.0
 40
1.0
 40
2.0
 40
2.0
 40
2.0
 40
3.0
 40
3.0
 40
3.0
 40
4.0
 40
4.0
 40
4.0
 40
4.0
 10
505.3128253945051
 20
206.4356336289466
 30
0.0
 10
505.3128253945051
 20
206.4356336289466
 30
0.0
 10
504.5714408460794
 20
183.2156900583628
 30
0.0
 10
501.3468314718855
 20
166.9493272152071
 30
0.0
 10
498.1525389379619
 20
150.6857204484397
 30
0.0
 10
488.5255641139797
 20
135.4639105564118
 30
0.0
 10
479.193489463535
 20
129.2213975371391
 30
0.0
 10
469.8614148130902
 20
122.987152747031
 30
0.0
 10
447.6860241936341
 20
108.1704860840685
 30
0.0
 10
398.9861544141424
 20
103.5237412935635
 30
0.0
 10
361.6192707429285
 20
99.6542100445309
 30
0.0
 10
270.1120225019164
 20
97.80763886443698
 30
0.0
 10
270.1120225019164
 20
97.80763886443698
 30
0.0
  0
SPLINE
  5
169
330
1F
100
AcDbEntity
  8
\U+30EC\U+30A4\U+30E4\U+30FC 1
  6
AI-Linetype-5
 62
   168
420
  1643289
370
    13
100
AcDbSpline
210
0.0
220
0.0
230
1.0
 70
     8
 71
     3
 72
    17
 73
    13
 74
     0
 42
0.0000000001
 43
0.0000000001
 40
0.0
 40
0.0
 40
0.0
 40
0.0
 40
1.0
 40
1.0
 40
1.0
 40
2.0
 40
2.0
 40
2.0
 40
3.0
 40
3.0
 40
3.0
 40
4.0
 40
4.0
 40
4.0
 40
4.0
 10
-13.86857638542175
 20
206.4356336289466
 30
0.0
 10
-13.86857638542175
 20
206.4356336289466
 30
0.0
 10
-13.11341145505498
 20
183.2156900583628
 30
0.0
 10
-9.891558157249333
 20
166.9493272152071
 30
0.0
 10
-6.672460935831885
 20
150.6857204484397
 30
0.0
 10
2.990342881196859
 20
135.4639105564118
 30
0.0
 10
12.35824652468822
 20
129.2213975371391
 30
0.0
 10
21.72890624456777
 20
122.987152747031
 30
0.0
 10
43.97871092650532
 20
108.1704860840685
 30
0.0
 10
92.86874997678282
 20
103.5237412935635
 30
0.0
 10
130.3844617729594
 20
99.6542100445309
 30
0.0
 10
226.4364799781131
 20
97.80763886443698
 30
0.0
 10
226.4364799781131
 20
97.80763886443698
 30
0.0
  0
POLYLINE
  5
16B
330
1F
100
AcDbEntity
  8
\U+30EC\U+30A4\U+30E4\U+30FC 1
  6
AI-Linetype-6
 62
   168
420
  1643289
370
    13
100
AcDb2dPolyline
 66
     1
 10
0.0
 20
0.0
 30
0.0
  0
VERTEX
  5
16C
330
16B
100
AcDbEntity
  8
\U+30EC\U+30A4\U+30E4\U+30FC 1
  6
AI-Linetype-6
 62
   168
420
  1643289
370
    13
100
AcDbVertex
100
AcDb2dVertex
 10
-6.876410588558675
 20
51.96030814673215
 30
0.0
  0
VERTEX
  5
16D
330
16B
100
AcDbEntity
  8
\U+30EC\U+30A4\U+30E4\U+30FC 1
  6
AI-Linetype-6
 62
   168
420
  1643289
370
    13
100
AcDbVertex
100
AcDb2dVertex
 10
-6.876410588558675
 20
-80.5628689034704
 30
0.0
  0
SEQEND
  5
16E
330
16B
100
AcDbEntity
  8
\U+30EC\U+30A4\U+30E4\U+30FC 1
  6
AI-Linetype-6
370
    13
  0
SPLINE
  5
170
330
1F
100
AcDbEntity
  8
\U+30EC\U+30A4\U+30E4\U+30FC 1
  6
AI-Linetype-7
 62
   168
420
  1643289
370
    25
100
AcDbSpline
210
0.0
220
0.0
230
1.0
 70
     8
 71
     3
 72
    20
 73
    16
 74
     0
 42
0.0000000001
 43
0.0000000001
 40
0.0
 40
0.0
 40
0.0
 40
0.0
 40
1.0
 40
1.0
 40
1.0
 40
2.0
 40
2.0
 40
2.0
 40
3.0
 40
3.0
 40
3.0
 40
4.0
 40
4.0
 40
4.0
 40
5.0
 40
5.0
 40
5.0
 40
5.0
 10
139.8185112497676
 20
-427.525325413952
 30
0.0
 10
139.8185112497676
 20
-427.525325413952
 30
0.0
 10
32.95716145009404
 20
-427.525325413952
 30
0.0
 10
32.95716145009404
 20
-427.525325413952
 30
0.0
 10
11.49283853879346
 20
-427.525325413952
 30
0.0
 10
-5.886979165194922
 20
-410.454188265442
 30
0.0
 10
-5.886979165194922
 20
-389.397764659595
 30
0.0
 10
-5.886979165194922
 20
-389.397764659595
 30
0.0
 10
-5.886979165194922
 20
-160.646180515394
 30
0.0
 10
-5.886979165194922
 20
-160.646180515394
 30
0.0
 10
-5.886979165194922
 20
-139.589756909547
 30
0.0
 10
11.49283853879346
 20
-122.5268879902016
 30
0.0
 10
32.95716145009404
 20
-122.5268879902016
 30
0.0
 10
32.95716145009404
 20
-122.5268879902016
 30
0.0
 10
149.4868272195727
 20
-122.5268879902016
 30
0.0
 10
149.4868272195727
 20
-122.5268879902016
 30
0.0
  0
SPLINE
  5
172
330
1F
100
AcDbEntity
  8
\U+30EC\U+30A4\U+30E4\U+30FC 1
  6
AI-Linetype-8
 62
   168
420
  1643289
370
    25
100
AcDbSpline
210
0.0
220
0.0
230
1.0
 70
     8
 71
     3
 72
    20
 73
    16
 74
     0
 42
0.0000000001
 43
0.0000000001
 40
0.0
 40
0.0
 40
0.0
 40
0.0
 40
1.0
 40
1.0
 40
1.0
 40
2.0
 40
2.0
 40
2.0
 40
3.0
 40
3.0
 40
3.0
 40
4.0
 40
4.0
 40
4.0
 40
5.0
 40
5.0
 40
5.0
 40
5.0
 10
134.2126518761691
 20
-427.525325413952
 30
0.0
 10
134.2126518761691
 20
-427.525325413952
 30
0.0
 10
460.2675129057665
 20
-427.525325413952
 30
0.0
 10
460.2675129057665
 20
-427.525325413952
 30
0.0
 10
481.7208115115143
 20
-427.525325413952
 30
0.0
 10
499.1061413682791
 20
-410.454188265442
 30
0.0
 10
499.1061413682791
 20
-389.397764659595
 30
0.0
 10
499.1061413682791
 20
-389.397764659595
 30
0.0
 10
499.1061413682791
 20
-160.646180515394
 30
0.0
 10
499.1061413682791
 20
-160.646180515394
 30
0.0
 10
499.1061413682791
 20
-139.589756909547
 30
0.0
 10
481.7208115115143
 20
-122.5268879902016
 30
0.0
 10
460.2675129057665
 20
-122.5268879902016
 30
0.0
 10
460.2675129057665
 20
-122.5268879902016
 30
0.0
 10
149.4868272195727
 20
-122.5268879902016
 30
0.0
 10
149.4868272195727
 20
-122.5268879902016
 30
0.0
  0
POLYLINE
  5
174
330
1F
100
AcDbEntity
  8
\U+30EC\U+30A4\U+30E4\U+30FC 1
 62
   168
420
  1643289
370
    13
100
AcDb2dPolyline
 66
     1
 10
0.0
 20
0.0
 30
0.0
  0
VERTEX
  5
175
330
174
100
AcDbEntity
  8
\U+30EC\U+30A4\U+30E4\U+30FC 1
 62
   168
420
  1643289
370
    13
100
AcDbVertex
100
AcDb2dVertex
 10
589.60466565121
 20
-138.1455728821303
 30
0.0
  0
VERTEX
  5
176
330
174
100
AcDbEntity
  8
\U+30EC\U+30A4\U+30E4\U+30FC 1
 62
   168
420
  1643289
370
    13
100
AcDbVertex
100
AcDb2dVertex
 10
589.60466565121
 20
-411.8901040636941
 30
0.0
  0
SEQEND
  5
177
330
174
100
AcDbEntity
  8
\U+30EC\U+30A4\U+30E4\U+30FC 1
370
    13
  0
POLYLINE
  5
178
330
1F
100
AcDbEntity
  8
\U+30EC\U+30A4\U+30E4\U+30FC 1
370
     0
100
AcDb2dPolyline
 66
     1
 10
0.0
 20
0.0
 30
0.0
  0
VERTEX
  5
179
330
178
100
AcDbEntity
  8
\U+30EC\U+30A4\U+30E4\U+30FC 1
370
     0
100
AcDbVertex
100
AcDb2dVertex
 10
584.6988496802142
 20
-141.6430338187559
 30
0.0
  0
VERTEX
  5
17A
330
178
100
AcDbEntity
  8
\U+30EC\U+30A4\U+30E4\U+30FC 1
370
     0
100
AcDbVertex
100
AcDb2dVertex
 10
589.8168835331014
 20
-122.5268879902016
 30
0.0
  0
VERTEX
  5
17B
330
178
100
AcDbEntity
  8
\U+30EC\U+30A4\U+30E4\U+30FC 1
370
     0
100
AcDbVertex
100
AcDb2dVertex
 10
594.9431856151531
 20
-141.6430338187559
 30
0.0
  0
SEQEND
  5
17C
330
178
100
AcDbEntity
  8
\U+30EC\U+30A4\U+30E4\U+30FC 1
370
     0
  0
HATCH
  5
17D
330
1F
100
AcDbEntity
  8
\U+30EC\U+30A4\U+30E4\U+30FC 1
 62
   168
420
  1643289
100
AcDbHatch
 10
0.0
 20
0.0
 30
0.0
210
0.0
220
0.0
230
1.0
  2
SOLID
 70
     1
 71
     0
 91
        1
 92
        1
 93
        3
 72
     1
 10
584.6988496802142
 20
-141.6430338187559
 11
589.8168835331014
 21
-122.5268879902016
 72
     1
 10
589.8168835331014
 20
-122.5268879902016
 11
594.9431856151531
 21
-141.6430338187559
 72
     1
 10
594.9431856151531
 20
-141.6430338187559
 11
584.6988496802142
 21
-141.6430338187559
 97
        0
 75
     2
 76
     1
 98
        0
  0
POLYLINE
  5
17E
330
1F
100
AcDbEntity
  8
\U+30EC\U+30A4\U+30E4\U+30FC 1
370
     0
100
AcDb2dPolyline
 66
     1
 10
0.0
 20
0.0
 30
0.0
  0
VERTEX
  5
17F
330
17E
100
AcDbEntity
  8
\U+30EC\U+30A4\U+30E4\U+30FC 1
370
     0
100
AcDbVertex
100
AcDb2dVertex
 10
584.6988496802142
 20
-408.4009113562331
 30
0.0
  0
VERTEX
  5
180
330
17E
100
AcDbEntity
  8
\U+30EC\U+30A4\U+30E4\U+30FC 1
370
     0
100
AcDbVertex
100
AcDb2dVertex
 10
589.8168835331014
 20
-427.525325413952
 30
0.0
  0
VERTEX
  5
181
330
17E
100
AcDbEntity
  8
\U+30EC\U+30A4\U+30E4\U+30FC 1
370
     0
100
AcDbVertex
100
AcDb2dVertex
 10
594.9431856151531
 20
-408.4009113562331
 30
0.0
  0
SEQEND
  5
182
330
17E
100
AcDbEntity
  8
\U+30EC\U+30A4\U+30E4\U+30FC 1
370
     0
  0
HATCH
  5
183
330
1F
100
AcDbEntity
  8
\U+30EC\U+30A4\U+30E4\U+30FC 1
 62
   168
420
  1643289
100
AcDbHatch
 10
0.0
 20
0.0
 30
0.0
210
0.0
220
0.0
230
1.0
  2
SOLID
 70
     1
 71
     0
 91
        1
 92
        1
 93
        3
 72
     1
 10
584.6988496802142
 20
-408.4009113562331
 11
589.8168835331014
 21
-427.525325413952
 72
     1
 10
589.8168835331014
 20
-427.525325413952
 11
594.9431856151531
 21
-408.4009113562331
 72
     1
 10
594.9431856151531
 20
-408.4009113562331
 11
584.6988496802142
 21
-408.4009113562331
 97
        0
 75
     2
 76
     1
 98
        0
  0
POLYLINE
  5
184
330
1F
100
AcDbEntity
  8
\U+30EC\U+30A4\U+30E4\U+30FC 1
 62
   168
420
  1643289
370
    13
100
AcDb2dPolyline
 66
     1
 10
0.0
 20
0.0
 30
0.0
  0
VERTEX
  5
185
330
184
100
AcDbEntity
  8
\U+30EC\U+30A4\U+30E4\U+30FC 1
 62
   168
420
  1643289
370
    13
100
AcDbVertex
100
AcDb2dVertex
 10
589.60466565121
 20
-427.525325413952
 30
0.0
  0
VERTEX
  5
186
330
184
100
AcDbEntity
  8
\U+30EC\U+30A4\U+30E4\U+30FC 1
 62
   168
420
  1643289
370
    13
100
AcDbVertex
100
AcDb2dVertex
 10
536.6852429213843
 20
-427.525325413952
 30
0.0
  0
SEQEND
  5
187
330
184
100
AcDbEntity
  8
\U+30EC\U+30A4\U+30E4\U+30FC 1
370
    13
  0
POLYLINE
  5
188
330
1F
100
AcDbEntity
  8
\U+30EC\U+30A4\U+30E4\U+30FC 1
 62
   168
420
  1643289
370
    13
100
AcDb2dPolyline
 66
     1
 10
0.0
 20
0.0
 30
0.0
  0
VERTEX
  5
189
330
188
100
AcDbEntity
  8
\U+30EC\U+30A4\U+30E4\U+30FC 1
 62
   168
420
  1643289
370
    13
100
AcDbVertex
100
AcDb2dVertex
 10
536.6852429213843
 20
-122.5213758374252
 30
0.0
  0
VERTEX
  5
18A
330
188
100
AcDbEntity
  8
\U+30EC\U+30A4\U+30E4\U+30FC 1
 62
   168
420
  1643289
370
    13
100
AcDbVertex
100
AcDb2dVertex
 10
589.60466565121
 20
-122.5213758374252
 30
0.0
  0
SEQEND
  5
18B
330
188
100
AcDbEntity
  8
\U+30EC\U+30A4\U+30E4\U+30FC 1
370
    13
  0
MTEXT
  5
18C
330
1F
100
AcDbEntity
  8
\U+30EC\U+30A4\U+30E4\U+30FC 1
 62
   168
420
  1643289
100
AcDbMText
 10
625.2148951344949
 20
-299.8693792653104
 30
0.0
 40
24.61243068368933
 41
0.0
 71
     7
 72
     1
  1
\fATC-65b030b44c2d5357495353|b0|i0|c0|p34;\W1.02;305
 11
-4.371139000186241E-8
 21
0.999999999999999
 31
0.0
 73
     1
 44
1.0
  0
POLYLINE
  5
18D
330
1F
100
AcDbEntity
  8
\U+30EC\U+30A4\U+30E4\U+30FC 1
 62
   168
420
  1643289
370
    13
100
AcDb2dPolyline
 66
     1
 10
0.0
 20
0.0
 30
0.0
  0
VERTEX
  5
18E
330
18D
100
AcDbEntity
  8
\U+30EC\U+30A4\U+30E4\U+30FC 1
 62
   168
420
  1643289
370
    13
100
AcDbVertex
100
AcDb2dVertex
 10
-6.498828123375294
 20
-518.3656031690198
 30
0.0
  0
VERTEX
  5
18F
330
18D
100
AcDbEntity
  8
\U+30EC\U+30A4\U+30E4\U+30FC 1
 62
   168
420
  1643289
370
    13
100
AcDbVertex
100
AcDb2dVertex
 10
-6.498828123375294
 20
-465.4434243628058
 30
0.0
  0
SEQEND
  5
190
330
18D
100
AcDbEntity
  8
\U+30EC\U+30A4\U+30E4\U+30FC 1
370
    13
  0
POLYLINE
  5
191
330
1F
100
AcDbEntity
  8
\U+30EC\U+30A4\U+30E4\U+30FC 1
 62
   168
420
  1643289
370
    13
100
AcDb2dPolyline
 66
     1
 10
0.0
 20
0.0
 30
0.0
  0
VERTEX
  5
192
330
191
100
AcDbEntity
  8
\U+30EC\U+30A4\U+30E4\U+30FC 1
 62
   168
420
  1643289
370
    13
100
AcDbVertex
100
AcDb2dVertex
 10
498.5025606392633
 20
-465.4434243628058
 30
0.0
  0
VERTEX
  5
193
330
191
100
AcDbEntity
  8
\U+30EC\U+30A4\U+30E4\U+30FC 1
 62
   168
420
  1643289
370
    13
100
AcDbVertex
100
AcDb2dVertex
 10
498.5025606392633
 20
-518.3656031690198
 30
0.0
  0
SEQEND
  5
194
330
191
100
AcDbEntity
  8
\U+30EC\U+30A4\U+30E4\U+30FC 1
370
    13
  0
POLYLINE
  5
195
330
1F
100
AcDbEntity
  8
\U+30EC\U+30A4\U+30E4\U+30FC 1
 62
   168
420
  1643289
370
    13
100
AcDb2dPolyline
 66
     1
 10
0.0
 20
0.0
 30
0.0
  0
VERTEX
  5
196
330
195
100
AcDbEntity
  8
\U+30EC\U+30A4\U+30E4\U+30FC 1
 62
   168
420
  1643289
370
    13
100
AcDbVertex
100
AcDb2dVertex
 10
482.8728514417818
 20
-518.3656031690198
 30
0.0
  0
VERTEX
  5
197
330
195
100
AcDbEntity
  8
\U+30EC\U+30A4\U+30E4\U+30FC 1
 62
   168
420
  1643289
370
    13
100
AcDbVertex
100
AcDb2dVertex
 10
9.130881074106169
 20
-518.3656031690198
 30
0.0
  0
SEQEND
  5
198
330
195
100
AcDbEntity
  8
\U+30EC\U+30A4\U+30E4\U+30FC 1
370
    13
  0
POLYLINE
  5
199
330
1F
100
AcDbEntity
  8
\U+30EC\U+30A4\U+30E4\U+30FC 1
370
     0
100
AcDb2dPolyline
 66
     1
 10
0.0
 20
0.0
 30
0.0
  0
VERTEX
  5
19A
330
199
100
AcDbEntity
  8
\U+30EC\U+30A4\U+30E4\U+30FC 1
370
     0
100
AcDbVertex
100
AcDb2dVertex
 10
479.3891708870972
 20
-513.459787198024
 30
0.0
  0
VERTEX
  5
19B
330
199
100
AcDbEntity
  8
\U+30EC\U+30A4\U+30E4\U+30FC 1
370
     0
100
AcDbVertex
100
AcDb2dVertex
 10
498.5053167156515
 20
-518.5778210509111
 30
0.0
  0
VERTEX
  5
19C
330
199
100
AcDbEntity
  8
\U+30EC\U+30A4\U+30E4\U+30FC 1
370
     0
100
AcDbVertex
100
AcDb2dVertex
 10
479.3891708870972
 20
-523.7123913621275
 30
0.0
  0
SEQEND
  5
19D
330
199
100
AcDbEntity
  8
\U+30EC\U+30A4\U+30E4\U+30FC 1
370
     0
  0
HATCH
  5
19E
330
1F
100
AcDbEntity
  8
\U+30EC\U+30A4\U+30E4\U+30FC 1
 62
   168
420
  1643289
100
AcDbHatch
 10
0.0
 20
0.0
 30
0.0
210
0.0
220
0.0
230
1.0
  2
SOLID
 70
     1
 71
     0
 91
        1
 92
        1
 93
        3
 72
     1
 10
479.3891708870972
 20
-513.459787198024
 11
498.5053167156515
 21
-518.5778210509111
 72
     1
 10
498.5053167156515
 20
-518.5778210509111
 11
479.3891708870972
 21
-523.7123913621275
 72
     1
 10
479.3891708870972
 20
-523.7123913621275
 11
479.3891708870972
 21
-513.459787198024
 97
        0
 75
     2
 76
     1
 98
        0
  0
POLYLINE
  5
19F
330
1F
100
AcDbEntity
  8
\U+30EC\U+30A4\U+30E4\U+30FC 1
370
     0
100
AcDb2dPolyline
 66
     1
 10
0.0
 20
0.0
 30
0.0
  0
VERTEX
  5
1A0
330
19F
100
AcDbEntity
  8
\U+30EC\U+30A4\U+30E4\U+30FC 1
370
     0
100
AcDbVertex
100
AcDb2dVertex
 10
12.6255859343436
 20
-513.4515189688593
 30
0.0
  0
VERTEX
  5
1A1
330
19F
100
AcDbEntity
  8
\U+30EC\U+30A4\U+30E4\U+30FC 1
370
     0
100
AcDbVertex
100
AcDb2dVertex
 10
-6.498828123375294
 20
-518.5778210509111
 30
0.0
  0
VERTEX
  5
1A2
330
19F
100
AcDbEntity
  8
\U+30EC\U+30A4\U+30E4\U+30FC 1
370
     0
100
AcDbVertex
100
AcDb2dVertex
 10
12.6255859343436
 20
-523.7041231329629
 30
0.0
  0
SEQEND
  5
1A3
330
19F
100
AcDbEntity
  8
\U+30EC\U+30A4\U+30E4\U+30FC 1
370
     0
  0
HATCH
  5
1A4
330
1F
100
AcDbEntity
  8
\U+30EC\U+30A4\U+30E4\U+30FC 1
 62
   168
420
  1643289
100
AcDbHatch
 10
0.0
 20
0.0
 30
0.0
210
0.0
220
0.0
230
1.0
  2
SOLID
 70
     1
 71
     0
 91
        1
 92
        1
 93
        3
 72
     1
 10
12.6255859343436
 20
-513.4515189688593
 11
-6.498828123375294
 21
-518.5778210509111
 72
     1
 10
-6.498828123375294
 20
-518.5778210509111
 11
12.6255859343436
 21
-523.7041231329629
 72
     1
 10
12.6255859343436
 20
-523.7041231329629
 11
12.6255859343436
 21
-513.4515189688593
 97
        0
 75
     2
 76
     1
 98
        0
  0
MTEXT
  5
1A5
330
1F
100
AcDbEntity
  8
\U+30EC\U+30A4\U+30E4\U+30FC 1
 62
   168
420
  1643289
100
AcDbMText
 10
221.1585936947104
 20
-553.9785887286929
 30
0.0
 40
24.61243068368933
 41
0.0
 71
     7
 72
     1
  1
\fATC-65b030b44c2d5357495353|b0|i0|c0|p34;\W1.02;505
 73
     1
 44
1.0
  0
POLYLINE
  5
1A6
330
1F
100
AcDbEntity
  8
\U+30EC\U+30A4\U+30E4\U+30FC 1
 62
   168
420
  1643289
370
    13
100
AcDb2dPolyline
 66
     1
 10
0.0
 20
0.0
 30
0.0
  0
VERTEX
  5
1A7
330
1A6
100
AcDbEntity
  8
\U+30EC\U+30A4\U+30E4\U+30FC 1
 62
   168
420
  1643289
370
    13
100
AcDbVertex
100
AcDb2dVertex
 10
-37.76651474750282
 20
301.4927082579601
 30
0.0
  0
VERTEX
  5
1A8
330
1A6
100
AcDbEntity
  8
\U+30EC\U+30A4\U+30E4\U+30FC 1
 62
   168
420
  1643289
370
    13
100
AcDbVertex
100
AcDb2dVertex
 10
530.9663844158696
 20
301.4927082579601
 30
0.0
  0
SEQEND
  5
1A9
330
1A6
100
AcDbEntity
  8
\U+30EC\U+30A4\U+30E4\U+30FC 1
370
    13
  0
POLYLINE
  5
1AA
330
1F
100
AcDbEntity
  8
\U+30EC\U+30A4\U+30E4\U+30FC 1
370
     0
100
AcDb2dPolyline
 66
     1
 10
0.0
 20
0.0
 30
0.0
  0
VERTEX
  5
1AB
330
1AA
100
AcDbEntity
  8
\U+30EC\U+30A4\U+30E4\U+30FC 1
370
     0
100
AcDbVertex
100
AcDb2dVertex
 10
-34.27180988726538
 20
296.581380134188
 30
0.0
  0
VERTEX
  5
1AC
330
1AA
100
AcDbEntity
  8
\U+30EC\U+30A4\U+30E4\U+30FC 1
370
     0
100
AcDbVertex
100
AcDb2dVertex
 10
-53.39071179220788
 20
301.7049261398516
 30
0.0
  0
VERTEX
  5
1AD
330
1AA
100
AcDbEntity
  8
\U+30EC\U+30A4\U+30E4\U+30FC 1
370
     0
100
AcDbVertex
100
AcDb2dVertex
 10
-34.27180988726538
 20
306.8284721455151
 30
0.0
  0
SEQEND
  5
1AE
330
1AA
100
AcDbEntity
  8
\U+30EC\U+30A4\U+30E4\U+30FC 1
370
     0
  0
HATCH
  5
1AF
330
1F
100
AcDbEntity
  8
\U+30EC\U+30A4\U+30E4\U+30FC 1
 62
   168
420
  1643289
100
AcDbHatch
 10
0.0
 20
0.0
 30
0.0
210
0.0
220
0.0
230
1.0
  2
SOLID
 70
     1
 71
     0
 91
        1
 92
        1
 93
        3
 72
     1
 10
-34.27180988726538
 20
296.581380134188
 11
-53.39071179220788
 21
301.7049261398516
 72
     1
 10
-53.39071179220788
 20
301.7049261398516
 11
-34.27180988726538
 21
306.8284721455151
 72
     1
 10
-34.27180988726538
 20
306.8284721455151
 11
-34.27180988726538
 21
296.581380134188
 97
        0
 75
     2
 76
     1
 98
        0
  0
POLYLINE
  5
1B0
330
1F
100
AcDbEntity
  8
\U+30EC\U+30A4\U+30E4\U+30FC 1
370
     0
100
AcDb2dPolyline
 66
     1
 10
0.0
 20
0.0
 30
0.0
  0
VERTEX
  5
1B1
330
1B0
100
AcDbEntity
  8
\U+30EC\U+30A4\U+30E4\U+30FC 1
370
     0
100
AcDbVertex
100
AcDb2dVertex
 10
527.4909720903495
 20
296.581380134188
 30
0.0
  0
VERTEX
  5
1B2
330
1B0
100
AcDbEntity
  8
\U+30EC\U+30A4\U+30E4\U+30FC 1
370
     0
100
AcDbVertex
100
AcDb2dVertex
 10
546.6071179189038
 20
301.7049261398516
 30
0.0
  0
VERTEX
  5
1B3
330
1B0
100
AcDbEntity
  8
\U+30EC\U+30A4\U+30E4\U+30FC 1
370
     0
100
AcDbVertex
100
AcDb2dVertex
 10
527.4909720903495
 20
306.8284721455151
 30
0.0
  0
SEQEND
  5
1B4
330
1B0
100
AcDbEntity
  8
\U+30EC\U+30A4\U+30E4\U+30FC 1
370
     0
  0
HATCH
  5
1B5
330
1F
100
AcDbEntity
  8
\U+30EC\U+30A4\U+30E4\U+30FC 1
 62
   168
420
  1643289
100
AcDbHatch
 10
0.0
 20
0.0
 30
0.0
210
0.0
220
0.0
230
1.0
  2
SOLID
 70
     1
 71
     0
 91
        1
 92
        1
 93
        3
 72
     1
 10
527.4909720903495
 20
296.581380134188
 11
546.6071179189038
 21
301.7049261398516
 72
     1
 10
546.6071179189038
 20
301.7049261398516
 11
527.4909720903495
 21
306.8284721455151
 72
     1
 10
527.4909720903495
 20
306.8284721455151
 11
527.4909720903495
 21
296.581380134188
 97
        0
 75
     2
 76
     1
 98
        0
  0
POLYLINE
  5
1B6
330
1F
100
AcDbEntity
  8
\U+30EC\U+30A4\U+30E4\U+30FC 1
 62
   168
420
  1643289
370
    13
100
AcDb2dPolyline
 66
     1
 10
0.0
 20
0.0
 30
0.0
  0
VERTEX
  5
1B7
330
1B6
100
AcDbEntity
  8
\U+30EC\U+30A4\U+30E4\U+30FC 1
 62
   168
420
  1643289
370
    13
100
AcDbVertex
100
AcDb2dVertex
 10
546.609873995292
 20
301.4927082579601
 30
0.0
  0
VERTEX
  5
1B8
330
1B6
100
AcDbEntity
  8
\U+30EC\U+30A4\U+30E4\U+30FC 1
 62
   168
420
  1643289
370
    13
100
AcDbVertex
100
AcDb2dVertex
 10
546.609873995292
 20
248.5677733753581
 30
0.0
  0
SEQEND
  5
1B9
330
1B6
100
AcDbEntity
  8
\U+30EC\U+30A4\U+30E4\U+30FC 1
370
    13
  0
POLYLINE
  5
1BA
330
1F
100
AcDbEntity
  8
\U+30EC\U+30A4\U+30E4\U+30FC 1
 62
   168
420
  1643289
370
    13
100
AcDb2dPolyline
 66
     1
 10
0.0
 20
0.0
 30
0.0
  0
VERTEX
  5
1BB
330
1BA
100
AcDbEntity
  8
\U+30EC\U+30A4\U+30E4\U+30FC 1
 62
   168
420
  1643289
370
    13
100
AcDbVertex
100
AcDb2dVertex
 10
-53.38519963943148
 20
248.5732855281345
 30
0.0
  0
VERTEX
  5
1BC
330
1BA
100
AcDbEntity
  8
\U+30EC\U+30A4\U+30E4\U+30FC 1
 62
   168
420
  1643289
370
    13
100
AcDbVertex
100
AcDb2dVertex
 10
-53.38519963943148
 20
301.4927082579601
 30
0.0
  0
SEQEND
  5
1BD
330
1BA
100
AcDbEntity
  8
\U+30EC\U+30A4\U+30E4\U+30FC 1
370
    13
  0
MTEXT
  5
1BE
330
1F
100
AcDbEntity
  8
\U+30EC\U+30A4\U+30E4\U+30FC 1
 62
   168
420
  1643289
100
AcDbMText
 10
217.3331596678889
 20
315.2961723387107
 30
0.0
 40
24.61243068368933
 41
0.0
 71
     7
 72
     1
  1
\fATC-65b030b44c2d5357495353|b0|i0|c0|p34;\W1.02;600
 73
     1
 44
1.0
  0
POLYLINE
  5
1BF
330
1F
100
AcDbEntity
  8
\U+30EC\U+30A4\U+30E4\U+30FC 1
 62
   168
420
  1643289
370
    13
100
AcDb2dPolyline
 66
     1
 10
0.0
 20
0.0
 30
0.0
  0
VERTEX
  5
1C0
330
1BF
100
AcDbEntity
  8
\U+30EC\U+30A4\U+30E4\U+30FC 1
 62
   168
420
  1643289
370
    13
100
AcDbVertex
100
AcDb2dVertex
 10
703.325889581113
 20
191.4480902299158
 30
0.0
  0
VERTEX
  5
1C1
330
1BF
100
AcDbEntity
  8
\U+30EC\U+30A4\U+30E4\U+30FC 1
 62
   168
420
  1643289
370
    13
100
AcDbVertex
100
AcDb2dVertex
 10
703.325889581113
 20
72.69702689154796
 30
0.0
  0
SEQEND
  5
1C2
330
1BF
100
AcDbEntity
  8
\U+30EC\U+30A4\U+30E4\U+30FC 1
370
    13
  0
POLYLINE
  5
1C3
330
1F
100
AcDbEntity
  8
\U+30EC\U+30A4\U+30E4\U+30FC 1
370
     0
100
AcDb2dPolyline
 66
     1
 10
0.0
 20
0.0
 30
0.0
  0
VERTEX
  5
1C4
330
1C3
100
AcDbEntity
  8
\U+30EC\U+30A4\U+30E4\U+30FC 1
370
     0
100
AcDbVertex
100
AcDb2dVertex
 10
698.4200736101172
 20
187.9506292932901
 30
0.0
  0
VERTEX
  5
1C5
330
1C3
100
AcDbEntity
  8
\U+30EC\U+30A4\U+30E4\U+30FC 1
370
     0
100
AcDbVertex
100
AcDb2dVertex
 10
703.5381074630044
 20
207.075043351009
 30
0.0
  0
VERTEX
  5
1C6
330
1C3
100
AcDbEntity
  8
\U+30EC\U+30A4\U+30E4\U+30FC 1
370
     0
100
AcDbVertex
100
AcDb2dVertex
 10
708.6671656214444
 20
187.9506292932901
 30
0.0
  0
SEQEND
  5
1C7
330
1C3
100
AcDbEntity
  8
\U+30EC\U+30A4\U+30E4\U+30FC 1
370
     0
  0
HATCH
  5
1C8
330
1F
100
AcDbEntity
  8
\U+30EC\U+30A4\U+30E4\U+30FC 1
 62
   168
420
  1643289
100
AcDbHatch
 10
0.0
 20
0.0
 30
0.0
210
0.0
220
0.0
230
1.0
  2
SOLID
 70
     1
 71
     0
 91
        1
 92
        1
 93
        3
 72
     1
 10
698.4200736101172
 20
187.9506292932901
 11
703.5381074630044
 21
207.075043351009
 72
     1
 10
703.5381074630044
 20
207.075043351009
 11
708.6671656214444
 21
187.9506292932901
 72
     1
 10
708.6671656214444
 20
187.9506292932901
 11
698.4200736101172
 21
187.9506292932901
 97
        0
 75
     2
 76
     1
 98
        0
  0
POLYLINE
  5
1C9
330
1F
100
AcDbEntity
  8
\U+30EC\U+30A4\U+30E4\U+30FC 1
370
     0
100
AcDb2dPolyline
 66
     1
 10
0.0
 20
0.0
 30
0.0
  0
VERTEX
  5
1CA
330
1C9
100
AcDbEntity
  8
\U+30EC\U+30A4\U+30E4\U+30FC 1
370
     0
100
AcDbVertex
100
AcDb2dVertex
 10
698.4200736101172
 20
76.1944878281736
 30
0.0
  0
VERTEX
  5
1CB
330
1C9
100
AcDbEntity
  8
\U+30EC\U+30A4\U+30E4\U+30FC 1
370
     0
100
AcDbVertex
100
AcDb2dVertex
 10
703.5381074630044
 20
57.07007377045471
 30
0.0
  0
VERTEX
  5
1CC
330
1C9
100
AcDbEntity
  8
\U+30EC\U+30A4\U+30E4\U+30FC 1
370
     0
100
AcDbVertex
100
AcDb2dVertex
 10
708.6671656214444
 20
76.1944878281736
 30
0.0
  0
SEQEND
  5
1CD
330
1C9
100
AcDbEntity
  8
\U+30EC\U+30A4\U+30E4\U+30FC 1
370
     0
  0
HATCH
  5
1CE
330
1F
100
AcDbEntity
  8
\U+30EC\U+30A4\U+30E4\U+30FC 1
 62
   168
420
  1643289
100
AcDbHatch
 10
0.0
 20
0.0
 30
0.0
210
0.0
220
0.0
230
1.0
  2
SOLID
 70
     1
 71
     0
 91
        1
 92
        1
 93
        3
 72
     1
 10
698.4200736101172
 20
76.1944878281736
 11
703.5381074630044
 21
57.07007377045471
 72
     1
 10
703.5381074630044
 20
57.07007377045471
 11
708.6671656214444
 21
76.1944878281736
 72
     1
 10
708.6671656214444
 20
76.1944878281736
 11
698.4200736101172
 21
76.1944878281736
 97
        0
 75
     2
 76
     1
 98
        0
  0
POLYLINE
  5
1CF
330
1F
100
AcDbEntity
  8
\U+30EC\U+30A4\U+30E4\U+30FC 1
 62
   168
420
  1643289
370
    13
100
AcDb2dPolyline
 66
     1
 10
0.0
 20
0.0
 30
0.0
  0
VERTEX
  5
1D0
330
1CF
100
AcDbEntity
  8
\U+30EC\U+30A4\U+30E4\U+30FC 1
 62
   168
420
  1643289
370
    13
100
AcDbVertex
100
AcDb2dVertex
 10
703.325889581113
 20
57.07007377045471
 30
0.0
  0
VERTEX
  5
1D1
330
1CF
100
AcDbEntity
  8
\U+30EC\U+30A4\U+30E4\U+30FC 1
 62
   168
420
  1643289
370
    13
100
AcDbVertex
100
AcDb2dVertex
 10
650.4092229276755
 20
57.07007377045471
 30
0.0
  0
SEQEND
  5
1D2
330
1CF
100
AcDbEntity
  8
\U+30EC\U+30A4\U+30E4\U+30FC 1
370
    13
  0
POLYLINE
  5
1D3
330
1F
100
AcDbEntity
  8
\U+30EC\U+30A4\U+30E4\U+30FC 1
 62
   168
420
  1643289
370
    13
100
AcDb2dPolyline
 66
     1
 10
0.0
 20
0.0
 30
0.0
  0
VERTEX
  5
1D4
330
1D3
100
AcDbEntity
  8
\U+30EC\U+30A4\U+30E4\U+30FC 1
 62
   168
420
  1643289
370
    13
100
AcDbVertex
100
AcDb2dVertex
 10
650.4092229276755
 20
207.075043351009
 30
0.0
  0
VERTEX
  5
1D5
330
1D3
100
AcDbEntity
  8
\U+30EC\U+30A4\U+30E4\U+30FC 1
 62
   168
420
  1643289
370
    13
100
AcDbVertex
100
AcDb2dVertex
 10
703.325889581113
 20
207.075043351009
 30
0.0
  0
SEQEND
  5
1D6
330
1D3
100
AcDbEntity
  8
\U+30EC\U+30A4\U+30E4\U+30FC 1
370
    13
  0
MTEXT
  5
1D7
330
1F
100
AcDbEntity
  8
\U+30EC\U+30A4\U+30E4\U+30FC 1
 62
   168
420
  1643289
100
AcDbMText
 10
738.9388751407862
 20
107.2113715009749
 30
0.0
 40
24.61243068368933
 41
0.0
 71
     7
 72
     1
  1
\fATC-65b030b44c2d5357495353|b0|i0|c0|p34;\W1.02;150
 11
-4.371139000186241E-8
 21
0.999999999999999
 31
0.0
 73
     1
 44
1.0
  0
MTEXT
  5
1D8
330
1F
100
AcDbEntity
  8
\U+30EC\U+30A4\U+30E4\U+30FC 1
 62
   168
420
  1643289
100
AcDbMText
 10
668.5128551931149
 20
127.2122178501414
 30
0.0
 40
24.61243068368933
 41
0.0
 71
     7
 72
     1
  1
\fATC-65b030b44c2d5357495353|b0|i0|c0|p34;\W1.02;110
 11
-4.371139000186241E-8
 21
0.999999999999999
 31
0.0
 73
     1
 44
1.0
  0
POLYLINE
  5
1D9
330
1F
100
AcDbEntity
  8
\U+30EC\U+30A4\U+30E4\U+30FC 1
 62
   168
420
  1643289
370
    13
100
AcDb2dPolyline
 66
     1
 10
0.0
 20
0.0
 30
0.0
  0
VERTEX
  5
1DA
330
1D9
100
AcDbEntity
  8
\U+30EC\U+30A4\U+30E4\U+30FC 1
 62
   168
420
  1643289
370
    13
100
AcDbVertex
100
AcDb2dVertex
 10
633.3932073069295
 20
191.4480902299158
 30
0.0
  0
VERTEX
  5
1DB
330
1D9
100
AcDbEntity
  8
\U+30EC\U+30A4\U+30E4\U+30FC 1
 62
   168
420
  1643289
370
    13
100
AcDbVertex
100
AcDb2dVertex
 10
633.3932073069295
 20
112.7014756662691
 30
0.0
  0
SEQEND
  5
1DC
330
1D9
100
AcDbEntity
  8
\U+30EC\U+30A4\U+30E4\U+30FC 1
370
    13
  0
POLYLINE
  5
1DD
330
1F
100
AcDbEntity
  8
\U+30EC\U+30A4\U+30E4\U+30FC 1
370
     0
100
AcDb2dPolyline
 66
     1
 10
0.0
 20
0.0
 30
0.0
  0
VERTEX
  5
1DE
330
1DD
100
AcDbEntity
  8
\U+30EC\U+30A4\U+30E4\U+30FC 1
370
     0
100
AcDbVertex
100
AcDb2dVertex
 10
628.4846352595455
 20
187.9506292932901
 30
0.0
  0
VERTEX
  5
1DF
330
1DD
100
AcDbEntity
  8
\U+30EC\U+30A4\U+30E4\U+30FC 1
370
     0
100
AcDbVertex
100
AcDb2dVertex
 10
633.5971569596563
 20
207.075043351009
 30
0.0
  0
VERTEX
  5
1E0
330
1DD
100
AcDbEntity
  8
\U+30EC\U+30A4\U+30E4\U+30FC 1
370
     0
100
AcDbVertex
100
AcDb2dVertex
 10
638.7262151180962
 20
187.9506292932901
 30
0.0
  0
SEQEND
  5
1E1
330
1DD
100
AcDbEntity
  8
\U+30EC\U+30A4\U+30E4\U+30FC 1
370
     0
  0
HATCH
  5
1E2
330
1F
100
AcDbEntity
  8
\U+30EC\U+30A4\U+30E4\U+30FC 1
 62
   168
420
  1643289
100
AcDbHatch
 10
0.0
 20
0.0
 30
0.0
210
0.0
220
0.0
230
1.0
  2
SOLID
 70
     1
 71
     0
 91
        1
 92
        1
 93
        3
 72
     1
 10
628.4846352595455
 20
187.9506292932901
 11
633.5971569596563
 21
207.075043351009
 72
     1
 10
633.5971569596563
 20
207.075043351009
 11
638.7262151180962
 21
187.9506292932901
 72
     1
 10
638.7262151180962
 20
187.9506292932901
 11
628.4846352595455
 21
187.9506292932901
 97
        0
 75
     2
 76
     1
 98
        0
  0
POLYLINE
  5
1E3
330
1F
100
AcDbEntity
  8
\U+30EC\U+30A4\U+30E4\U+30FC 1
370
     0
100
AcDb2dPolyline
 66
     1
 10
0.0
 20
0.0
 30
0.0
  0
VERTEX
  5
1E4
330
1E3
100
AcDbEntity
  8
\U+30EC\U+30A4\U+30E4\U+30FC 1
370
     0
100
AcDbVertex
100
AcDb2dVertex
 10
628.4846352595455
 20
116.1989366028947
 30
0.0
  0
VERTEX
  5
1E5
330
1E3
100
AcDbEntity
  8
\U+30EC\U+30A4\U+30E4\U+30FC 1
370
     0
100
AcDbVertex
100
AcDb2dVertex
 10
633.5971569596563
 20
97.06625431601123
 30
0.0
  0
VERTEX
  5
1E6
330
1E3
100
AcDbEntity
  8
\U+30EC\U+30A4\U+30E4\U+30FC 1
370
     0
100
AcDbVertex
100
AcDb2dVertex
 10
638.7262151180962
 20
116.1989366028947
 30
0.0
  0
SEQEND
  5
1E7
330
1E3
100
AcDbEntity
  8
\U+30EC\U+30A4\U+30E4\U+30FC 1
370
     0
  0
HATCH
  5
1E8
330
1F
100
AcDbEntity
  8
\U+30EC\U+30A4\U+30E4\U+30FC 1
 62
   168
420
  1643289
100
AcDbHatch
 10
0.0
 20
0.0
 30
0.0
210
0.0
220
0.0
230
1.0
  2
SOLID
 70
     1
 71
     0
 91
        1
 92
        1
 93
        3
 72
     1
 10
628.4846352595455
 20
116.1989366028947
 11
633.5971569596563
 21
97.06625431601123
 72
     1
 10
633.5971569596563
 20
97.06625431601123
 11
638.7262151180962
 21
116.1989366028947
 72
     1
 10
638.7262151180962
 20
116.1989366028947
 11
628.4846352595455
 21
116.1989366028947
 97
        0
 75
     2
 76
     1
 98
        0
  0
POLYLINE
  5
1E9
330
1F
100
AcDbEntity
  8
\U+30EC\U+30A4\U+30E4\U+30FC 1
 62
   168
420
  1643289
370
    13
100
AcDb2dPolyline
 66
     1
 10
0.0
 20
0.0
 30
0.0
  0
VERTEX
  5
1EA
330
1E9
100
AcDbEntity
  8
\U+30EC\U+30A4\U+30E4\U+30FC 1
 62
   168
420
  1643289
370
    13
100
AcDbVertex
100
AcDb2dVertex
 10
633.3932073069295
 20
97.07452254517582
 30
0.0
  0
VERTEX
  5
1EB
330
1E9
100
AcDbEntity
  8
\U+30EC\U+30A4\U+30E4\U+30FC 1
 62
   168
420
  1643289
370
    13
100
AcDbVertex
100
AcDb2dVertex
 10
580.4655163479392
 20
97.07452254517582
 30
0.0
  0
SEQEND
  5
1EC
330
1E9
100
AcDbEntity
  8
\U+30EC\U+30A4\U+30E4\U+30FC 1
370
    13
  0
POLYLINE
  5
1ED
330
1F
100
AcDbEntity
  8
\U+30EC\U+30A4\U+30E4\U+30FC 1
 62
   168
420
  1643289
370
    13
100
AcDb2dPolyline
 66
     1
 10
0.0
 20
0.0
 30
0.0
  0
VERTEX
  5
1EE
330
1ED
100
AcDbEntity
  8
\U+30EC\U+30A4\U+30E4\U+30FC 1
 62
   168
420
  1643289
370
    13
100
AcDbVertex
100
AcDb2dVertex
 10
580.4682724243274
 20
207.075043351009
 30
0.0
  0
VERTEX
  5
1EF
330
1ED
100
AcDbEntity
  8
\U+30EC\U+30A4\U+30E4\U+30FC 1
 62
   168
420
  1643289
370
    13
100
AcDbVertex
100
AcDb2dVertex
 10
633.3932073069295
 20
207.075043351009
 30
0.0
  0
SEQEND
  5
1F0
330
1ED
100
AcDbEntity
  8
\U+30EC\U+30A4\U+30E4\U+30FC 1
370
    13
  0
POLYLINE
  5
1F1
330
1F
100
AcDbEntity
  8
\U+30EC\U+30A4\U+30E4\U+30FC 1
 62
   168
420
  1643289
370
    13
100
AcDb2dPolyline
 66
     1
 10
0.0
 20
0.0
 30
0.0
  0
VERTEX
  5
1F2
330
1F1
100
AcDbEntity
  8
\U+30EC\U+30A4\U+30E4\U+30FC 1
 62
   168
420
  1643289
370
    13
100
AcDbVertex
100
AcDb2dVertex
 10
-36.95898436576026
 20
1015.396419016984
 30
0.0
  0
VERTEX
  5
1F3
330
1F1
100
AcDbEntity
  8
\U+30EC\U+30A4\U+30E4\U+30FC 1
 62
   168
420
  1643289
370
    13
100
AcDbVertex
100
AcDb2dVertex
 10
531.7904512559413
 20
1015.396419016984
 30
0.0
  0
SEQEND
  5
1F4
330
1F1
100
AcDbEntity
  8
\U+30EC\U+30A4\U+30E4\U+30FC 1
370
    13
  0
POLYLINE
  5
1F5
330
1F
100
AcDbEntity
  8
\U+30EC\U+30A4\U+30E4\U+30FC 1
370
     0
100
AcDb2dPolyline
 66
     1
 10
0.0
 20
0.0
 30
0.0
  0
VERTEX
  5
1F6
330
1F5
100
AcDbEntity
  8
\U+30EC\U+30A4\U+30E4\U+30FC 1
370
     0
100
AcDbVertex
100
AcDb2dVertex
 10
-33.46703558191102
 20
1010.493359122377
 30
0.0
  0
VERTEX
  5
1F7
330
1F5
100
AcDbEntity
  8
\U+30EC\U+30A4\U+30E4\U+30FC 1
370
     0
100
AcDbVertex
100
AcDb2dVertex
 10
-52.58869356324172
 20
1015.61690512804
 30
0.0
  0
VERTEX
  5
1F8
330
1F5
100
AcDbEntity
  8
\U+30EC\U+30A4\U+30E4\U+30FC 1
370
     0
100
AcDbVertex
100
AcDb2dVertex
 10
-33.46703558191102
 20
1020.743207210092
 30
0.0
  0
SEQEND
  5
1F9
330
1F5
100
AcDbEntity
  8
\U+30EC\U+30A4\U+30E4\U+30FC 1
370
     0
  0
HATCH
  5
1FA
330
1F
100
AcDbEntity
  8
\U+30EC\U+30A4\U+30E4\U+30FC 1
 62
   168
420
  1643289
100
AcDbHatch
 10
0.0
 20
0.0
 30
0.0
210
0.0
220
0.0
230
1.0
  2
SOLID
 70
     1
 71
     0
 91
        1
 92
        1
 93
        3
 72
     1
 10
-33.46703558191102
 20
1010.493359122377
 11
-52.58869356324172
 21
1015.61690512804
 72
     1
 10
-52.58869356324172
 20
1015.61690512804
 11
-33.46703558191102
 21
1020.743207210092
 72
     1
 10
-33.46703558191102
 20
1020.743207210092
 11
-33.46703558191102
 21
1010.493359122377
 97
        0
 75
     2
 76
     1
 98
        0
  0
POLYLINE
  5
1FB
330
1F
100
AcDbEntity
  8
\U+30EC\U+30A4\U+30E4\U+30FC 1
370
     0
100
AcDb2dPolyline
 66
     1
 10
0.0
 20
0.0
 30
0.0
  0
VERTEX
  5
1FC
330
1FB
100
AcDbEntity
  8
\U+30EC\U+30A4\U+30E4\U+30FC 1
370
     0
100
AcDbVertex
100
AcDb2dVertex
 10
528.2929903193157
 20
1010.493359122377
 30
0.0
  0
VERTEX
  5
1FD
330
1FB
100
AcDbEntity
  8
\U+30EC\U+30A4\U+30E4\U+30FC 1
370
     0
100
AcDbVertex
100
AcDb2dVertex
 10
547.4146483006464
 20
1015.61690512804
 30
0.0
  0
VERTEX
  5
1FE
330
1FB
100
AcDbEntity
  8
\U+30EC\U+30A4\U+30E4\U+30FC 1
370
     0
100
AcDbVertex
100
AcDb2dVertex
 10
528.2929903193157
 20
1020.743207210092
 30
0.0
  0
SEQEND
  5
1FF
330
1FB
100
AcDbEntity
  8
\U+30EC\U+30A4\U+30E4\U+30FC 1
370
     0
  0
HATCH
  5
200
330
1F
100
AcDbEntity
  8
\U+30EC\U+30A4\U+30E4\U+30FC 1
 62
   168
420
  1643289
100
AcDbHatch
 10
0.0
 20
0.0
 30
0.0
210
0.0
220
0.0
230
1.0
  2
SOLID
 70
     1
 71
     0
 91
        1
 92
        1
 93
        3
 72
     1
 10
528.2929903193157
 20
1010.493359122377
 11
547.4146483006464
 21
1015.61690512804
 72
     1
 10
547.4146483006464
 20
1015.61690512804
 11
528.2929903193157
 21
1020.743207210092
 72
     1
 10
528.2929903193157
 20
1020.743207210092
 11
528.2929903193157
 21
1010.493359122377
 97
        0
 75
     2
 76
     1
 98
        0
  0
POLYLINE
  5
201
330
1F
100
AcDbEntity
  8
\U+30EC\U+30A4\U+30E4\U+30FC 1
 62
   168
420
  1643289
370
    13
100
AcDb2dPolyline
 66
     1
 10
0.0
 20
0.0
 30
0.0
  0
VERTEX
  5
202
330
201
100
AcDbEntity
  8
\U+30EC\U+30A4\U+30E4\U+30FC 1
 62
   168
420
  1643289
370
    13
100
AcDbVertex
100
AcDb2dVertex
 10
547.4146483006464
 20
1015.404687246149
 30
0.0
  0
VERTEX
  5
203
330
201
100
AcDbEntity
  8
\U+30EC\U+30A4\U+30E4\U+30FC 1
 62
   168
420
  1643289
370
    13
100
AcDbVertex
100
AcDb2dVertex
 10
547.4146483006464
 20
962.4797523635468
 30
0.0
  0
SEQEND
  5
204
330
201
100
AcDbEntity
  8
\U+30EC\U+30A4\U+30E4\U+30FC 1
370
    13
  0
POLYLINE
  5
205
330
1F
100
AcDbEntity
  8
\U+30EC\U+30A4\U+30E4\U+30FC 1
 62
   168
420
  1643289
370
    13
100
AcDb2dPolyline
 66
     1
 10
0.0
 20
0.0
 30
0.0
  0
VERTEX
  5
206
330
205
100
AcDbEntity
  8
\U+30EC\U+30A4\U+30E4\U+30FC 1
 62
   168
420
  1643289
370
    13
100
AcDbVertex
100
AcDb2dVertex
 10
-52.58869356324172
 20
962.4797523635468
 30
0.0
  0
VERTEX
  5
207
330
205
100
AcDbEntity
  8
\U+30EC\U+30A4\U+30E4\U+30FC 1
 62
   168
420
  1643289
370
    13
100
AcDbVertex
100
AcDb2dVertex
 10
-52.58869356324172
 20
1015.404687246149
 30
0.0
  0
SEQEND
  5
208
330
205
100
AcDbEntity
  8
\U+30EC\U+30A4\U+30E4\U+30FC 1
370
    13
  0
MTEXT
  5
209
330
1F
100
AcDbEntity
  8
\U+30EC\U+30A4\U+30E4\U+30FC 1
 62
   168
420
  1643289
100
AcDbMText
 10
218.1296657440787
 20
1029.205395250511
 30
0.0
 40
24.61243068368933
 41
0.0
 71
     7
 72
     1
  1
\fATC-65b030b44c2d5357495353|b0|i0|c0|p34;\W1.02;600
 73
     1
 44
1.0
  0
POLYLINE
  5
20A
330
1F
100
AcDbEntity
  8
\U+30EC\U+30A4\U+30E4\U+30FC 1
 62
   168
420
  1643289
370
    13
100
AcDb2dPolyline
 66
     1
 10
0.0
 20
0.0
 30
0.0
  0
VERTEX
  5
20B
330
20A
100
AcDbEntity
  8
\U+30EC\U+30A4\U+30E4\U+30FC 1
 62
   168
420
  1643289
370
    13
100
AcDbVertex
100
AcDb2dVertex
 10
3.037196179796257
 20
946.5441186869751
 30
0.0
  0
VERTEX
  5
20C
330
20A
100
AcDbEntity
  8
\U+30EC\U+30A4\U+30E4\U+30FC 1
 62
   168
420
  1643289
370
    13
100
AcDbVertex
100
AcDb2dVertex
 10
491.7804903284438
 20
946.5441186869751
 30
0.0
  0
SEQEND
  5
20D
330
20A
100
AcDbEntity
  8
\U+30EC\U+30A4\U+30E4\U+30FC 1
370
    13
  0
POLYLINE
  5
20E
330
1F
100
AcDbEntity
  8
\U+30EC\U+30A4\U+30E4\U+30FC 1
370
     0
100
AcDb2dPolyline
 66
     1
 10
0.0
 20
0.0
 30
0.0
  0
VERTEX
  5
20F
330
20E
100
AcDbEntity
  8
\U+30EC\U+30A4\U+30E4\U+30FC 1
370
     0
100
AcDbVertex
100
AcDb2dVertex
 10
6.531901040033691
 20
941.632790563203
 30
0.0
  0
VERTEX
  5
210
330
20E
100
AcDbEntity
  8
\U+30EC\U+30A4\U+30E4\U+30FC 1
370
     0
100
AcDbVertex
100
AcDb2dVertex
 10
-12.58700086490881
 20
946.7590926452547
 30
0.0
  0
VERTEX
  5
211
330
20E
100
AcDbEntity
  8
\U+30EC\U+30A4\U+30E4\U+30FC 1
370
     0
100
AcDbVertex
100
AcDb2dVertex
 10
6.531901040033691
 20
951.8853947273064
 30
0.0
  0
SEQEND
  5
212
330
20E
100
AcDbEntity
  8
\U+30EC\U+30A4\U+30E4\U+30FC 1
370
     0
  0
HATCH
  5
213
330
1F
100
AcDbEntity
  8
\U+30EC\U+30A4\U+30E4\U+30FC 1
 62
   168
420
  1643289
100
AcDbHatch
 10
0.0
 20
0.0
 30
0.0
210
0.0
220
0.0
230
1.0
  2
SOLID
 70
     1
 71
     0
 91
        1
 92
        1
 93
        3
 72
     1
 10
6.531901040033691
 20
941.632790563203
 11
-12.58700086490881
 21
946.7590926452547
 72
     1
 10
-12.58700086490881
 20
946.7590926452547
 11
6.531901040033691
 21
951.8853947273064
 72
     1
 10
6.531901040033691
 20
951.8853947273064
 11
6.531901040033691
 21
941.632790563203
 97
        0
 75
     2
 76
     1
 98
        0
  0
POLYLINE
  5
214
330
1F
100
AcDbEntity
  8
\U+30EC\U+30A4\U+30E4\U+30FC 1
370
     0
100
AcDb2dPolyline
 66
     1
 10
0.0
 20
0.0
 30
0.0
  0
VERTEX
  5
215
330
214
100
AcDbEntity
  8
\U+30EC\U+30A4\U+30E4\U+30FC 1
370
     0
100
AcDbVertex
100
AcDb2dVertex
 10
488.2940536973709
 20
941.632790563203
 30
0.0
  0
VERTEX
  5
216
330
214
100
AcDbEntity
  8
\U+30EC\U+30A4\U+30E4\U+30FC 1
370
     0
100
AcDbVertex
100
AcDb2dVertex
 10
507.4157116787017
 20
946.7590926452547
 30
0.0
  0
VERTEX
  5
217
330
214
100
AcDbEntity
  8
\U+30EC\U+30A4\U+30E4\U+30FC 1
370
     0
100
AcDbVertex
100
AcDb2dVertex
 10
488.2940536973709
 20
951.8853947273064
 30
0.0
  0
SEQEND
  5
218
330
214
100
AcDbEntity
  8
\U+30EC\U+30A4\U+30E4\U+30FC 1
370
     0
  0
HATCH
  5
219
330
1F
100
AcDbEntity
  8
\U+30EC\U+30A4\U+30E4\U+30FC 1
 62
   168
420
  1643289
100
AcDbHatch
 10
0.0
 20
0.0
 30
0.0
210
0.0
220
0.0
230
1.0
  2
SOLID
 70
     1
 71
     0
 91
        1
 92
        1
 93
        3
 72
     1
 10
488.2940536973709
 20
941.632790563203
 11
507.4157116787017
 21
946.7590926452547
 72
     1
 10
507.4157116787017
 20
946.7590926452547
 11
488.2940536973709
 21
951.8853947273064
 72
     1
 10
488.2940536973709
 20
951.8853947273064
 11
488.2940536973709
 21
941.632790563203
 97
        0
 75
     2
 76
     1
 98
        0
  0
POLYLINE
  5
21A
330
1F
100
AcDbEntity
  8
\U+30EC\U+30A4\U+30E4\U+30FC 1
 62
   168
420
  1643289
370
    13
100
AcDb2dPolyline
 66
     1
 10
0.0
 20
0.0
 30
0.0
  0
VERTEX
  5
21B
330
21A
100
AcDbEntity
  8
\U+30EC\U+30A4\U+30E4\U+30FC 1
 62
   168
420
  1643289
370
    13
100
AcDbVertex
100
AcDb2dVertex
 10
507.4157116787017
 20
946.5441186869751
 30
0.0
  0
VERTEX
  5
21C
330
21A
100
AcDbEntity
  8
\U+30EC\U+30A4\U+30E4\U+30FC 1
 62
   168
420
  1643289
370
    13
100
AcDbVertex
100
AcDb2dVertex
 10
507.4157116787017
 20
893.6246959571495
 30
0.0
  0
SEQEND
  5
21D
330
21A
100
AcDbEntity
  8
\U+30EC\U+30A4\U+30E4\U+30FC 1
370
    13
  0
POLYLINE
  5
21E
330
1F
100
AcDbEntity
  8
\U+30EC\U+30A4\U+30E4\U+30FC 1
 62
   168
420
  1643289
370
    13
100
AcDb2dPolyline
 66
     1
 10
0.0
 20
0.0
 30
0.0
  0
VERTEX
  5
21F
330
21E
100
AcDbEntity
  8
\U+30EC\U+30A4\U+30E4\U+30FC 1
 62
   168
420
  1643289
370
    13
100
AcDbVertex
100
AcDb2dVertex
 10
-12.58700086490881
 20
893.6274520335376
 30
0.0
  0
VERTEX
  5
220
330
21E
100
AcDbEntity
  8
\U+30EC\U+30A4\U+30E4\U+30FC 1
 62
   168
420
  1643289
370
    13
100
AcDbVertex
100
AcDb2dVertex
 10
-12.58700086490881
 20
946.5441186869751
 30
0.0
  0
SEQEND
  5
221
330
21E
100
AcDbEntity
  8
\U+30EC\U+30A4\U+30E4\U+30FC 1
370
    13
  0
MTEXT
  5
222
330
1F
100
AcDbEntity
  8
\U+30EC\U+30A4\U+30E4\U+30FC 1
 62
   168
420
  1643289
100
AcDbMText
 10
222.5504122707513
 20
960.3448266913374
 30
0.0
 40
24.61243068368933
 41
0.0
 71
     7
 72
     1
  1
\fATC-65b030b44c2d5357495353|b0|i0|c0|p34;\W1.02;520
 73
     1
 44
1.0
  0
POLYLINE
  5
223
330
1F
100
AcDbEntity
  8
\U+30EC\U+30A4\U+30E4\U+30FC 1
 62
   168
420
  1643289
370
    13
100
AcDb2dPolyline
 66
     1
 10
0.0
 20
0.0
 30
0.0
  0
VERTEX
  5
224
330
223
100
AcDbEntity
  8
\U+30EC\U+30A4\U+30E4\U+30FC 1
 62
   168
420
  1643289
370
    13
100
AcDbVertex
100
AcDb2dVertex
 10
711.516948606843
 20
841.5899737479359
 30
0.0
  0
VERTEX
  5
225
330
223
100
AcDbEntity
  8
\U+30EC\U+30A4\U+30E4\U+30FC 1
 62
   168
420
  1643289
370
    13
100
AcDbVertex
100
AcDb2dVertex
 10
711.516948606843
 20
472.8434894651225
 30
0.0
  0
SEQEND
  5
226
330
223
100
AcDbEntity
  8
\U+30EC\U+30A4\U+30E4\U+30FC 1
370
    13
  0
POLYLINE
  5
227
330
1F
100
AcDbEntity
  8
\U+30EC\U+30A4\U+30E4\U+30FC 1
370
     0
100
AcDb2dPolyline
 66
     1
 10
0.0
 20
0.0
 30
0.0
  0
VERTEX
  5
228
330
227
100
AcDbEntity
  8
\U+30EC\U+30A4\U+30E4\U+30FC 1
370
     0
100
AcDbVertex
100
AcDb2dVertex
 10
706.6083765594591
 20
838.0925128113103
 30
0.0
  0
VERTEX
  5
229
330
227
100
AcDbEntity
  8
\U+30EC\U+30A4\U+30E4\U+30FC 1
370
     0
100
AcDbVertex
100
AcDb2dVertex
 10
711.7291664887344
 20
857.2086586398646
 30
0.0
  0
VERTEX
  5
22A
330
227
100
AcDbEntity
  8
\U+30EC\U+30A4\U+30E4\U+30FC 1
370
     0
100
AcDbVertex
100
AcDb2dVertex
 10
716.8582246471743
 20
838.0925128113103
 30
0.0
  0
SEQEND
  5
22B
330
227
100
AcDbEntity
  8
\U+30EC\U+30A4\U+30E4\U+30FC 1
370
     0
  0
HATCH
  5
22C
330
1F
100
AcDbEntity
  8
\U+30EC\U+30A4\U+30E4\U+30FC 1
 62
   168
420
  1643289
100
AcDbHatch
 10
0.0
 20
0.0
 30
0.0
210
0.0
220
0.0
230
1.0
  2
SOLID
 70
     1
 71
     0
 91
        1
 92
        1
 93
        3
 72
     1
 10
706.6083765594591
 20
838.0925128113103
 11
711.7291664887344
 21
857.2086586398646
 72
     1
 10
711.7291664887344
 20
857.2086586398646
 11
716.8582246471743
 21
838.0925128113103
 72
     1
 10
716.8582246471743
 20
838.0925128113103
 11
706.6083765594591
 21
838.0925128113103
 97
        0
 75
     2
 76
     1
 98
        0
  0
POLYLINE
  5
22D
330
1F
100
AcDbEntity
  8
\U+30EC\U+30A4\U+30E4\U+30FC 1
370
     0
100
AcDb2dPolyline
 66
     1
 10
0.0
 20
0.0
 30
0.0
  0
VERTEX
  5
22E
330
22D
100
AcDbEntity
  8
\U+30EC\U+30A4\U+30E4\U+30FC 1
370
     0
100
AcDbVertex
100
AcDb2dVertex
 10
706.6083765594591
 20
476.3326821725835
 30
0.0
  0
VERTEX
  5
22F
330
22D
100
AcDbEntity
  8
\U+30EC\U+30A4\U+30E4\U+30FC 1
370
     0
100
AcDbVertex
100
AcDb2dVertex
 10
711.7291664887344
 20
457.2082681148646
 30
0.0
  0
VERTEX
  5
230
330
22D
100
AcDbEntity
  8
\U+30EC\U+30A4\U+30E4\U+30FC 1
370
     0
100
AcDbVertex
100
AcDb2dVertex
 10
716.8582246471743
 20
476.3326821725835
 30
0.0
  0
SEQEND
  5
231
330
22D
100
AcDbEntity
  8
\U+30EC\U+30A4\U+30E4\U+30FC 1
370
     0
  0
HATCH
  5
232
330
1F
100
AcDbEntity
  8
\U+30EC\U+30A4\U+30E4\U+30FC 1
 62
   168
420
  1643289
100
AcDbHatch
 10
0.0
 20
0.0
 30
0.0
210
0.0
220
0.0
230
1.0
  2
SOLID
 70
     1
 71
     0
 91
        1
 92
        1
 93
        3
 72
     1
 10
706.6083765594591
 20
476.3326821725835
 11
711.7291664887344
 21
457.2082681148646
 72
     1
 10
711.7291664887344
 20
457.2082681148646
 11
716.8582246471743
 21
476.3326821725835
 72
     1
 10
716.8582246471743
 20
476.3326821725835
 11
706.6083765594591
 21
476.3326821725835
 97
        0
 75
     2
 76
     1
 98
        0
  0
POLYLINE
  5
233
330
1F
100
AcDbEntity
  8
\U+30EC\U+30A4\U+30E4\U+30FC 1
 62
   168
420
  1643289
370
    13
100
AcDb2dPolyline
 66
     1
 10
0.0
 20
0.0
 30
0.0
  0
VERTEX
  5
234
330
233
100
AcDbEntity
  8
\U+30EC\U+30A4\U+30E4\U+30FC 1
 62
   168
420
  1643289
370
    13
100
AcDbVertex
100
AcDb2dVertex
 10
711.516948606843
 20
457.2110241912528
 30
0.0
  0
VERTEX
  5
235
330
233
100
AcDbEntity
  8
\U+30EC\U+30A4\U+30E4\U+30FC 1
 62
   168
420
  1643289
370
    13
100
AcDbVertex
100
AcDb2dVertex
 10
658.5975258770173
 20
457.2110241912528
 30
0.0
  0
SEQEND
  5
236
330
233
100
AcDbEntity
  8
\U+30EC\U+30A4\U+30E4\U+30FC 1
370
    13
  0
POLYLINE
  5
237
330
1F
100
AcDbEntity
  8
\U+30EC\U+30A4\U+30E4\U+30FC 1
 62
   168
420
  1643289
370
    13
100
AcDb2dPolyline
 66
     1
 10
0.0
 20
0.0
 30
0.0
  0
VERTEX
  5
238
330
237
100
AcDbEntity
  8
\U+30EC\U+30A4\U+30E4\U+30FC 1
 62
   168
420
  1643289
370
    13
100
AcDbVertex
100
AcDb2dVertex
 10
658.5975258770173
 20
857.214170792641
 30
0.0
  0
VERTEX
  5
239
330
237
100
AcDbEntity
  8
\U+30EC\U+30A4\U+30E4\U+30FC 1
 62
   168
420
  1643289
370
    13
100
AcDbVertex
100
AcDb2dVertex
 10
711.516948606843
 20
857.214170792641
 30
0.0
  0
SEQEND
  5
23A
330
237
100
AcDbEntity
  8
\U+30EC\U+30A4\U+30E4\U+30FC 1
370
    13
  0
MTEXT
  5
23B
330
1F
100
AcDbEntity
  8
\U+30EC\U+30A4\U+30E4\U+30FC 1
 62
   168
420
  1643289
100
AcDbMText
 10
747.1326902429043
 20
636.7804251880272
 30
0.0
 40
24.61243068368933
 41
0.0
 71
     7
 72
     1
  1
\fATC-65b030b44c2d5357495353|b0|i0|c0|p34;\W1.02;400
 11
-4.371139000186241E-8
 21
0.999999999999999
 31
0.0
 73
     1
 44
1.0
  0
POLYLINE
  5
23C
330
1F
100
AcDbEntity
  8
\U+30EC\U+30A4\U+30E4\U+30FC 1
 62
   168
420
  1643289
370
    13
100
AcDb2dPolyline
 66
     1
 10
0.0
 20
0.0
 30
0.0
  0
VERTEX
  5
23D
330
23C
100
AcDbEntity
  8
\U+30EC\U+30A4\U+30E4\U+30FC 1
 62
   168
420
  1643289
370
    13
100
AcDbVertex
100
AcDb2dVertex
 10
648.016948622718
 20
801.5855249732148
 30
0.0
  0
VERTEX
  5
23E
330
23C
100
AcDbEntity
  8
\U+30EC\U+30A4\U+30E4\U+30FC 1
 62
   168
420
  1643289
370
    13
100
AcDbVertex
100
AcDb2dVertex
 10
648.016948622718
 20
512.839670010679
 30
0.0
  0
SEQEND
  5
23F
330
23C
100
AcDbEntity
  8
\U+30EC\U+30A4\U+30E4\U+30FC 1
370
    13
  0
POLYLINE
  5
240
330
1F
100
AcDbEntity
  8
\U+30EC\U+30A4\U+30E4\U+30FC 1
370
     0
100
AcDb2dPolyline
 66
     1
 10
0.0
 20
0.0
 30
0.0
  0
VERTEX
  5
241
330
240
100
AcDbEntity
  8
\U+30EC\U+30A4\U+30E4\U+30FC 1
370
     0
100
AcDbVertex
100
AcDb2dVertex
 10
643.1111326517223
 20
798.0880640365891
 30
0.0
  0
VERTEX
  5
242
330
240
100
AcDbEntity
  8
\U+30EC\U+30A4\U+30E4\U+30FC 1
370
     0
100
AcDbVertex
100
AcDb2dVertex
 10
648.2291665046095
 20
817.2097220179198
 30
0.0
  0
VERTEX
  5
243
330
240
100
AcDbEntity
  8
\U+30EC\U+30A4\U+30E4\U+30FC 1
370
     0
100
AcDbVertex
100
AcDb2dVertex
 10
653.3554685866611
 20
798.0880640365891
 30
0.0
  0
SEQEND
  5
244
330
240
100
AcDbEntity
  8
\U+30EC\U+30A4\U+30E4\U+30FC 1
370
     0
  0
HATCH
  5
245
330
1F
100
AcDbEntity
  8
\U+30EC\U+30A4\U+30E4\U+30FC 1
 62
   168
420
  1643289
100
AcDbHatch
 10
0.0
 20
0.0
 30
0.0
210
0.0
220
0.0
230
1.0
  2
SOLID
 70
     1
 71
     0
 91
        1
 92
        1
 93
        3
 72
     1
 10
643.1111326517223
 20
798.0880640365891
 11
648.2291665046095
 21
817.2097220179198
 72
     1
 10
648.2291665046095
 20
817.2097220179198
 11
653.3554685866611
 21
798.0880640365891
 72
     1
 10
653.3554685866611
 20
798.0880640365891
 11
643.1111326517223
 21
798.0880640365891
 97
        0
 75
     2
 76
     1
 98
        0
  0
POLYLINE
  5
246
330
1F
100
AcDbEntity
  8
\U+30EC\U+30A4\U+30E4\U+30FC 1
370
     0
100
AcDb2dPolyline
 66
     1
 10
0.0
 20
0.0
 30
0.0
  0
VERTEX
  5
247
330
246
100
AcDbEntity
  8
\U+30EC\U+30A4\U+30E4\U+30FC 1
370
     0
100
AcDbVertex
100
AcDb2dVertex
 10
643.1111326517223
 20
516.3343748709165
 30
0.0
  0
VERTEX
  5
248
330
246
100
AcDbEntity
  8
\U+30EC\U+30A4\U+30E4\U+30FC 1
370
     0
100
AcDbVertex
100
AcDb2dVertex
 10
648.2291665046095
 20
497.2099608131975
 30
0.0
  0
VERTEX
  5
249
330
246
100
AcDbEntity
  8
\U+30EC\U+30A4\U+30E4\U+30FC 1
370
     0
100
AcDbVertex
100
AcDb2dVertex
 10
653.3554685866611
 20
516.3343748709165
 30
0.0
  0
SEQEND
  5
24A
330
246
100
AcDbEntity
  8
\U+30EC\U+30A4\U+30E4\U+30FC 1
370
     0
  0
HATCH
  5
24B
330
1F
100
AcDbEntity
  8
\U+30EC\U+30A4\U+30E4\U+30FC 1
 62
   168
420
  1643289
100
AcDbHatch
 10
0.0
 20
0.0
 30
0.0
210
0.0
220
0.0
230
1.0
  2
SOLID
 70
     1
 71
     0
 91
        1
 92
        1
 93
        3
 72
     1
 10
643.1111326517223
 20
516.3343748709165
 11
648.2291665046095
 21
497.2099608131975
 72
     1
 10
648.2291665046095
 20
497.2099608131975
 11
653.3554685866611
 21
516.3343748709165
 72
     1
 10
653.3554685866611
 20
516.3343748709165
 11
643.1111326517223
 21
516.3343748709165
 97
        0
 75
     2
 76
     1
 98
        0
  0
POLYLINE
  5
24C
330
1F
100
AcDbEntity
  8
\U+30EC\U+30A4\U+30E4\U+30FC 1
 62
   168
420
  1643289
370
    13
100
AcDb2dPolyline
 66
     1
 10
0.0
 20
0.0
 30
0.0
  0
VERTEX
  5
24D
330
24C
100
AcDbEntity
  8
\U+30EC\U+30A4\U+30E4\U+30FC 1
 62
   168
420
  1643289
370
    13
100
AcDbVertex
100
AcDb2dVertex
 10
648.016948622718
 20
497.2099608131975
 30
0.0
  0
VERTEX
  5
24E
330
24C
100
AcDbEntity
  8
\U+30EC\U+30A4\U+30E4\U+30FC 1
 62
   168
420
  1643289
370
    13
100
AcDbVertex
100
AcDb2dVertex
 10
595.1030380456688
 20
497.2099608131975
 30
0.0
  0
SEQEND
  5
24F
330
24C
100
AcDbEntity
  8
\U+30EC\U+30A4\U+30E4\U+30FC 1
370
    13
  0
POLYLINE
  5
250
330
1F
100
AcDbEntity
  8
\U+30EC\U+30A4\U+30E4\U+30FC 1
 62
   168
420
  1643289
370
    13
100
AcDb2dPolyline
 66
     1
 10
0.0
 20
0.0
 30
0.0
  0
VERTEX
  5
251
330
250
100
AcDbEntity
  8
\U+30EC\U+30A4\U+30E4\U+30FC 1
 62
   168
420
  1643289
370
    13
100
AcDbVertex
100
AcDb2dVertex
 10
595.1030380456688
 20
817.212478094308
 30
0.0
  0
VERTEX
  5
252
330
250
100
AcDbEntity
  8
\U+30EC\U+30A4\U+30E4\U+30FC 1
 62
   168
420
  1643289
370
    13
100
AcDbVertex
100
AcDb2dVertex
 10
648.016948622718
 20
817.212478094308
 30
0.0
  0
SEQEND
  5
253
330
250
100
AcDbEntity
  8
\U+30EC\U+30A4\U+30E4\U+30FC 1
370
    13
  0
MTEXT
  5
254
330
1F
100
AcDbEntity
  8
\U+30EC\U+30A4\U+30E4\U+30FC 1
 62
   168
420
  1643289
100
AcDbMText
 10
683.6271781060029
 20
636.7831812644154
 30
0.0
 40
24.61243068368933
 41
0.0
 71
     7
 72
     1
  1
\fATC-65b030b44c2d5357495353|b0|i0|c0|p34;\W1.02;320
 11
-4.371139000186241E-8
 21
0.999999999999999
 31
0.0
 73
     1
 44
1.0
  0
POLYLINE
  5
255
330
1F
100
AcDbEntity
  8
\U+30EC\U+30A4\U+30E4\U+30FC 1
 62
   168
420
  1643289
370
    13
100
AcDb2dPolyline
 66
     1
 10
0.0
 20
0.0
 30
0.0
  0
VERTEX
  5
256
330
255
100
AcDbEntity
  8
\U+30EC\U+30A4\U+30E4\U+30FC 1
 62
   168
420
  1643289
370
    13
100
AcDbVertex
100
AcDb2dVertex
 10
-163.2120876328081
 20
672.9153427137156
 30
0.0
  0
VERTEX
  5
257
330
255
100
AcDbEntity
  8
\U+30EC\U+30A4\U+30E4\U+30FC 1
 62
   168
420
  1643289
370
    13
100
AcDbVertex
100
AcDb2dVertex
 10
-163.2120876328081
 20
841.6643878104172
 30
0.0
  0
SEQEND
  5
258
330
255
100
AcDbEntity
  8
\U+30EC\U+30A4\U+30E4\U+30FC 1
370
    13
  0
POLYLINE
  5
259
330
1F
100
AcDbEntity
  8
\U+30EC\U+30A4\U+30E4\U+30FC 1
370
     0
100
AcDb2dPolyline
 66
     1
 10
0.0
 20
0.0
 30
0.0
  0
VERTEX
  5
25A
330
259
100
AcDbEntity
  8
\U+30EC\U+30A4\U+30E4\U+30FC 1
370
     0
100
AcDbVertex
100
AcDb2dVertex
 10
-158.3035155854241
 20
676.4072914975649
 30
0.0
  0
VERTEX
  5
25B
330
259
100
AcDbEntity
  8
\U+30EC\U+30A4\U+30E4\U+30FC 1
370
     0
100
AcDbVertex
100
AcDb2dVertex
 10
-163.4270615910877
 20
657.2883895926224
 30
0.0
  0
VERTEX
  5
25C
330
259
100
AcDbEntity
  8
\U+30EC\U+30A4\U+30E4\U+30FC 1
370
     0
100
AcDbVertex
100
AcDb2dVertex
 10
-168.5561197495277
 20
676.4072914975649
 30
0.0
  0
SEQEND
  5
25D
330
259
100
AcDbEntity
  8
\U+30EC\U+30A4\U+30E4\U+30FC 1
370
     0
  0
HATCH
  5
25E
330
1F
100
AcDbEntity
  8
\U+30EC\U+30A4\U+30E4\U+30FC 1
 62
   168
420
  1643289
100
AcDbHatch
 10
0.0
 20
0.0
 30
0.0
210
0.0
220
0.0
230
1.0
  2
SOLID
 70
     1
 71
     0
 91
        1
 92
        1
 93
        3
 72
     1
 10
-158.3035155854241
 20
676.4072914975649
 11
-163.4270615910877
 21
657.2883895926224
 72
     1
 10
-163.4270615910877
 20
657.2883895926224
 11
-168.5561197495277
 21
676.4072914975649
 72
     1
 10
-168.5561197495277
 20
676.4072914975649
 11
-158.3035155854241
 21
676.4072914975649
 97
        0
 75
     2
 76
     1
 98
        0
  0
POLYLINE
  5
25F
330
1F
100
AcDbEntity
  8
\U+30EC\U+30A4\U+30E4\U+30FC 1
370
     0
100
AcDb2dPolyline
 66
     1
 10
0.0
 20
0.0
 30
0.0
  0
VERTEX
  5
260
330
25F
100
AcDbEntity
  8
\U+30EC\U+30A4\U+30E4\U+30FC 1
370
     0
100
AcDbVertex
100
AcDb2dVertex
 10
-158.3035155854241
 20
838.1669268737917
 30
0.0
  0
VERTEX
  5
261
330
25F
100
AcDbEntity
  8
\U+30EC\U+30A4\U+30E4\U+30FC 1
370
     0
100
AcDbVertex
100
AcDb2dVertex
 10
-163.4270615910877
 20
857.283072702346
 30
0.0
  0
VERTEX
  5
262
330
25F
100
AcDbEntity
  8
\U+30EC\U+30A4\U+30E4\U+30FC 1
370
     0
100
AcDbVertex
100
AcDb2dVertex
 10
-168.5561197495277
 20
838.1669268737917
 30
0.0
  0
SEQEND
  5
263
330
25F
100
AcDbEntity
  8
\U+30EC\U+30A4\U+30E4\U+30FC 1
370
     0
  0
HATCH
  5
264
330
1F
100
AcDbEntity
  8
\U+30EC\U+30A4\U+30E4\U+30FC 1
 62
   168
420
  1643289
100
AcDbHatch
 10
0.0
 20
0.0
 30
0.0
210
0.0
220
0.0
230
1.0
  2
SOLID
 70
     1
 71
     0
 91
        1
 92
        1
 93
        3
 72
     1
 10
-158.3035155854241
 20
838.1669268737917
 11
-163.4270615910877
 21
857.283072702346
 72
     1
 10
-163.4270615910877
 20
857.283072702346
 11
-168.5561197495277
 21
838.1669268737917
 72
     1
 10
-168.5561197495277
 20
838.1669268737917
 11
-158.3035155854241
 21
838.1669268737917
 97
        0
 75
     2
 76
     1
 98
        0
  0
POLYLINE
  5
265
330
1F
100
AcDbEntity
  8
\U+30EC\U+30A4\U+30E4\U+30FC 1
 62
   168
420
  1643289
370
    13
100
AcDb2dPolyline
 66
     1
 10
0.0
 20
0.0
 30
0.0
  0
VERTEX
  5
266
330
265
100
AcDbEntity
  8
\U+30EC\U+30A4\U+30E4\U+30FC 1
 62
   168
420
  1643289
370
    13
100
AcDbVertex
100
AcDb2dVertex
 10
-163.2120876328081
 20
857.2940970078987
 30
0.0
  0
VERTEX
  5
267
330
265
100
AcDbEntity
  8
\U+30EC\U+30A4\U+30E4\U+30FC 1
 62
   168
420
  1643289
370
    13
100
AcDbVertex
100
AcDb2dVertex
 10
-110.300933132147
 20
857.2940970078987
 30
0.0
  0
SEQEND
  5
268
330
265
100
AcDbEntity
  8
\U+30EC\U+30A4\U+30E4\U+30FC 1
370
    13
  0
POLYLINE
  5
269
330
1F
100
AcDbEntity
  8
\U+30EC\U+30A4\U+30E4\U+30FC 1
 62
   168
420
  1643289
370
    13
100
AcDb2dPolyline
 66
     1
 10
0.0
 20
0.0
 30
0.0
  0
VERTEX
  5
26A
330
269
100
AcDbEntity
  8
\U+30EC\U+30A4\U+30E4\U+30FC 1
 62
   168
420
  1643289
370
    13
100
AcDbVertex
100
AcDb2dVertex
 10
-110.300933132147
 20
657.2911456690106
 30
0.0
  0
VERTEX
  5
26B
330
269
100
AcDbEntity
  8
\U+30EC\U+30A4\U+30E4\U+30FC 1
 62
   168
420
  1643289
370
    13
100
AcDbVertex
100
AcDb2dVertex
 10
-163.2120876328081
 20
657.2911456690106
 30
0.0
  0
SEQEND
  5
26C
330
269
100
AcDbEntity
  8
\U+30EC\U+30A4\U+30E4\U+30FC 1
370
    13
  0
MTEXT
  5
26D
330
1F
100
AcDbEntity
  8
\U+30EC\U+30A4\U+30E4\U+30FC 1
 62
   168
420
  1643289
100
AcDbMText
 10
-177.0155517135586
 20
734.3565536358553
 30
0.0
 40
24.61243068368933
 41
0.0
 71
     7
 72
     1
  1
\fATC-65b030b44c2d5357495353|b0|i0|c0|p34;\W1.02;200
 11
-4.371139000186241E-8
 21
0.999999999999999
 31
0.0
 73
     1
 44
1.0
  0
POLYLINE
  5
26E
330
1F
100
AcDbEntity
  8
\U+30EC\U+30A4\U+30E4\U+30FC 1
 62
   168
420
  1643289
370
    13
100
AcDb2dPolyline
 66
     1
 10
0.0
 20
0.0
 30
0.0
  0
VERTEX
  5
26F
330
26E
100
AcDbEntity
  8
\U+30EC\U+30A4\U+30E4\U+30FC 1
 62
   168
420
  1643289
370
    13
100
AcDbVertex
100
AcDb2dVertex
 10
169.3553819021056
 20
734.1746525942342
 30
0.0
  0
VERTEX
  5
270
330
26E
100
AcDbEntity
  8
\U+30EC\U+30A4\U+30E4\U+30FC 1
 62
   168
420
  1643289
370
    13
100
AcDbVertex
100
AcDb2dVertex
 10
210.2169704335569
 20
688.4733939251039
 30
0.0
  0
SEQEND
  5
271
330
26E
100
AcDbEntity
  8
\U+30EC\U+30A4\U+30E4\U+30FC 1
370
    13
  0
POLYLINE
  5
272
330
1F
100
AcDbEntity
  8
\U+30EC\U+30A4\U+30E4\U+30FC 1
370
     0
100
AcDb2dPolyline
 66
     1
 10
0.0
 20
0.0
 30
0.0
  0
VERTEX
  5
273
330
272
100
AcDbEntity
  8
\U+30EC\U+30A4\U+30E4\U+30FC 1
370
     0
100
AcDbVertex
100
AcDb2dVertex
 10
204.2280164419986
 20
687.8064234391595
 30
0.0
  0
VERTEX
  5
274
330
272
100
AcDbEntity
  8
\U+30EC\U+30A4\U+30E4\U+30FC 1
370
     0
100
AcDbVertex
100
AcDb2dVertex
 10
220.7837673059152
 20
676.9640189279812
 30
0.0
  0
VERTEX
  5
275
330
272
100
AcDbEntity
  8
\U+30EC\U+30A4\U+30E4\U+30FC 1
370
     0
100
AcDbVertex
100
AcDb2dVertex
 10
211.8651041137004
 20
694.6359807291188
 30
0.0
  0
SEQEND
  5
276
330
272
100
AcDbEntity
  8
\U+30EC\U+30A4\U+30E4\U+30FC 1
370
     0
  0
HATCH
  5
277
330
1F
100
AcDbEntity
  8
\U+30EC\U+30A4\U+30E4\U+30FC 1
 62
   168
420
  1643289
100
AcDbHatch
 10
0.0
 20
0.0
 30
0.0
210
0.0
220
0.0
230
1.0
  2
SOLID
 70
     1
 71
     0
 91
        1
 92
        1
 93
        3
 72
     1
 10
204.2280164419986
 20
687.8064234391595
 11
220.7837673059152
 21
676.9640189279812
 72
     1
 10
220.7837673059152
 20
676.9640189279812
 11
211.8651041137004
 21
694.6359807291188
 72
     1
 10
211.8651041137004
 20
694.6359807291188
 11
204.2280164419986
 21
687.8064234391595
 97
        0
 75
     2
 76
     1
 98
        0
  0
MTEXT
  5
278
330
1F
100
AcDbEntity
  8
\U+30EC\U+30A4\U+30E4\U+30FC 1
 62
   168
420
  1643289
100
AcDbMText
 10
176.7251301641521
 20
740.9473658086868
 30
0.0
 40
24.61243068368933
 41
0.0
 71
     7
 72
     1
  1
\fATC-65b030b44c2d5357495353|b0|i0|c0|p34;\W1.02;\U+00D8 45
 73
     1
 44
1.0
  0
POLYLINE
  5
279
330
1F
100
AcDbEntity
  8
\U+30EC\U+30A4\U+30E4\U+30FC 1
 62
   179
420
  2234388
370
    18
100
AcDb2dPolyline
 66
     1
 10
0.0
 20
0.0
 30
0.0
  0
VERTEX
  5
27A
330
279
100
AcDbEntity
  8
\U+30EC\U+30A4\U+30E4\U+30FC 1
 62
   179
420
  2234388
370
    18
100
AcDbVertex
100
AcDb2dVertex
 10
181.1293402324955
 20
-287.5745224975508
 30
0.0
  0
VERTEX
  5
27B
330
279
100
AcDbEntity
  8
\U+30EC\U+30A4\U+30E4\U+30FC 1
 62
   179
420
  2234388
370
    18
100
AcDbVertex
100
AcDb2dVertex
 10
-430.6920571839937
 20
-287.5745224975508
 30
0.0
  0
SEQEND
  5
27C
330
279
100
AcDbEntity
  8
\U+30EC\U+30A4\U+30E4\U+30FC 1
370
    18
  0
SPLINE
  5
27D
330
1F
100
AcDbEntity
  8
\U+30EC\U+30A4\U+30E4\U+30FC 1
  6
AI-Linetype-9
 62
   179
420
  2234388
370
    25
100
AcDbSpline
210
0.0
220
0.0
230
1.0
 70
    11
 71
     3
 72
    17
 73
    13
 74
     0
 42
0.0000000001
 43
0.0000000001
 40
0.0
 40
0.0
 40
0.0
 40
0.0
 40
1.0
 40
1.0
 40
1.0
 40
2.0
 40
2.0
 40
2.0
 40
3.0
 40
3.0
 40
3.0
 40
4.0
 40
4.0
 40
4.0
 40
4.0
 10
313.2280815189152
 20
-277.0435546182391
 30
0.0
 10
313.2280815189152
 20
-314.0824651992572
 30
0.0
 10
283.1978731930894
 20
-344.1044052959184
 30
0.0
 10
246.1589626120714
 20
-344.1044052959184
 30
0.0
 10
209.1255641838297
 20
-344.1044052959184
 30
0.0
 10
179.095355858004
 20
-314.0824651992572
 30
0.0
 10
179.095355858004
 20
-277.0435546182391
 30
0.0
 10
179.095355858004
 20
-239.9991318844447
 30
0.0
 10
209.1255641838297
 20
-209.9771917877835
 30
0.0
 10
246.1589626120714
 20
-209.9771917877835
 30
0.0
 10
283.1978731930894
 20
-209.9771917877835
 30
0.0
 10
313.2280815189152
 20
-239.9991318844447
 30
0.0
 10
313.2280815189152
 20
-277.0435546182391
 30
0.0
  0
MTEXT
  5
27F
330
1F
100
AcDbEntity
  8
\U+30EC\U+30A4\U+30E4\U+30FC 1
 62
   179
420
  2234388
100
AcDbMText
 10
1448.692968387827
 20
1101.808887799635
 30
0.0
 40
13.99711100517104
 41
0.0
 71
     7
 72
     1
  1
\fATC-65b030b44c2d5357495353|b0|i0|c0|p34;\W1.02;150324RT
 73
     1
 44
1.0
  0
ENDSEC
  0
SECTION
  2
OBJECTS
  0
DICTIONARY
  5
C
330
0
100
AcDbDictionary
281
     1
  3
ACAD_GROUP
350
D
  3
ACAD_LAYOUT
350
1A
  3
ACAD_MLINESTYLE
350
17
  3
ACAD_PLOTSETTINGS
350
19
  3
ACAD_PLOTSTYLENAME
350
E
  3
ACAD_TABLESTYLE
350
280
  3
ACAD_VISUALSTYLE
350
2A
  0
DICTIONARY
  5
D
102
{ACAD_REACTORS
330
C
102
}
330
C
100
AcDbDictionary
281
     1
  0
DICTIONARY
  5
1A
102
{ACAD_REACTORS
330
C
102
}
330
C
100
AcDbDictionary
281
     1
  3
Layout1
350
1E
  3
Layout2
350
26
  3
Model
350
22
  0
DICTIONARY
  5
17
102
{ACAD_REACTORS
330
C
102
}
330
C
100
AcDbDictionary
281
     1
  3
Standard
350
18
  0
DICTIONARY
  5
19
102
{ACAD_REACTORS
330
C
102
}
330
C
100
AcDbDictionary
281
     1
  0
ACDBDICTIONARYWDFLT
  5
E
102
{ACAD_REACTORS
330
C
102
}
330
C
100
AcDbDictionary
281
     1
  3
Normal
350
F
100
AcDbDictionaryWithDefault
340
F
  0
DICTIONARY
  5
280
102
{ACAD_REACTORS
330
C
102
}
330
C
100
AcDbDictionary
281
     1
  0
DICTIONARY
  5
2A
102
{ACAD_REACTORS
330
C
102
}
330
C
100
AcDbDictionary
281
     1
  3
2dWireframe
350
2F
  3
3D Hidden
350
31
  3
3dWireframe
350
30
  3
Basic
350
32
  3
Brighten
350
36
  3
ColorChange
350
3A
  3
Conceptual
350
34
  3
Dim
350
35
  3
Facepattern
350
39
  3
Flat
350
2B
  3
FlatWithEdges
350
2C
  3
Gouraud
350
2D
  3
GouraudWithEdges
350
2E
  3
Linepattern
350
38
  3
Realistic
350
33
  3
Thicken
350
37
  0
LAYOUT
  5
1E
102
{ACAD_REACTORS
330
1A
102
}
330
1A
100
AcDbPlotSettings
  1

  2
none_device
  4

  6

 40
0.0
 41
0.0
 42
0.0
 43
0.0
 44
0.0
 45
0.0
 46
0.0
 47
0.0
 48
0.0
 49
0.0
140
0.0
141
0.0
142
1.0
143
1.0
 70
   688
 72
     0
 73
     0
 74
     5
  7

 75
    16
 76
     0
 77
     2
 78
   300
147
1.0
148
0.0
149
0.0
100
AcDbLayout
  1
Layout1
 70
     1
 71
     1
 10
0.0
 20
0.0
 11
12.0
 21
9.0
 12
0.0
 22
0.0
 32
0.0
 14
1.000000000000000E+20
 24
1.000000000000000E+20
 34
1.000000000000000E+20
 15
-1.000000000000000E+20
 25
-1.000000000000000E+20
 35
-1.000000000000000E+20
146
0.0
 13
0.0
 23
0.0
 33
0.0
 16
1.0
 26
0.0
 36
0.0
 17
0.0
 27
1.0
 37
0.0
 76
     0
330
1B
  0
LAYOUT
  5
26
102
{ACAD_REACTORS
330
1A
102
}
330
1A
100
AcDbPlotSettings
  1

  2
none_device
  4

  6

 40
0.0
 41
0.0
 42
0.0
 43
0.0
 44
0.0
 45
0.0
 46
0.0
 47
0.0
 48
0.0
 49
0.0
140
0.0
141
0.0
142
1.0
143
1.0
 70
   688
 72
     0
 73
     0
 74
     5
  7

 75
    16
 76
     0
 77
     2
 78
   300
147
1.0
148
0.0
149
0.0
100
AcDbLayout
  1
Layout2
 70
     1
 71
     2
 10
0.0
 20
0.0
 11
0.0
 21
0.0
 12
0.0
 22
0.0
 32
0.0
 14
0.0
 24
0.0
 34
0.0
 15
0.0
 25
0.0
 35
0.0
146
0.0
 13
0.0
 23
0.0
 33
0.0
 16
1.0
 26
0.0
 36
0.0
 17
0.0
 27
1.0
 37
0.0
 76
     0
330
23
  0
LAYOUT
  5
22
102
{ACAD_REACTORS
330
1A
102
}
330
1A
100
AcDbPlotSettings
  1

  2
none_device
  4

  6

 40
0.0
 41
0.0
 42
0.0
 43
0.0
 44
0.0
 45
0.0
 46
0.0
 47
0.0
 48
0.0
 49
0.0
140
0.0
141
0.0
142
1.0
143
1.0
 70
  1712
 72
     0
 73
     0
 74
     0
  7

 75
     0
 76
     0
 77
     2
 78
   300
147
1.0
148
0.0
149
0.0
100
AcDbLayout
  1
Model
 70
     1
 71
     0
 10
0.0
 20
0.0
 11
12.0
 21
9.0
 12
0.0
 22
0.0
 32
0.0
 14
1.000000000000000E+20
 24
1.000000000000000E+20
 34
1.000000000000000E+20
 15
-1.000000000000000E+20
 25
-1.000000000000000E+20
 35
-1.000000000000000E+20
146
0.0
 13
0.0
 23
0.0
 33
0.0
 16
1.0
 26
0.0
 36
0.0
 17
0.0
 27
1.0
 37
0.0
 76
     0
330
1F
331
29
  0
MLINESTYLE
  5
18
102
{ACAD_REACTORS
330
17
102
}
330
17
100
AcDbMlineStyle
  2
Standard
 70
     0
  3

 62
   256
 51
90.0
 52
90.0
 71
     2
 49
0.5
 62
   256
  6
BYLAYER
 49
-0.5
 62
   256
  6
BYLAYER
  0
ACDBPLACEHOLDER
  5
F
102
{ACAD_REACTORS
330
E
102
}
330
E
  0
VISUALSTYLE
  5
2F
102
{ACAD_REACTORS
330
2A
102
}
330
2A
100
AcDbVisualStyle
  2
2dWireframe
 70
     4
 71
     0
 72
     2
 73
     0
 90
        0
 40
-0.6
 41
-30.0
 62
     5
 63
     7
421
 16777215
 74
     1
 91
        4
 64
     7
 65
   257
 75
     1
175
     1
 42
1.0
 92
        0
 66
   257
 43
1.0
 76
     1
 77
     6
 78
     2
 67
     7
 79
     5
170
     0
171
     0
290
     0
174
     0
 93
        1
 44
0.0
173
     0
291
     0
 45
0.0
1001
ACAD
1000
AcDbSavedByObjectVersion
1070
     0
  0
VISUALSTYLE
  5
31
102
{ACAD_REACTORS
330
2A
102
}
330
2A
100
AcDbVisualStyle
  2
3D Hidden
 70
     6
 71
     1
 72
     2
 73
     2
 90
        0
 40
-0.6
 41
-30.0
 62
     5
 63
     7
421
 16777215
 74
     2
 91
        2
 64
     7
 65
   257
 75
     2
175
     1
 42
40.0
 92
        0
 66
   257
 43
1.0
 76
     1
 77
     6
 78
     2
 67
     7
 79
     3
170
     0
171
     0
290
     0
174
     0
 93
        1
 44
0.0
173
     0
291
     0
 45
0.0
1001
ACAD
1000
AcDbSavedByObjectVersion
1070
     0
  0
VISUALSTYLE
  5
30
102
{ACAD_REACTORS
330
2A
102
}
330
2A
100
AcDbVisualStyle
  2
3dWireframe
 70
     5
 71
     0
 72
     2
 73
     0
 90
        0
 40
-0.6
 41
-30.0
 62
     5
 63
     7
421
 16777215
 74
     1
 91
        4
 64
     7
 65
   257
 75
     1
175
     1
 42
1.0
 92
        0
 66
   257
 43
1.0
 76
     1
 77
     6
 78
     2
 67
     7
 79
     5
170
     0
171
     0
290
     0
174
     0
 93
        1
 44
0.0
173
     0
291
     0
 45
0.0
1001
ACAD
1000
AcDbSavedByObjectVersion
1070
     0
  0
VISUALSTYLE
  5
32
102
{ACAD_REACTORS
330
2A
102
}
330
2A
100
AcDbVisualStyle
  2
Basic
 70
     7
 71
     1
 72
     0
 73
     1
 90
        0
 40
-0.6
 41
-30.0
 62
     5
 63
     7
421
 16777215
 74
     0
 91
        4
 64
     7
 65
   257
 75
     1
175
     1
 42
1.0
 92
        8
 66
     7
 43
1.0
 76
     1
 77
     6
 78
     2
 67
     7
 79
     5
170
     0
171
     0
290
     0
174
     0
 93
        1
 44
0.0
173
     0
291
     1
 45
0.0
1001
ACAD
1000
AcDbSavedByObjectVersion
1070
     0
  0
VISUALSTYLE
  5
36
102
{ACAD_REACTORS
330
2A
102
}
330
2A
100
AcDbVisualStyle
  2
Brighten
 70
    12
 71
     2
 72
     2
 73
     0
 90
        0
 40
-0.6
 41
-30.0
 62
     5
 63
     7
421
 16777215
 74
     1
 91
        4
 64
     7
 65
   257
 75
     1
175
     1
 42
1.0
 92
        8
 66
     7
 43
1.0
 76
     1
 77
     6
 78
     2
 67
     7
 79
     5
170
     0
171
     0
290
     0
174
     0
 93
        1
 44
50.0
173
     0
291
     1
 45
0.0
1001
ACAD
1000
AcDbSavedByObjectVersion
1070
     0
  0
VISUALSTYLE
  5
3A
102
{ACAD_REACTORS
330
2A
102
}
330
2A
100
AcDbVisualStyle
  2
ColorChange
 70
    16
 71
     2
 72
     2
 73
     3
 90
        0
 40
-0.6
 41
-30.0
 62
     5
 63
     8
421
  8421504
 74
     1
 91
        4
 64
     7
 65
   257
 75
     1
175
     1
 42
1.0
 92
        8
 66
     8
424
  8421504
 43
1.0
 76
     1
 77
     6
 78
     2
 67
     7
 79
     5
170
     0
171
     0
290
     0
174
     0
 93
        1
 44
0.0
173
     0
291
     1
 45
0.0
1001
ACAD
1000
AcDbSavedByObjectVersion
1070
     0
  0
VISUALSTYLE
  5
34
102
{ACAD_REACTORS
330
2A
102
}
330
2A
100
AcDbVisualStyle
  2
Conceptual
 70
     9
 71
     3
 72
     2
 73
     0
 90
        0
 40
-0.6
 41
-30.0
 62
     5
 63
     7
421
 16777215
 74
     2
 91
        2
 64
     7
 65
   257
 75
     1
175
     1
 42
40.0
 92
        8
 66
     7
 43
1.0
 76
     1
 77
     6
 78
     2
 67
     7
 79
     3
170
     0
171
     0
290
     0
174
     0
 93
        1
 44
0.0
173
     0
291
     0
 45
0.0
1001
ACAD
1000
AcDbSavedByObjectVersion
1070
     0
  0
VISUALSTYLE
  5
35
102
{ACAD_REACTORS
330
2A
102
}
330
2A
100
AcDbVisualStyle
  2
Dim
 70
    11
 71
     2
 72
     2
 73
     0
 90
        0
 40
-0.6
 41
-30.0
 62
     5
 63
     7
421
 16777215
 74
     1
 91
        4
 64
     7
 65
   257
 75
     1
175
     1
 42
1.0
 92
        8
 66
     7
 43
1.0
 76
     1
 77
     6
 78
     2
 67
     7
 79
     5
170
     0
171
     0
290
     0
174
     0
 93
        1
 44
-50.0
173
     0
291
     1
 45
0.0
1001
ACAD
1000
AcDbSavedByObjectVersion
1070
     0
  0
VISUALSTYLE
  5
39
102
{ACAD_REACTORS
330
2A
102
}
330
2A
100
AcDbVisualStyle
  2
Facepattern
 70
    15
 71
     2
 72
     2
 73
     0
 90
        0
 40
-0.6
 41
-30.0
 62
     5
 63
     7
421
 16777215
 74
     1
 91
        4
 64
     7
 65
   257
 75
     1
175
     1
 42
1.0
 92
        8
 66
     7
 43
1.0
 76
     1
 77
     6
 78
     2
 67
     7
 79
     5
170
     0
171
     0
290
     0
174
     0
 93
        1
 44
0.0
173
     0
291
     1
 45
0.0
1001
ACAD
1000
AcDbSavedByObjectVersion
1070
     0
  0
VISUALSTYLE
  5
2B
102
{ACAD_REACTORS
330
2A
102
}
330
2A
100
AcDbVisualStyle
  2
Flat
 70
     0
 71
     2
 72
     1
 73
     1
 90
        2
 40
-0.6
 41
30.0
 62
     5
 63
     7
421
 16777215
 74
     0
 91
        4
 64
     7
 65
   257
 75
     1
175
     1
 42
1.0
 92
        8
 66
     7
 43
1.0
 76
     1
 77
     6
 78
     2
 67
     7
 79
     5
170
     0
171
     0
290
     0
174
     0
 93
       13
 44
0.0
173
     0
291
     1
 45
0.0
1001
ACAD
1000
AcDbSavedByObjectVersion
1070
     0
  0
VISUALSTYLE
  5
2C
102
{ACAD_REACTORS
330
2A
102
}
330
2A
100
AcDbVisualStyle
  2
FlatWithEdges
 70
     1
 71
     2
 72
     1
 73
     1
 90
        2
 40
-0.6
 41
30.0
 62
     5
 63
     7
421
 16777215
 74
     1
 91
        4
 64
     7
 65
   257
 75
     1
175
     1
 42
1.0
 92
        0
 66
   257
 43
1.0
 76
     1
 77
     6
 78
     2
 67
     7
 79
     5
170
     0
171
     0
290
     0
174
     0
 93
       13
 44
0.0
173
     0
291
     1
 45
0.0
1001
ACAD
1000
AcDbSavedByObjectVersion
1070
     0
  0
VISUALSTYLE
  5
2D
102
{ACAD_REACTORS
330
2A
102
}
330
2A
100
AcDbVisualStyle
  2
Gouraud
 70
     2
 71
     2
 72
     2
 73
     1
 90
        2
 40
-0.6
 41
30.0
 62
     5
 63
     7
421
 16777215
 74
     0
 91
        4
 64
     7
 65
   257
 75
     1
175
     1
 42
1.0
 92
        0
 66
     7
 43
1.0
 76
     1
 77
     6
 78
     2
 67
     7
 79
     5
170
     0
171
     0
290
     0
174
     0
 93
       13
 44
0.0
173
     0
291
     1
 45
0.0
1001
ACAD
1000
AcDbSavedByObjectVersion
1070
     0
  0
VISUALSTYLE
  5
2E
102
{ACAD_REACTORS
330
2A
102
}
330
2A
100
AcDbVisualStyle
  2
GouraudWithEdges
 70
     3
 71
     2
 72
     2
 73
     1
 90
        2
 40
-0.6
 41
30.0
 62
     5
 63
     7
421
 16777215
 74
     1
 91
        4
 64
     7
 65
   257
 75
     1
175
     1
 42
1.0
 92
        0
 66
   257
 43
1.0
 76
     1
 77
     6
 78
     2
 67
     7
 79
     5
170
     0
171
     0
290
     0
174
     0
 93
       13
 44
0.0
173
     0
291
     1
 45
0.0
1001
ACAD
1000
AcDbSavedByObjectVersion
1070
     0
  0
VISUALSTYLE
  5
38
102
{ACAD_REACTORS
330
2A
102
}
330
2A
100
AcDbVisualStyle
  2
Linepattern
 70
    14
 71
     2
 72
     2
 73
     0
 90
        0
 40
-0.6
 41
-30.0
 62
     5
 63
     7
421
 16777215
 74
     1
 91
        4
 64
     7
 65
   257
 75
     7
175
     7
 42
1.0
 92
        8
 66
     7
 43
1.0
 76
     1
 77
     6
 78
     2
 67
     7
 79
     5
170
     0
171
     0
290
     0
174
     0
 93
        1
 44
0.0
173
     0
291
     1
 45
0.0
1001
ACAD
1000
AcDbSavedByObjectVersion
1070
     0
  0
VISUALSTYLE
  5
33
102
{ACAD_REACTORS
330
2A
102
}
330
2A
100
AcDbVisualStyle
  2
Realistic
 70
     8
 71
     2
 72
     2
 73
     0
 90
        0
 40
-0.6
 41
-30.0
 62
     5
 63
     7
421
 16777215
 74
     1
 91
        0
 64
     7
 65
   257
 75
     1
175
     1
 42
1.0
 92
        8
 66
     8
424
  7895160
 43
1.0
 76
     1
 77
     6
 78
     2
 67
     7
 79
     5
170
     0
171
     0
290
     0
174
     0
 93
       13
 44
0.0
173
     0
291
     0
 45
0.0
1001
ACAD
1000
AcDbSavedByObjectVersion
1070
     0
  0
VISUALSTYLE
  5
37
102
{ACAD_REACTORS
330
2A
102
}
330
2A
100
AcDbVisualStyle
  2
Thicken
 70
    13
 71
     2
 72
     2
 73
     0
 90
        0
 40
-0.6
 41
-30.0
 62
     5
 63
     7
421
 16777215
 74
     1
 91
        4
 64
     7
 65
   257
 75
     1
175
     1
 42
1.0
 92
       12
 66
     7
 43
1.0
 76
     1
 77
     6
 78
     2
 67
     7
 79
     5
170
     0
171
     0
290
     0
174
     0
 93
        1
 44
0.0
173
     0
291
     1
 45
0.0
1001
ACAD
1000
AcDbSavedByObjectVersion
1070
     0
  0
ENDSEC
  0
EOF
