  0
SECTION
  2
HEADER
  9
$ACADVER
  1
AC1009
  9
$INSBASE
 10
0.0
 20
0.0
 30
0.0
  9
$EXTMIN
 10
0.238058
 20
0.4482100000000001
 30
0.0
  9
$EXTMAX
 10
210.24000000000001
 20
297.44999999999987
 30
0.0
  9
$LIMMIN
 10
0.0
 20
0.0
  9
$LIMMAX
 10
12.0
 20
9.0
  9
$ORTHOMODE
 70
     0
  9
$REGENMODE
 70
     1
  9
$FILLMODE
 70
     1
  9
$QTEXTMODE
 70
     0
  9
$MIRRTEXT
 70
     1
  9
$DRAGMODE
 70
     2
  9
$LTSCALE
 40
1.0
  9
$OSMODE
 70
    37
  9
$ATTMODE
 70
     1
  9
$TEXTSIZE
 40
0.0
  9
$TRACEWID
 40
0.05
  9
$TEXTSTYLE
  7
STANDARD
  9
$CLAYER
  8
0
  9
$CELTYPE
  6
CONTINUOUS
  9
$CECOLOR
 62
   256
  9
$DIMSCALE
 40
1.0
  9
$DIMASZ
 40
0.18
  9
$DIMEXO
 40
0.0625
  9
$DIMDLI
 40
0.38
  9
$DIMRND
 40
0.0
  9
$DIMDLE
 40
0.0
  9
$DIMEXE
 40
0.18
  9
$DIMTP
 40
0.0
  9
$DIMTM
 40
0.0
  9
$DIMTXT
 40
0.18
  9
$DIMCEN
 40
0.09
  9
$DIMTSZ
 40
0.0
  9
$DIMTOL
 70
     0
  9
$DIMLIM
 70
     0
  9
$DIMTIH
 70
     1
  9
$DIMTOH
 70
     1
  9
$DIMSE1
 70
     0
  9
$DIMSE2
 70
     0
  9
$DIMTAD
 70
     0
  9
$DIMZIN
 70
     0
  9
$DIMBLK
  1

  9
$DIMASO
 70
     1
  9
$DIMSHO
 70
     1
  9
$DIMPOST
  1

  9
$DIMAPOST
  1

  9
$DIMALT
 70
     0
  9
$DIMALTD
 70
     2
  9
$DIMALTF
 40
25.399999999999999
  9
$DIMLFAC
 40
1.0
  9
$DIMTOFL
 70
     0
  9
$DIMTVP
 40
0.0
  9
$DIMTIX
 70
     0
  9
$DIMSOXD
 70
     0
  9
$DIMSAH
 70
     0
  9
$DIMBLK1
  1

  9
$DIMBLK2
  1

  9
$DIMSTYLE
  2
STANDARD
  9
$DIMCLRD
 70
     0
  9
$DIMCLRE
 70
     0
  9
$DIMCLRT
 70
     0
  9
$DIMTFAC
 40
1.0
  9
$DIMGAP
 40
0.09
  9
$LUNITS
 70
     2
  9
$LUPREC
 70
     4
  9
$SKETCHINC
 40
0.1
  9
$FILLETRAD
 40
0.0
  9
$AUNITS
 70
     0
  9
$AUPREC
 70
     0
  9
$MENU
  1
.
  9
$ELEVATION
 40
0.0
  9
$PELEVATION
 40
0.0
  9
$THICKNESS
 40
0.0
  9
$LIMCHECK
 70
     0
  9
$BLIPMODE
 70
     0
  9
$CHAMFERA
 40
0.0
  9
$CHAMFERB
 40
0.0
  9
$SKPOLY
 70
     0
  9
$TDCREATE
 40
2444972.375
  9
$TDUPDATE
 40
2455965.3657429051
  9
$TDINDWG
 40
0.0000081829
  9
$TDUSRTIMER
 40
0.0000081829
  9
$USRTIMER
 70
     1
  9
$ANGBASE
 50
0.0
  9
$ANGDIR
 70
     0
  9
$PDMODE
 70
     0
  9
$PDSIZE
 40
0.0
  9
$PLINEWID
 40
0.0
  9
$COORDS
 70
     1
  9
$SPLFRAME
 70
     0
  9
$SPLINETYPE
 70
     6
  9
$SPLINESEGS
 70
     8
  9
$ATTDIA
 70
     0
  9
$ATTREQ
 70
     1
  9
$HANDLING
 70
     1
  9
$HANDSEED
  5
1C4
  9
$SURFTAB1
 70
     6
  9
$SURFTAB2
 70
     6
  9
$SURFTYPE
 70
     6
  9
$SURFU
 70
     6
  9
$SURFV
 70
     6
  9
$UCSNAME
  2

  9
$UCSORG
 10
0.0
 20
0.0
 30
0.0
  9
$UCSXDIR
 10
1.0
 20
0.0
 30
0.0
  9
$UCSYDIR
 10
0.0
 20
1.0
 30
0.0
  9
$PUCSNAME
  2

  9
$PUCSORG
 10
0.0
 20
0.0
 30
0.0
  9
$PUCSXDIR
 10
1.0
 20
0.0
 30
0.0
  9
$PUCSYDIR
 10
0.0
 20
1.0
 30
0.0
  9
$USERI1
 70
     0
  9
$USERI2
 70
     0
  9
$USERI3
 70
     0
  9
$USERI4
 70
     0
  9
$USERI5
 70
     0
  9
$USERR1
 40
0.0
  9
$USERR2
 40
0.0
  9
$USERR3
 40
0.0
  9
$USERR4
 40
0.0
  9
$USERR5
 40
0.0
  9
$WORLDVIEW
 70
     1
  9
$SHADEDGE
 70
     3
  9
$SHADEDIF
 70
    70
  9
$TILEMODE
 70
     1
  9
$MAXACTVP
 70
    48
  9
$PLIMCHECK
 70
     0
  9
$PEXTMIN
 10
1.0000000000000000E+020
 20
1.0000000000000000E+020
 30
1.0000000000000000E+020
  9
$PEXTMAX
 10
-1.0000000000000000E+020
 20
-1.0000000000000000E+020
 30
-1.0000000000000000E+020
  9
$PLIMMIN
 10
0.0
 20
0.0
  9
$PLIMMAX
 10
12.0
 20
9.0
  9
$UNITMODE
 70
     0
  9
$VISRETAIN
 70
     1
  9
$PLINEGEN
 70
     0
  9
$PSLTSCALE
 70
     1
  0
ENDSEC
  0
SECTION
  2
TABLES
  0
TABLE
  2
VPORT
 70
     2
  0
VPORT
  2
*ACTIVE
 70
     0
 10
0.0
 20
0.0
 11
1.0
 21
1.0
 12
210.2887023820887
 22
148.72499999999991
 13
0.0
 23
0.0
 14
1.0
 24
1.0
 15
0.0
 25
0.0
 16
0.0
 26
0.0
 36
1.0
 17
0.0
 27
0.0
 37
0.0
 40
299.69773299748101
 41
2.2894736842105261
 42
50.0
 43
0.0
 44
0.0
 50
0.0
 51
0.0
 71
     0
 72
   100
 73
     1
 74
     1
 75
     0
 76
     0
 77
     0
 78
     0
  0
ENDTAB
  0
TABLE
  2
LTYPE
 70
     4
  0
LTYPE
  2
CONTINUOUS
 70
     0
  3
Solid line
 72
    65
 73
     0
 40
0.0
  0
LTYPE
  2
AIGENLINE001
 70
     0
  3
generate AI->DXF Converter
 72
    65
 73
     2
 40
0.9999879999999999
 49
0.499994
 49
-0.499994
  0
LTYPE
  2
AIGENLINE002
 70
     0
  3
generate AI->DXF Converter
 72
    65
 73
     4
 40
5.8561449999999988
 49
3.5278
 49
-0.776115
 49
0.776115
 49
-0.776115
  0
LTYPE
  2
AIGENLINE003
 70
     0
  3
generate AI->DXF Converter
 72
    65
 73
     4
 40
4.8283550000000002
 49
2.5000100000000001
 49
-0.776115
 49
0.776115
 49
-0.776115
  0
ENDTAB
  0
TABLE
  2
LAYER
 70
     2
  0
LAYER
  2
0
 70
     0
 62
     7
  6
CONTINUOUS
  0
LAYER
  2
_________2
 70
     0
 62
     7
  6
CONTINUOUS
  0
ENDTAB
  0
TABLE
  2
STYLE
 70
     1
  0
STYLE
  2
STANDARD
 70
     0
 40
0.0
 41
0.0
 50
0.0
 71
     0
 42
0.0
  3
TXT
  4
EXTFONT.SHX
  0
ENDTAB
  0
TABLE
  2
VIEW
 70
     0
  0
ENDTAB
  0
TABLE
  2
UCS
 70
     0
  0
ENDTAB
  0
TABLE
  2
APPID
 70
     1
  0
APPID
  2
ACAD
 70
     0
  0
ENDTAB
  0
TABLE
  2
DIMSTYLE
 70
     1
  0
DIMSTYLE
  2
STANDARD
 70
     0
  3

  4

  5

  6

  7

 40
1.0
 41
0.18
 42
0.0625
 43
0.38
 44
0.18
 45
0.0
 46
0.0
 47
0.0
 48
0.0
140
0.18
141
0.09
142
0.0
143
25.399999999999999
144
1.0
145
0.0
146
1.0
147
0.09
 71
     0
 72
     0
 73
     1
 74
     1
 75
     0
 76
     0
 77
     0
 78
     0
170
     0
171
     2
172
     0
173
     0
174
     0
175
     0
176
     0
177
     0
178
     0
  0
ENDTAB
  0
ENDSEC
  0
SECTION
  2
BLOCKS
  0
BLOCK
  8
0
  2
$MODEL_SPACE
 70
     0
 10
0.0
 20
0.0
 30
0.0
  3
$MODEL_SPACE
  1

  0
ENDBLK
  5
1A
  8
0
  0
BLOCK
 67
     1
  8
0
  2
$PAPER_SPACE
 70
     0
 10
0.0
 20
0.0
 30
0.0
  3
$PAPER_SPACE
  1

  0
ENDBLK
  5
17
 67
     1
  8
0
  0
ENDSEC
  0
SECTION
  2
ENTITIES
  0
TEXT
  5
24
  8
0
 62
     7
 10
86.486379999999997
 20
231.02799999999999
 30
0.0
 40
3.0923400000000001
  1
%%c35
 41
0.5
 72
     2
 11
90.609499999999997
 21
231.02799999999999
 31
0.0
  0
TEXT
  5
25
  8
0
 62
     7
 10
70.461299999999994
 20
120.8988299999999
 30
0.0
 40
3.0923400000000001
  1
115
 50
90.0
 41
0.5
 72
     1
 11
70.461299999999994
 21
122.44499999999999
 31
0.0
  0
TEXT
  5
26
  8
0
 62
     7
 10
132.30399999999989
 20
118.1419825
 30
0.0
 40
3.0923400000000001
  1
170
 50
90.0
 41
0.5
 72
     1
 11
132.30399999999989
 21
119.81699999999999
 31
0.0
  0
TEXT
  5
27
  8
0
 62
     7
 10
125.6899999999999
 20
119.6419825
 30
0.0
 40
3.0923400000000001
  1
130
 50
90.0
 41
0.5
 72
     1
 11
125.6899999999999
 21
121.31699999999999
 31
0.0
  0
TEXT
  5
28
  8
0
 62
     7
 10
109.464
 20
130.716745
 30
0.0
 40
3.0923400000000001
  1
50
 50
90.0
 41
0.5
 72
     2
 11
109.464
 21
133.03599999999989
 31
0.0
  0
TEXT
  5
29
  8
0
 62
     7
 10
125.6879999999999
 20
177.5259999999999
 30
0.0
 40
3.0923400000000001
  1
35
 50
90.0
 41
0.5
  0
TEXT
  5
2A
  8
0
 62
     7
 10
132.30399999999989
 20
201.5532874999999
 30
0.0
 40
3.0923400000000001
  1
490
 50
90.0
 41
0.5
 72
     1
 11
132.30399999999989
 21
203.48599999999999
 31
0.0
  0
TEXT
  5
2B
  8
0
 62
     7
 10
125.6879999999999
 20
217.410135
 30
0.0
 40
3.0923400000000001
  1
125
 50
90.0
 41
0.5
 72
     1
 11
125.6879999999999
 21
219.214
 31
0.0
  0
TEXT
  5
2C
  8
0
 62
     7
 10
125.6879999999999
 20
198.7922874999999
 30
0.0
 40
3.0923400000000001
  1
330
 50
90.0
 41
0.5
 72
     1
 11
125.6879999999999
 21
200.72499999999991
 31
0.0
  0
TEXT
  5
2D
  8
0
 62
     7
 10
65.976600000000005
 20
202.17400000000001
 30
0.0
 40
3.0923400000000001
  1
%%c46
 50
45.0
 41
0.5
  0
TEXT
  5
2E
  8
0
 62
     7
 10
89.500699999999995
 20
220.78052500000001
 30
0.0
 40
3.0923400000000001
  1
65
 50
90.0
 41
0.5
 72
     1
 11
89.500699999999995
 21
222.06899999999999
 31
0.0
  0
TEXT
  5
2F
  8
0
 62
     7
 10
56.852499999999992
 20
215.7609824999999
 30
0.0
 40
3.0923400000000001
  1
190
 50
90.0
 41
0.5
 72
     1
 11
56.852499999999992
 21
217.43599999999989
 31
0.0
  0
TEXT
  5
30
  8
0
 62
     7
 10
38.68363999999999
 20
175.04599999999991
 30
0.0
 40
3.0923400000000001
  1
255
 41
0.5
 72
     1
 11
40.74519999999999
 21
175.04599999999991
 31
0.0
  0
TEXT
  5
31
  8
0
 62
     7
 10
104.83044
 20
175.04599999999991
 30
0.0
 40
3.0923400000000001
  1
255
 41
0.5
 72
     1
 11
106.892
 21
175.04599999999991
 31
0.0
  0
TEXT
  5
32
  8
0
 62
     7
 10
51.806987499999998
 20
136.15399999999991
 30
0.0
 40
3.0923400000000001
  1
205
 41
0.5
 72
     1
 11
53.739699999999992
 21
136.15399999999991
 31
0.0
  0
TEXT
  5
33
  8
0
 62
     7
 10
170.5629825
 20
106.9039999999999
 30
0.0
 40
3.0923400000000001
  1
190
 41
0.5
 72
     1
 11
172.238
 21
106.9039999999999
 31
0.0
  0
TEXT
  5
34
  8
0
 62
     7
 10
92.229587500000008
 20
136.15399999999991
 30
0.0
 40
3.0923400000000001
  1
205
 41
0.5
 72
     1
 11
94.162300000000002
 21
136.15399999999991
 31
0.0
  0
TEXT
  5
35
  8
0
 62
     7
 10
71.871387500000012
 20
136.15399999999991
 30
0.0
 40
3.0923400000000001
  1
280
 41
0.5
 72
     1
 11
73.804100000000005
 21
136.15399999999991
 31
0.0
  0
TEXT
  5
36
  8
0
 62
     7
 10
71.871387500000012
 20
175.04599999999991
 30
0.0
 40
3.0923400000000001
  1
540
 41
0.5
 72
     1
 11
73.804100000000005
 21
175.04599999999991
 31
0.0
  0
TEXT
  5
37
  8
0
 62
     7
 10
71.484845000000007
 20
239.5929999999999
 30
0.0
 40
3.0923400000000001
  1
1050
 41
0.5
 72
     1
 11
73.804100000000005
 21
239.5929999999999
 31
0.0
  0
ARC
  5
38
  8
0
  6
AIGENLINE001
 62
     7
 10
224.24404799999991
 20
113.20330199999999
 30
0.0
 40
55.543635000000002
 50
167.38473500000001
 51
174.68853799999991
  0
ARC
  5
39
  8
0
  6
AIGENLINE001
 62
     7
 10
199.60475199999991
 20
118.516553
 30
0.0
 40
30.339369999999999
 50
164.31248600000001
 51
167.0139969999999
  0
ARC
  5
3A
  8
0
 62
     7
 10
191.32525100000001
 20
110.901481
 30
0.0
 40
23.148081999999999
 50
167.12583699999999
 51
173.13972699999999
  0
ARC
  5
3B
  8
0
  6
AIGENLINE001
 62
     7
 10
161.0556739999999
 20
241.91591299999999
 30
0.0
 40
123.3160009999999
 50
261.92282599999987
 51
264.2791049999999
  0
ARC
  5
3C
  8
0
  6
AIGENLINE001
 62
     7
 10
-40.603384999999989
 20
-1787.4960000000001
 30
0.0
 40
1916.0909999999999
 50
84.080356999999992
 51
84.328210999999996
  0
ARC
  5
3D
  8
0
  6
AIGENLINE001
 62
     7
 10
151.60525100000001
 20
74.32055600000001
 30
0.0
 40
44.386778999999997
 50
78.916491000000008
 51
83.006579000000002
  0
ARC
  5
3E
  8
0
  6
AIGENLINE001
 62
     7
 10
155.99358599999999
 20
97.766199
 30
0.0
 40
20.535810999999999
 50
75.570394999999991
 51
78.356544999999997
  0
LINE
  5
3F
  8
0
 62
     7
 10
126.8579999999999
 20
181.63599999999991
 30
0.0
 11
126.265
 21
183.84700000000001
 31
0.0
  0
LINE
  5
40
  8
0
 62
     7
 10
126.265
 20
183.84700000000001
 30
0.0
 11
125.6729999999999
 21
181.63599999999991
 31
0.0
  0
LINE
  5
41
  8
0
 62
     7
 10
125.6729999999999
 20
181.63599999999991
 30
0.0
 11
126.8579999999999
 21
181.63599999999991
 31
0.0
  0
LINE
  5
42
  8
0
 62
     7
 10
126.2709999999999
 20
177.5259999999999
 30
0.0
 11
126.2709999999999
 21
183.84700000000001
 31
0.0
  0
LINE
  5
43
  8
0
 62
     7
 10
110.77500000000001
 20
120.8609999999999
 30
0.0
 11
110.18299999999989
 21
123.072
 31
0.0
  0
LINE
  5
44
  8
0
 62
     7
 10
110.18299999999989
 20
123.072
 30
0.0
 11
109.59
 21
120.8609999999999
 31
0.0
  0
LINE
  5
45
  8
0
 62
     7
 10
109.59
 20
120.8609999999999
 30
0.0
 11
110.77500000000001
 21
120.8609999999999
 31
0.0
  0
LINE
  5
46
  8
0
 62
     7
 10
110.18899999999999
 20
119.9379999999999
 30
0.0
 11
110.18899999999999
 21
123.0709999999999
 31
0.0
  0
LINE
  5
47
  8
0
 62
     7
 10
109.602
 20
129.4489999999999
 30
0.0
 11
110.19499999999989
 21
127.23699999999999
 31
0.0
  0
LINE
  5
48
  8
0
 62
     7
 10
110.19499999999989
 20
127.23699999999999
 30
0.0
 11
110.7879999999999
 21
129.4489999999999
 31
0.0
  0
LINE
  5
49
  8
0
 62
     7
 10
110.7879999999999
 20
129.4489999999999
 30
0.0
 11
109.602
 21
129.4489999999999
 31
0.0
  0
LINE
  5
4A
  8
0
 62
     7
 10
110.18899999999999
 20
127.23699999999999
 30
0.0
 11
110.18899999999999
 21
132.89500000000001
 31
0.0
  0
LINE
  5
4B
  8
0
 62
     7
 10
180.06899999999999
 20
126.404
 30
0.0
 11
180.06899999999999
 21
117.2379999999999
 31
0.0
  0
LINE
  5
4C
  8
0
 62
     7
 10
179.2359999999999
 20
127.23699999999999
 30
0.0
 11
171.011
 21
127.23699999999999
 31
0.0
  0
ARC
  5
4D
  8
0
 62
     7
 10
179.2046729999999
 20
126.37274099999991
 30
0.0
 40
0.8652969999999999
 50
2.1003080000000001
 51
87.947054000000009
  0
LINE
  5
4E
  8
0
 62
     7
 10
140.0689999999999
 20
116.4039999999999
 30
0.0
 11
179.2359999999999
 21
116.4039999999999
 31
0.0
  0
ARC
  5
4F
  8
0
 62
     7
 10
179.20401100000001
 20
117.26970300000001
 30
0.0
 40
0.86597
 50
272.09521000000001
 51
357.88111900000001
  0
LINE
  5
50
  8
0
 62
     7
 10
139.2359999999999
 20
126.404
 30
0.0
 11
139.2359999999999
 21
117.2379999999999
 31
0.0
  0
ARC
  5
51
  8
0
 62
     7
 10
140.1008239999999
 20
117.2693289999999
 30
0.0
 40
0.86561
 50
182.09506799999991
 51
267.88127099999991
  0
LINE
  5
52
  8
0
 62
     7
 10
140.0689999999999
 20
127.23699999999999
 30
0.0
 11
142.15199999999999
 21
127.23699999999999
 31
0.0
  0
ARC
  5
53
  8
0
 62
     7
 10
140.10048499999999
 20
126.3727899999999
 30
0.0
 40
0.8652719999999998
 50
92.097110999999984
 51
177.90285900000001
  0
LINE
  5
54
  8
0
 62
     7
 10
167.15199999999999
 20
113.321
 30
0.0
 11
167.93199999999999
 21
113.321
 31
0.0
  0
ARC
  5
55
  8
0
 62
     7
 10
167.92094900000001
 20
113.7511429999999
 30
0.0
 40
0.4303600000000001
 50
271.50347900000003
 51
348.65392700000001
  0
ARC
  5
56
  8
0
 62
     7
 10
169.1810209999999
 20
115.974012
 30
0.0
 40
0.430448
 50
91.503482000000005
 51
168.59757699999989
  0
LINE
  5
57
  8
0
 62
     7
 10
167.15199999999999
 20
113.071
 30
0.0
 11
167.15199999999999
 21
113.321
 31
0.0
  0
LINE
  5
58
  8
0
 62
     7
 10
164.23599999999999
 20
113.071
 30
0.0
 11
167.15199999999999
 21
113.071
 31
0.0
  0
LINE
  5
59
  8
0
  6
AIGENLINE002
 62
     7
 10
164.23599999999999
 20
128.55799999999991
 30
0.0
 11
164.23599999999999
 21
111.77500000000001
 31
0.0
  0
LINE
  5
5A
  8
0
  6
AIGENLINE001
 62
     7
 10
164.23599999999999
 20
117.6539999999999
 30
0.0
 11
168.11799999999991
 21
117.6539999999999
 31
0.0
  0
LINE
  5
5B
  8
0
  6
AIGENLINE001
 62
     7
 10
166.40299999999991
 20
116.6959999999999
 30
0.0
 11
164.23599999999999
 21
116.6959999999999
 31
0.0
  0
LINE
  5
5C
  8
0
  6
AIGENLINE001
 62
     7
 10
166.40299999999991
 20
116.6959999999999
 30
0.0
 11
167.36000000000001
 21
117.6539999999999
 31
0.0
  0
LINE
  5
5D
  8
0
  6
AIGENLINE001
 62
     7
 10
166.40299999999991
 20
116.6959999999999
 30
0.0
 11
166.40299999999991
 21
113.071
 31
0.0
  0
LINE
  5
5E
  8
0
 62
     7
 10
171.011
 20
127.23699999999999
 30
0.0
 11
164.23599999999999
 21
127.23699999999999
 31
0.0
  0
ARC
  5
5F
  8
0
  6
AIGENLINE001
 62
     7
 10
168.09539699999999
 20
118.514219
 30
0.0
 40
0.8603239999999999
 50
271.52394800000002
 51
348.65269000000001
  0
ARC
  5
60
  8
0
  6
AIGENLINE001
 62
     7
 10
171.02860799999999
 20
126.591734
 30
0.0
 40
0.6459760000000001
 50
91.518749000000014
 51
168.54474699999989
  0
LINE
  5
61
  8
0
 62
     7
 10
156.3189999999999
 20
127.23699999999999
 30
0.0
 11
164.23599999999999
 21
127.23699999999999
 31
0.0
  0
LINE
  5
62
  8
0
 62
     7
 10
152.15199999999999
 20
127.23699999999999
 30
0.0
 11
156.3189999999999
 21
127.23699999999999
 31
0.0
  0
LINE
  5
63
  8
0
  6
AIGENLINE001
 62
     7
 10
162.0689999999999
 20
116.6959999999999
 30
0.0
 11
164.23599999999999
 21
116.6959999999999
 31
0.0
  0
LINE
  5
64
  8
0
  6
AIGENLINE001
 62
     7
 10
161.11099999999999
 20
117.6539999999999
 30
0.0
 11
164.23599999999999
 21
117.6539999999999
 31
0.0
  0
LINE
  5
65
  8
0
  6
AIGENLINE001
 62
     7
 10
162.0689999999999
 20
116.6959999999999
 30
0.0
 11
161.11099999999999
 21
117.6539999999999
 31
0.0
  0
LINE
  5
66
  8
0
 62
     7
 10
160.48500000000001
 20
116.047
 30
0.0
 11
160.91399999999999
 21
113.071
 31
0.0
  0
ARC
  5
67
  8
0
 62
     7
 10
160.06055499999999
 20
115.973422
 30
0.0
 40
0.4310560000000001
 50
9.8351650000000017
 51
88.405283999999995
  0
LINE
  5
68
  8
0
  6
AIGENLINE001
 62
     7
 10
162.0689999999999
 20
116.6959999999999
 30
0.0
 11
162.0689999999999
 21
113.071
 31
0.0
  0
LINE
  5
69
  8
0
 62
     7
 10
160.91399999999999
 20
113.071
 30
0.0
 11
164.23599999999999
 21
113.071
 31
0.0
  0
LINE
  5
6A
  8
0
  6
AIGENLINE001
 62
     7
 10
71.637299999999996
 20
116.6959999999999
 30
0.0
 11
73.804100000000005
 21
116.6959999999999
 31
0.0
  0
LINE
  5
6B
  8
0
  6
AIGENLINE001
 62
     7
 10
70.679000000000002
 20
117.6539999999999
 30
0.0
 11
73.804100000000005
 21
117.6539999999999
 31
0.0
  0
LINE
  5
6C
  8
0
  6
AIGENLINE001
 62
     7
 10
73.804100000000005
 20
117.6539999999999
 30
0.0
 11
76.929000000000002
 21
117.6539999999999
 31
0.0
  0
LINE
  5
6D
  8
0
  6
AIGENLINE001
 62
     7
 10
94.143199999999993
 20
119.029
 30
0.0
 11
76.929000000000002
 21
117.6539999999999
 31
0.0
  0
LINE
  5
6E
  8
0
  6
AIGENLINE001
 62
     7
 10
96.208699999999993
 20
126.72799999999989
 30
0.0
 11
94.897599999999997
 21
119.706
 31
0.0
  0
ARC
  5
6F
  8
0
  6
AIGENLINE001
 62
     7
 10
94.058060999999995
 20
119.88239400000001
 30
0.0
 40
0.8578249999999998
 50
275.69390899999991
 51
348.16478599999988
  0
ARC
  5
70
  8
0
  6
AIGENLINE001
 62
     7
 10
96.839948000000007
 20
126.59205300000001
 30
0.0
 40
0.6456490000000001
 50
91.492992999999984
 51
167.88072099999991
  0
LINE
  5
71
  8
0
  6
AIGENLINE001
 62
     7
 10
53.4649
 20
119.029
 30
0.0
 11
70.679000000000002
 21
117.6539999999999
 31
0.0
  0
LINE
  5
72
  8
0
  6
AIGENLINE001
 62
     7
 10
51.398899999999998
 20
126.72799999999989
 30
0.0
 11
52.710500000000003
 21
119.706
 31
0.0
  0
ARC
  5
73
  8
0
  6
AIGENLINE001
 62
     7
 10
53.54978599999999
 20
119.882094
 30
0.0
 40
0.8574989999999999
 50
191.81929599999989
 51
264.322048
  0
LINE
  5
74
  8
0
 62
     7
 10
50.78459999999999
 20
127.23699999999999
 30
0.0
 11
73.804100000000005
 21
127.23699999999999
 31
0.0
  0
LINE
  5
75
  8
0
 62
     7
 10
30.88699999999999
 20
127.23699999999999
 30
0.0
 11
50.78459999999999
 21
127.23699999999999
 31
0.0
  0
ARC
  5
76
  8
0
  6
AIGENLINE001
 62
     7
 10
50.768370000000012
 20
126.59292499999989
 30
0.0
 40
0.6447630000000001
 50
12.056921000000001
 51
88.553535999999994
  0
LINE
  5
77
  8
0
  6
AIGENLINE003
 62
     7
 10
71.735799999999998
 20
124.3209999999999
 30
0.0
 11
75.802700000000002
 21
124.3209999999999
 31
0.0
  0
LINE
  5
78
  8
0
  6
AIGENLINE001
 62
     7
 10
71.637299999999996
 20
116.6959999999999
 30
0.0
 11
70.679000000000002
 21
117.6539999999999
 31
0.0
  0
LINE
  5
79
  8
0
  6
AIGENLINE001
 62
     7
 10
75.970699999999994
 20
116.6959999999999
 30
0.0
 11
76.929000000000002
 21
117.6539999999999
 31
0.0
  0
LINE
  5
7A
  8
0
  6
AIGENLINE001
 62
     7
 10
75.970699999999994
 20
116.6959999999999
 30
0.0
 11
75.970699999999994
 21
113.071
 31
0.0
  0
LINE
  5
7B
  8
0
  6
AIGENLINE001
 62
     7
 10
73.804100000000005
 20
116.6959999999999
 30
0.0
 11
75.970699999999994
 21
116.6959999999999
 31
0.0
  0
LINE
  5
7C
  8
0
 62
     7
 10
77.126000000000005
 20
113.071
 30
0.0
 11
77.554599999999994
 21
116.047
 31
0.0
  0
LINE
  5
7D
  8
0
 62
     7
 10
30.88699999999999
 20
116.4039999999999
 30
0.0
 11
116.721
 21
116.4039999999999
 31
0.0
  0
ARC
  5
7E
  8
0
 62
     7
 10
77.978814999999983
 20
115.974006
 30
0.0
 40
0.430473
 50
91.600343000000009
 51
170.2302169999999
  0
LINE
  5
7F
  8
0
 62
     7
 10
70.053200000000004
 20
116.047
 30
0.0
 11
70.482100000000003
 21
113.071
 31
0.0
  0
ARC
  5
80
  8
0
 62
     7
 10
69.628621999999993
 20
115.9736139999999
 30
0.0
 40
0.43087
 50
9.8135580000000004
 51
88.379536000000002
  0
LINE
  5
81
  8
0
  6
AIGENLINE001
 62
     7
 10
71.637299999999996
 20
116.6959999999999
 30
0.0
 11
71.637299999999996
 21
113.071
 31
0.0
  0
LINE
  5
82
  8
0
 62
     7
 10
77.709299999999985
 20
113.071
 30
0.0
 11
133.471
 21
113.071
 31
0.0
  0
LINE
  5
83
  8
0
 62
     7
 10
132.30099999999999
 20
115.282
 30
0.0
 11
132.89400000000001
 21
113.06999999999999
 31
0.0
  0
LINE
  5
84
  8
0
 62
     7
 10
132.89400000000001
 20
113.06999999999999
 30
0.0
 11
133.4859999999999
 21
115.282
 31
0.0
  0
LINE
  5
85
  8
0
 62
     7
 10
133.4859999999999
 20
115.282
 30
0.0
 11
132.30099999999999
 21
115.282
 31
0.0
  0
LINE
  5
86
  8
0
 62
     7
 10
133.47499999999991
 20
125.0269999999999
 30
0.0
 11
132.88200000000001
 21
127.2389999999999
 31
0.0
  0
LINE
  5
87
  8
0
 62
     7
 10
132.88200000000001
 20
127.2389999999999
 30
0.0
 11
132.2889999999999
 21
125.0269999999999
 31
0.0
  0
LINE
  5
88
  8
0
 62
     7
 10
132.2889999999999
 20
125.0269999999999
 30
0.0
 11
133.47499999999991
 21
125.0269999999999
 31
0.0
  0
LINE
  5
89
  8
0
 62
     7
 10
132.88800000000001
 20
113.071
 30
0.0
 11
132.88800000000001
 21
127.23699999999999
 31
0.0
  0
LINE
  5
8A
  8
0
 62
     7
 10
118.13799999999991
 20
127.23699999999999
 30
0.0
 11
133.471
 21
127.23699999999999
 31
0.0
  0
LINE
  5
8B
  8
0
  6
AIGENLINE003
 62
     7
 10
45.053699999999999
 20
125.221
 30
0.0
 11
45.053699999999999
 21
120.9929999999999
 31
0.0
  0
LINE
  5
8C
  8
0
  6
AIGENLINE003
 62
     7
 10
42.340000000000003
 20
123.0709999999999
 30
0.0
 11
47.917099999999998
 21
123.0709999999999
 31
0.0
  0
LINE
  5
8D
  8
0
  6
AIGENLINE001
 62
     7
 10
44.637
 20
122.238
 30
0.0
 11
45.470599999999997
 21
122.238
 31
0.0
  0
LINE
  5
8E
  8
0
  6
AIGENLINE001
 62
     7
 10
44.637
 20
123.9049999999999
 30
0.0
 11
45.470599999999997
 21
123.9049999999999
 31
0.0
  0
ARC
  5
8F
  8
0
  6
AIGENLINE001
 62
     7
 10
45.438889000000003
 20
123.102621
 30
0.0
 40
0.865273
 50
272.097148
 51
357.90286200000003
  0
ARC
  5
90
  8
0
  6
AIGENLINE001
 62
     7
 10
45.437809000000001
 20
123.03892999999999
 30
0.0
 40
0.8663649999999998
 50
2.118573
 51
87.834046000000001
  0
ARC
  5
91
  8
0
  6
AIGENLINE001
 62
     7
 10
44.668708999999993
 20
123.03961199999991
 30
0.0
 40
0.8656439999999999
 50
92.098828999999995
 51
177.92482200000001
  0
ARC
  5
92
  8
0
  6
AIGENLINE001
 62
     7
 10
44.668728999999999
 20
123.1030379999999
 30
0.0
 40
0.8656909999999999
 50
182.12371899999991
 51
267.90000199999997
  0
LINE
  5
93
  8
0
 62
     7
 10
45.053699999999999
 20
125.804
 30
0.0
 11
45.053699999999999
 21
136.15399999999991
 31
0.0
  0
LINE
  5
94
  8
0
  6
AIGENLINE003
 62
     7
 10
62.1372
 20
125.221
 30
0.0
 11
62.1372
 21
120.9929999999999
 31
0.0
  0
LINE
  5
95
  8
0
  6
AIGENLINE003
 62
     7
 10
59.423299999999998
 20
123.0709999999999
 30
0.0
 11
65.000600000000006
 21
123.0709999999999
 31
0.0
  0
LINE
  5
96
  8
0
  6
AIGENLINE001
 62
     7
 10
61.720500000000001
 20
122.238
 30
0.0
 11
62.553999999999988
 21
122.238
 31
0.0
  0
LINE
  5
97
  8
0
  6
AIGENLINE001
 62
     7
 10
61.720500000000001
 20
123.9049999999999
 30
0.0
 11
62.553999999999988
 21
123.9049999999999
 31
0.0
  0
ARC
  5
98
  8
0
  6
AIGENLINE001
 62
     7
 10
62.52236400000001
 20
123.102621
 30
0.0
 40
0.865273
 50
272.097148
 51
357.90286200000003
  0
ARC
  5
99
  8
0
  6
AIGENLINE001
 62
     7
 10
62.521284000000001
 20
123.03892999999999
 30
0.0
 40
0.8663649999999998
 50
2.118573
 51
87.834046000000001
  0
ARC
  5
9A
  8
0
  6
AIGENLINE001
 62
     7
 10
61.752184
 20
123.03961199999991
 30
0.0
 40
0.8656439999999999
 50
92.098828999999995
 51
177.92482200000001
  0
ARC
  5
9B
  8
0
  6
AIGENLINE001
 62
     7
 10
61.752203999999999
 20
123.1030379999999
 30
0.0
 40
0.8656909999999999
 50
182.12371899999991
 51
267.90000199999997
  0
LINE
  5
9C
  8
0
 62
     7
 10
62.1372
 20
125.804
 30
0.0
 11
62.1372
 21
136.15399999999991
 31
0.0
  0
LINE
  5
9D
  8
0
  6
AIGENLINE003
 62
     7
 10
85.470600000000005
 20
125.221
 30
0.0
 11
85.470600000000005
 21
120.9929999999999
 31
0.0
  0
LINE
  5
9E
  8
0
  6
AIGENLINE003
 62
     7
 10
82.757099999999994
 20
123.0709999999999
 30
0.0
 11
88.334000000000003
 21
123.0709999999999
 31
0.0
  0
LINE
  5
9F
  8
0
  6
AIGENLINE001
 62
     7
 10
85.054100000000005
 20
122.238
 30
0.0
 11
85.887500000000003
 21
122.238
 31
0.0
  0
LINE
  5
A0
  8
0
  6
AIGENLINE001
 62
     7
 10
85.054100000000005
 20
123.9049999999999
 30
0.0
 11
85.887500000000003
 21
123.9049999999999
 31
0.0
  0
ARC
  5
A1
  8
0
  6
AIGENLINE001
 62
     7
 10
85.855807999999996
 20
123.1027909999999
 30
0.0
 40
0.865441
 50
272.09611100000001
 51
357.89205199999998
  0
ARC
  5
A2
  8
0
  6
AIGENLINE001
 62
     7
 10
85.854885999999993
 20
123.0389179999999
 30
0.0
 40
0.8663709999999998
 50
2.119364
 51
87.845101
  0
ARC
  5
A3
  8
0
  6
AIGENLINE001
 62
     7
 10
85.085781999999995
 20
123.03944300000001
 30
0.0
 40
0.8658129999999999
 50
92.097792000000013
 51
177.91401699999989
  0
ARC
  5
A4
  8
0
  6
AIGENLINE001
 62
     7
 10
85.085643999999988
 20
123.1030499999999
 30
0.0
 40
0.8656969999999999
 50
182.1245099999999
 51
267.91105199999998
  0
LINE
  5
A5
  8
0
 62
     7
 10
85.470600000000005
 20
125.804
 30
0.0
 11
85.470600000000005
 21
136.15399999999991
 31
0.0
  0
LINE
  5
A6
  8
0
  6
AIGENLINE003
 62
     7
 10
102.554
 20
125.221
 30
0.0
 11
102.554
 21
120.9929999999999
 31
0.0
  0
LINE
  5
A7
  8
0
  6
AIGENLINE003
 62
     7
 10
99.84020000000001
 20
123.0709999999999
 30
0.0
 11
105.417
 21
123.0709999999999
 31
0.0
  0
LINE
  5
A8
  8
0
  6
AIGENLINE001
 62
     7
 10
102.13799999999991
 20
122.238
 30
0.0
 11
102.971
 21
122.238
 31
0.0
  0
LINE
  5
A9
  8
0
  6
AIGENLINE001
 62
     7
 10
102.13799999999991
 20
123.9049999999999
 30
0.0
 11
102.971
 21
123.9049999999999
 31
0.0
  0
ARC
  5
AA
  8
0
  6
AIGENLINE001
 62
     7
 10
102.9389529999999
 20
123.103134
 30
0.0
 40
0.865784
 50
272.0943509999999
 51
357.87012700000002
  0
ARC
  5
AB
  8
0
  6
AIGENLINE001
 62
     7
 10
102.938742
 20
123.039286
 30
0.0
 40
0.865976
 50
2.0959910000000002
 51
87.892160000000004
  0
ARC
  5
AC
  8
0
  6
AIGENLINE001
 62
     7
 10
102.1692519999999
 20
123.03944799999989
 30
0.0
 40
0.8658079999999999
 50
92.097481000000002
 51
177.91432800000001
  0
ARC
  5
AD
  8
0
  6
AIGENLINE001
 62
     7
 10
102.168727
 20
123.10265699999999
 30
0.0
 40
0.865291
 50
182.09951799999999
 51
267.93604399999992
  0
LINE
  5
AE
  8
0
 62
     7
 10
106.001
 20
123.0709999999999
 30
0.0
 11
110.76600000000001
 21
123.0709999999999
 31
0.0
  0
LINE
  5
AF
  8
0
 62
     7
 10
117.554
 20
126.404
 30
0.0
 11
117.554
 21
117.2379999999999
 31
0.0
  0
ARC
  5
B0
  8
0
 62
     7
 10
116.68957399999989
 20
117.2690149999999
 30
0.0
 40
0.865285
 50
272.09873299999992
 51
357.92496799999998
  0
LINE
  5
B1
  8
0
 62
     7
 10
73.804100000000005
 20
127.23699999999999
 30
0.0
 11
116.721
 21
127.23699999999999
 31
0.0
  0
ARC
  5
B2
  8
0
 62
     7
 10
116.689598
 20
126.3727889999999
 30
0.0
 40
0.865273
 50
2.0971380000000002
 51
87.902851999999996
  0
LINE
  5
B3
  8
0
 62
     7
 10
30.053699999999999
 20
126.404
 30
0.0
 11
30.053699999999999
 21
117.2379999999999
 31
0.0
  0
ARC
  5
B4
  8
0
 62
     7
 10
30.887025999999999
 20
117.237685
 30
0.0
 40
0.8333739999999998
 50
179.99996999999991
 51
270.00002000000001
  0
ARC
  5
B5
  8
0
 62
     7
 10
30.918676000000001
 20
126.3724459999999
 30
0.0
 40
0.8656149999999998
 50
92.095348999999985
 51
177.88092999999989
  0
LINE
  5
B6
  8
0
 62
     7
 10
96.304100000000005
 20
173.87999999999991
 30
0.0
 11
96.304100000000005
 21
186.18000000000001
 31
0.0
  0
LINE
  5
B7
  8
0
 62
     7
 10
52.137
 20
186.76400000000001
 30
0.0
 11
95.470600000000005
 21
186.76400000000001
 31
0.0
  0
LINE
  5
B8
  8
0
 62
     7
 10
96.304100000000005
 20
187.59700000000001
 30
0.0
 11
96.304100000000005
 21
213.43000000000001
 31
0.0
  0
ARC
  5
B9
  8
0
 62
     7
 10
95.438920999999979
 20
187.62880799999999
 30
0.0
 40
0.86579
 50
272.09514299999989
 51
357.88118199999991
  0
LINE
  5
BA
  8
0
 62
     7
 10
51.303699999999999
 20
187.59700000000001
 30
0.0
 11
51.303699999999999
 21
213.43000000000001
 31
0.0
  0
ARC
  5
BB
  8
0
 62
     7
 10
52.168922999999999
 20
187.62887399999991
 30
0.0
 40
0.8658649999999999
 50
182.12299399999989
 51
267.88887999999992
  0
LINE
  5
BC
  8
0
 62
     7
 10
52.137
 20
214.26400000000001
 30
0.0
 11
95.470600000000005
 21
214.26400000000001
 31
0.0
  0
ARC
  5
BD
  8
0
 62
     7
 10
95.438885999999997
 20
213.39849599999991
 30
0.0
 40
0.8658129999999999
 50
2.0973380000000001
 51
87.902652000000003
  0
ARC
  5
BE
  8
0
 62
     7
 10
52.168717000000001
 20
213.39867000000001
 30
0.0
 40
0.8656379999999998
 50
92.098037000000005
 51
177.9137749999999
  0
LINE
  5
BF
  8
0
 62
     7
 10
117.554
 20
224.26400000000001
 30
0.0
 11
117.554
 21
184.26400000000001
 31
0.0
  0
LINE
  5
C0
  8
0
 62
     7
 10
30.470500000000001
 20
224.67999999999989
 30
0.0
 11
117.137
 21
224.67999999999989
 31
0.0
  0
ARC
  5
C1
  8
0
 62
     7
 10
117.1218239999999
 20
224.24791099999999
 30
0.0
 40
0.4327550000000001
 50
2.0906169999999991
 51
87.933053999999984
  0
LINE
  5
C2
  8
0
 62
     7
 10
30.470500000000001
 20
183.84700000000001
 30
0.0
 11
117.137
 21
183.84700000000001
 31
0.0
  0
ARC
  5
C3
  8
0
 62
     7
 10
117.12179
 20
184.27929
 30
0.0
 40
0.4327840000000001
 50
272.07133700000003
 51
357.928673
  0
LINE
  5
C4
  8
0
 62
     7
 10
30.053699999999999
 20
224.26400000000001
 30
0.0
 11
30.053699999999999
 21
184.26400000000001
 31
0.0
  0
ARC
  5
C5
  8
0
 62
     7
 10
30.486408999999998
 20
184.2795439999999
 30
0.0
 40
0.433048
 50
182.103748
 51
267.89628199999993
  0
ARC
  5
C6
  8
0
 62
     7
 10
30.486273999999991
 20
224.24775699999989
 30
0.0
 40
0.432915
 50
92.086539000000016
 51
177.88974999999999
  0
LINE
  5
C7
  8
0
  6
AIGENLINE001
 62
     7
 10
142.77699999999999
 20
126.6129999999999
 30
0.0
 11
142.98500000000001
 21
120.652
 31
0.0
  0
ARC
  5
C8
  8
0
  6
AIGENLINE001
 62
     7
 10
143.84742800000001
 20
120.6774139999999
 30
0.0
 40
0.8623509999999999
 50
181.70233799999991
 51
262.10077899999987
  0
ARC
  5
C9
  8
0
  6
AIGENLINE001
 62
     7
 10
142.12855400000001
 20
126.5886629999999
 30
0.0
 40
0.6492580000000001
 50
2.1073680000000001
 51
87.892623
  0
LINE
  5
CA
  8
0
 62
     7
 10
166.446
 20
106.9079999999999
 30
0.0
 11
164.23400000000001
 21
106.315
 31
0.0
  0
LINE
  5
CB
  8
0
 62
     7
 10
164.23400000000001
 20
106.315
 30
0.0
 11
166.446
 21
105.72199999999999
 31
0.0
  0
LINE
  5
CC
  8
0
 62
     7
 10
166.446
 20
105.72199999999999
 30
0.0
 11
166.446
 21
106.9079999999999
 31
0.0
  0
LINE
  5
CD
  8
0
 62
     7
 10
177.858
 20
105.7339999999999
 30
0.0
 11
180.06999999999991
 21
106.327
 31
0.0
  0
LINE
  5
CE
  8
0
 62
     7
 10
180.06999999999991
 20
106.327
 30
0.0
 11
177.858
 21
106.919
 31
0.0
  0
LINE
  5
CF
  8
0
 62
     7
 10
177.858
 20
106.919
 30
0.0
 11
177.858
 21
105.7339999999999
 31
0.0
  0
LINE
  5
D0
  8
0
 62
     7
 10
164.23599999999999
 20
106.3209999999999
 30
0.0
 11
180.06899999999999
 21
106.3209999999999
 31
0.0
  0
LINE
  5
D1
  8
0
 62
     7
 10
180.06899999999999
 20
115.8209999999999
 30
0.0
 11
180.06899999999999
 21
105.73699999999999
 31
0.0
  0
LINE
  5
D2
  8
0
 62
     7
 10
164.23599999999999
 20
111.19199999999999
 30
0.0
 11
164.23599999999999
 21
105.73699999999999
 31
0.0
  0
LINE
  5
D3
  8
0
 62
     7
 10
142.15199999999999
 20
127.23699999999999
 30
0.0
 11
152.15199999999999
 21
127.23699999999999
 31
0.0
  0
LINE
  5
D4
  8
0
  6
AIGENLINE003
 62
     7
 10
174.65199999999999
 20
128.3429999999999
 30
0.0
 11
174.65199999999999
 21
125.547
 31
0.0
  0
LINE
  5
D5
  8
0
  6
AIGENLINE003
 62
     7
 10
178.37899999999999
 20
123.0709999999999
 30
0.0
 11
181.648
 21
123.0709999999999
 31
0.0
  0
LINE
  5
D6
  8
0
 62
     7
 10
70.482100000000003
 20
113.071
 30
0.0
 11
77.126000000000005
 21
113.071
 31
0.0
  0
LINE
  5
D7
  8
0
 62
     7
 10
71.981200000000001
 20
125.0269999999999
 30
0.0
 11
71.3887
 21
127.2389999999999
 31
0.0
  0
LINE
  5
D8
  8
0
 62
     7
 10
71.3887
 20
127.2389999999999
 30
0.0
 11
70.795799999999986
 21
125.0269999999999
 31
0.0
  0
LINE
  5
D9
  8
0
 62
     7
 10
70.795799999999986
 20
125.0269999999999
 30
0.0
 11
71.981200000000001
 21
125.0269999999999
 31
0.0
  0
LINE
  5
DA
  8
0
 62
     7
 10
70.808199999999999
 20
119.866
 30
0.0
 11
71.400700000000001
 21
117.6539999999999
 31
0.0
  0
LINE
  5
DB
  8
0
 62
     7
 10
71.400700000000001
 20
117.6539999999999
 30
0.0
 11
71.993300000000005
 21
119.866
 31
0.0
  0
LINE
  5
DC
  8
0
 62
     7
 10
71.993300000000005
 20
119.866
 30
0.0
 11
70.808199999999999
 21
119.866
 31
0.0
  0
LINE
  5
DD
  8
0
 62
     7
 10
71.3947
 20
127.23699999999999
 30
0.0
 11
71.3947
 21
117.6549999999999
 31
0.0
  0
LINE
  5
DE
  8
0
 62
     7
 10
125.6839999999999
 20
118.61499999999999
 30
0.0
 11
126.2769999999999
 21
116.40299999999991
 31
0.0
  0
LINE
  5
DF
  8
0
 62
     7
 10
126.2769999999999
 20
116.40299999999991
 30
0.0
 11
126.87
 21
118.61499999999999
 31
0.0
  0
LINE
  5
E0
  8
0
 62
     7
 10
126.87
 20
118.61499999999999
 30
0.0
 11
125.6839999999999
 21
118.61499999999999
 31
0.0
  0
LINE
  5
E1
  8
0
 62
     7
 10
126.8579999999999
 20
125.0269999999999
 30
0.0
 11
126.265
 21
127.2389999999999
 31
0.0
  0
LINE
  5
E2
  8
0
 62
     7
 10
126.265
 20
127.2389999999999
 30
0.0
 11
125.6729999999999
 21
125.0269999999999
 31
0.0
  0
LINE
  5
E3
  8
0
 62
     7
 10
125.6729999999999
 20
125.0269999999999
 30
0.0
 11
126.8579999999999
 21
125.0269999999999
 31
0.0
  0
LINE
  5
E4
  8
0
 62
     7
 10
126.2709999999999
 20
116.4039999999999
 30
0.0
 11
126.2709999999999
 21
127.23699999999999
 31
0.0
  0
LINE
  5
E5
  8
0
 62
     7
 10
118.134
 20
116.4039999999999
 30
0.0
 11
126.855
 21
116.4039999999999
 31
0.0
  0
LINE
  5
E6
  8
0
 62
     7
 10
64.348100000000002
 20
136.1579999999999
 30
0.0
 11
62.136299999999999
 21
135.565
 31
0.0
  0
LINE
  5
E7
  8
0
 62
     7
 10
62.136299999999999
 20
135.565
 30
0.0
 11
64.348100000000002
 21
134.97200000000001
 31
0.0
  0
LINE
  5
E8
  8
0
 62
     7
 10
64.348100000000002
 20
134.97200000000001
 30
0.0
 11
64.348100000000002
 21
136.1579999999999
 31
0.0
  0
LINE
  5
E9
  8
0
 62
     7
 10
83.259699999999995
 20
134.98500000000001
 30
0.0
 11
85.471500000000006
 21
135.57699999999991
 31
0.0
  0
LINE
  5
EA
  8
0
 62
     7
 10
85.471500000000006
 20
135.57699999999991
 30
0.0
 11
83.259699999999995
 21
136.1699999999999
 31
0.0
  0
LINE
  5
EB
  8
0
 62
     7
 10
83.259699999999995
 20
136.1699999999999
 30
0.0
 11
83.259699999999995
 21
134.98500000000001
 31
0.0
  0
LINE
  5
EC
  8
0
 62
     7
 10
62.1372
 20
135.57099999999991
 30
0.0
 11
85.470600000000005
 21
135.57099999999991
 31
0.0
  0
LINE
  5
ED
  8
0
 62
     7
 10
47.264600000000002
 20
136.1579999999999
 30
0.0
 11
45.052799999999991
 21
135.565
 31
0.0
  0
LINE
  5
EE
  8
0
 62
     7
 10
45.052799999999991
 20
135.565
 30
0.0
 11
47.264600000000002
 21
134.97200000000001
 31
0.0
  0
LINE
  5
EF
  8
0
 62
     7
 10
47.264600000000002
 20
134.97200000000001
 30
0.0
 11
47.264600000000002
 21
136.1579999999999
 31
0.0
  0
LINE
  5
F0
  8
0
 62
     7
 10
59.926299999999998
 20
134.98500000000001
 30
0.0
 11
62.137999999999998
 21
135.57699999999991
 31
0.0
  0
LINE
  5
F1
  8
0
 62
     7
 10
62.137999999999998
 20
135.57699999999991
 30
0.0
 11
59.926299999999998
 21
136.1699999999999
 31
0.0
  0
LINE
  5
F2
  8
0
 62
     7
 10
59.926299999999998
 20
136.1699999999999
 30
0.0
 11
59.926299999999998
 21
134.98500000000001
 31
0.0
  0
LINE
  5
F3
  8
0
 62
     7
 10
45.053699999999999
 20
135.57099999999991
 30
0.0
 11
62.1372
 21
135.57099999999991
 31
0.0
  0
LINE
  5
F4
  8
0
 62
     7
 10
87.6815
 20
136.1579999999999
 30
0.0
 11
85.469699999999989
 21
135.565
 31
0.0
  0
LINE
  5
F5
  8
0
 62
     7
 10
85.469699999999989
 20
135.565
 30
0.0
 11
87.6815
 21
134.97200000000001
 31
0.0
  0
LINE
  5
F6
  8
0
 62
     7
 10
87.6815
 20
134.97200000000001
 30
0.0
 11
87.6815
 21
136.1579999999999
 31
0.0
  0
LINE
  5
F7
  8
0
 62
     7
 10
100.34399999999989
 20
134.98500000000001
 30
0.0
 11
102.55500000000001
 21
135.57699999999991
 31
0.0
  0
LINE
  5
F8
  8
0
 62
     7
 10
102.55500000000001
 20
135.57699999999991
 30
0.0
 11
100.34399999999989
 21
136.1699999999999
 31
0.0
  0
LINE
  5
F9
  8
0
 62
     7
 10
100.34399999999989
 20
136.1699999999999
 30
0.0
 11
100.34399999999989
 21
134.98500000000001
 31
0.0
  0
LINE
  5
FA
  8
0
 62
     7
 10
85.470600000000005
 20
135.57099999999991
 30
0.0
 11
102.554
 21
135.57099999999991
 31
0.0
  0
LINE
  5
FB
  8
0
 62
     7
 10
110.18899999999999
 20
123.0709999999999
 30
0.0
 11
110.18899999999999
 21
127.23699999999999
 31
0.0
  0
ARC
  5
FC
  8
0
  6
AIGENLINE001
 62
     7
 10
73.762738999999996
 20
124.2798719999999
 30
0.0
 40
1.1252219999999991
 50
2.1044
 51
87.895589999999999
  0
ARC
  5
FD
  8
0
  6
AIGENLINE001
 62
     7
 10
73.845368000000008
 20
124.279523
 30
0.0
 40
1.12557
 50
92.103274999999996
 51
177.87847400000001
  0
ARC
  5
FE
  8
0
  6
AIGENLINE001
 62
     7
 10
73.804057999999998
 20
124.3211899999999
 30
0.0
 40
1.083488999999999
 50
179.99996999999991
 51
270.00002000000001
  0
ARC
  5
FF
  8
0
  6
AIGENLINE001
 62
     7
 10
73.803886000000006
 20
124.32101899999989
 30
0.0
 40
1.0833170000000001
 50
270.00912999999991
 51
0.009101
  0
LINE
  5
100
  8
0
 62
     7
 10
102.554
 20
125.804
 30
0.0
 11
102.554
 21
136.15399999999991
 31
0.0
  0
LINE
  5
101
  8
0
  6
AIGENLINE002
 62
     7
 10
73.804100000000005
 20
111.76000000000001
 30
0.0
 11
73.804100000000005
 21
129.1879999999999
 31
0.0
  0
LINE
  5
102
  8
0
 62
     7
 10
126.855
 20
183.84700000000001
 30
0.0
 11
118.13799999999991
 21
183.84700000000001
 31
0.0
  0
LINE
  5
103
  8
0
 62
     7
 10
126.2709999999999
 20
183.84700000000001
 30
0.0
 11
126.2709999999999
 21
186.76400000000001
 31
0.0
  0
LINE
  5
104
  8
0
 62
     7
 10
96.887699999999995
 20
186.76400000000001
 30
0.0
 11
126.855
 21
186.76400000000001
 31
0.0
  0
LINE
  5
105
  8
0
 62
     7
 10
125.6839999999999
 20
188.97499999999999
 30
0.0
 11
126.2769999999999
 21
186.76300000000001
 31
0.0
  0
LINE
  5
106
  8
0
 62
     7
 10
126.2769999999999
 20
186.76300000000001
 30
0.0
 11
126.87
 21
188.97499999999999
 31
0.0
  0
LINE
  5
107
  8
0
 62
     7
 10
126.87
 20
188.97499999999999
 30
0.0
 11
125.6839999999999
 21
188.97499999999999
 31
0.0
  0
LINE
  5
108
  8
0
 62
     7
 10
126.8579999999999
 20
212.053
 30
0.0
 11
126.265
 21
214.26400000000001
 31
0.0
  0
LINE
  5
109
  8
0
 62
     7
 10
126.265
 20
214.26400000000001
 30
0.0
 11
125.6729999999999
 21
212.053
 31
0.0
  0
LINE
  5
10A
  8
0
 62
     7
 10
125.6729999999999
 20
212.053
 30
0.0
 11
126.8579999999999
 21
212.053
 31
0.0
  0
LINE
  5
10B
  8
0
 62
     7
 10
126.2709999999999
 20
186.76400000000001
 30
0.0
 11
126.2709999999999
 21
214.26400000000001
 31
0.0
  0
LINE
  5
10C
  8
0
 62
     7
 10
125.6839999999999
 20
216.47499999999999
 30
0.0
 11
126.2769999999999
 21
214.26300000000001
 31
0.0
  0
LINE
  5
10D
  8
0
 62
     7
 10
126.2769999999999
 20
214.26300000000001
 30
0.0
 11
126.87
 21
216.47499999999999
 31
0.0
  0
LINE
  5
10E
  8
0
 62
     7
 10
126.87
 20
216.47499999999999
 30
0.0
 11
125.6839999999999
 21
216.47499999999999
 31
0.0
  0
LINE
  5
10F
  8
0
 62
     7
 10
126.8579999999999
 20
222.46899999999999
 30
0.0
 11
126.265
 21
224.6809999999999
 31
0.0
  0
LINE
  5
110
  8
0
 62
     7
 10
126.265
 20
224.6809999999999
 30
0.0
 11
125.6729999999999
 21
222.46899999999999
 31
0.0
  0
LINE
  5
111
  8
0
 62
     7
 10
125.6729999999999
 20
222.46899999999999
 30
0.0
 11
126.8579999999999
 21
222.46899999999999
 31
0.0
  0
LINE
  5
112
  8
0
 62
     7
 10
126.2709999999999
 20
214.26400000000001
 30
0.0
 11
126.2709999999999
 21
224.67999999999989
 31
0.0
  0
LINE
  5
113
  8
0
 62
     7
 10
118.13799999999991
 20
224.67999999999989
 30
0.0
 11
126.855
 21
224.67999999999989
 31
0.0
  0
LINE
  5
114
  8
0
 62
     7
 10
96.887699999999995
 20
214.26400000000001
 30
0.0
 11
126.855
 21
214.26400000000001
 31
0.0
  0
LINE
  5
115
  8
0
  6
AIGENLINE002
 62
     7
 10
69.858699999999999
 20
208.84700000000001
 30
0.0
 11
77.631200000000007
 21
208.84700000000001
 31
0.0
  0
LINE
  5
116
  8
0
 62
     7
 10
94.093400000000003
 20
173.87700000000001
 30
0.0
 11
96.305199999999999
 21
174.46899999999999
 31
0.0
  0
LINE
  5
117
  8
0
 62
     7
 10
96.305199999999999
 20
174.46899999999999
 30
0.0
 11
94.093400000000003
 21
175.06200000000001
 31
0.0
  0
LINE
  5
118
  8
0
 62
     7
 10
94.093400000000003
 20
175.06200000000001
 30
0.0
 11
94.093400000000003
 21
173.87700000000001
 31
0.0
  0
LINE
  5
119
  8
0
 62
     7
 10
53.514600000000002
 20
175.05000000000001
 30
0.0
 11
51.302799999999991
 21
174.45699999999991
 31
0.0
  0
LINE
  5
11A
  8
0
 62
     7
 10
51.302799999999991
 20
174.45699999999991
 30
0.0
 11
53.514600000000002
 21
173.864
 31
0.0
  0
LINE
  5
11B
  8
0
 62
     7
 10
53.514600000000002
 20
173.864
 30
0.0
 11
53.514600000000002
 21
175.05000000000001
 31
0.0
  0
LINE
  5
11C
  8
0
 62
     7
 10
96.304100000000005
 20
174.46299999999991
 30
0.0
 11
51.303699999999999
 21
174.46299999999991
 31
0.0
  0
LINE
  5
11D
  8
0
 62
     7
 10
115.34399999999999
 20
173.87700000000001
 30
0.0
 11
117.5559999999999
 21
174.46899999999999
 31
0.0
  0
LINE
  5
11E
  8
0
 62
     7
 10
117.5559999999999
 20
174.46899999999999
 30
0.0
 11
115.34399999999999
 21
175.06200000000001
 31
0.0
  0
LINE
  5
11F
  8
0
 62
     7
 10
115.34399999999999
 20
175.06200000000001
 30
0.0
 11
115.34399999999999
 21
173.87700000000001
 31
0.0
  0
LINE
  5
120
  8
0
 62
     7
 10
98.514700000000005
 20
175.05000000000001
 30
0.0
 11
96.302899999999994
 21
174.45699999999991
 31
0.0
  0
LINE
  5
121
  8
0
 62
     7
 10
96.302899999999994
 20
174.45699999999991
 30
0.0
 11
98.514700000000005
 21
173.864
 31
0.0
  0
LINE
  5
122
  8
0
 62
     7
 10
98.514700000000005
 20
173.864
 30
0.0
 11
98.514700000000005
 21
175.05000000000001
 31
0.0
  0
LINE
  5
123
  8
0
 62
     7
 10
117.554
 20
174.46299999999991
 30
0.0
 11
96.304100000000005
 21
174.46299999999991
 31
0.0
  0
LINE
  5
124
  8
0
 62
     7
 10
117.554
 20
183.26299999999989
 30
0.0
 11
117.554
 21
173.87999999999991
 31
0.0
  0
LINE
  5
125
  8
0
 62
     7
 10
51.303699999999999
 20
173.87999999999991
 30
0.0
 11
51.303699999999999
 21
186.18000000000001
 31
0.0
  0
LINE
  5
126
  8
0
 62
     7
 10
32.264600000000002
 20
175.05000000000001
 30
0.0
 11
30.052800000000001
 21
174.45699999999991
 31
0.0
  0
LINE
  5
127
  8
0
 62
     7
 10
30.052800000000001
 20
174.45699999999991
 30
0.0
 11
32.264600000000002
 21
173.864
 31
0.0
  0
LINE
  5
128
  8
0
 62
     7
 10
32.264600000000002
 20
173.864
 30
0.0
 11
32.264600000000002
 21
175.05000000000001
 31
0.0
  0
LINE
  5
129
  8
0
 62
     7
 10
49.092700000000001
 20
173.87700000000001
 30
0.0
 11
51.30449999999999
 21
174.46899999999999
 31
0.0
  0
LINE
  5
12A
  8
0
 62
     7
 10
51.30449999999999
 20
174.46899999999999
 30
0.0
 11
49.092700000000001
 21
175.06200000000001
 31
0.0
  0
LINE
  5
12B
  8
0
 62
     7
 10
49.092700000000001
 20
175.06200000000001
 30
0.0
 11
49.092700000000001
 21
173.87700000000001
 31
0.0
  0
LINE
  5
12C
  8
0
 62
     7
 10
30.053699999999999
 20
174.46299999999991
 30
0.0
 11
51.303699999999999
 21
174.46299999999991
 31
0.0
  0
LINE
  5
12D
  8
0
 62
     7
 10
30.053699999999999
 20
183.26299999999989
 30
0.0
 11
30.053699999999999
 21
173.87999999999991
 31
0.0
  0
LINE
  5
12E
  8
0
 62
     7
 10
132.30099999999999
 20
186.05799999999991
 30
0.0
 11
132.89400000000001
 21
183.84599999999989
 31
0.0
  0
LINE
  5
12F
  8
0
 62
     7
 10
132.89400000000001
 20
183.84599999999989
 30
0.0
 11
133.4859999999999
 21
186.05799999999991
 31
0.0
  0
LINE
  5
130
  8
0
 62
     7
 10
133.4859999999999
 20
186.05799999999991
 30
0.0
 11
132.30099999999999
 21
186.05799999999991
 31
0.0
  0
LINE
  5
131
  8
0
 62
     7
 10
133.47499999999991
 20
222.46899999999999
 30
0.0
 11
132.88200000000001
 21
224.6809999999999
 31
0.0
  0
LINE
  5
132
  8
0
 62
     7
 10
132.88200000000001
 20
224.6809999999999
 30
0.0
 11
132.2889999999999
 21
222.46899999999999
 31
0.0
  0
LINE
  5
133
  8
0
 62
     7
 10
132.2889999999999
 20
222.46899999999999
 30
0.0
 11
133.47499999999991
 21
222.46899999999999
 31
0.0
  0
LINE
  5
134
  8
0
 62
     7
 10
132.88800000000001
 20
183.84700000000001
 30
0.0
 11
132.88800000000001
 21
224.67999999999989
 31
0.0
  0
LINE
  5
135
  8
0
 62
     7
 10
126.855
 20
183.84700000000001
 30
0.0
 11
133.471
 21
183.84700000000001
 31
0.0
  0
LINE
  5
136
  8
0
 62
     7
 10
126.855
 20
224.67999999999989
 30
0.0
 11
133.471
 21
224.67999999999989
 31
0.0
  0
LINE
  5
137
  8
0
 62
     7
 10
115.34399999999999
 20
238.423
 30
0.0
 11
117.5559999999999
 21
239.01599999999991
 31
0.0
  0
LINE
  5
138
  8
0
 62
     7
 10
117.5559999999999
 20
239.01599999999991
 30
0.0
 11
115.34399999999999
 21
239.60799999999989
 31
0.0
  0
LINE
  5
139
  8
0
 62
     7
 10
115.34399999999999
 20
239.60799999999989
 30
0.0
 11
115.34399999999999
 21
238.423
 31
0.0
  0
LINE
  5
13A
  8
0
 62
     7
 10
32.264600000000002
 20
239.59599999999989
 30
0.0
 11
30.052800000000001
 21
239.00399999999999
 31
0.0
  0
LINE
  5
13B
  8
0
 62
     7
 10
30.052800000000001
 20
239.00399999999999
 30
0.0
 11
32.264600000000002
 21
238.41099999999989
 31
0.0
  0
LINE
  5
13C
  8
0
 62
     7
 10
32.264600000000002
 20
238.41099999999989
 30
0.0
 11
32.264600000000002
 21
239.59599999999989
 31
0.0
  0
LINE
  5
13D
  8
0
 62
     7
 10
117.554
 20
239.00999999999991
 30
0.0
 11
30.053699999999999
 21
239.00999999999991
 31
0.0
  0
LINE
  5
13E
  8
0
 62
     7
 10
30.053699999999999
 20
225.2639999999999
 30
0.0
 11
30.053699999999999
 21
239.5929999999999
 31
0.0
  0
LINE
  5
13F
  8
0
 62
     7
 10
117.554
 20
225.2639999999999
 30
0.0
 11
117.554
 21
239.5929999999999
 31
0.0
  0
LINE
  5
140
  8
0
  6
AIGENLINE002
 62
     7
 10
71.150099999999995
 20
219.26400000000001
 30
0.0
 11
76.561499999999995
 21
219.26400000000001
 31
0.0
  0
LINE
  5
141
  8
0
 62
     7
 10
90.887000000000015
 20
221.47499999999991
 30
0.0
 11
90.294499999999999
 21
219.26300000000001
 31
0.0
  0
LINE
  5
142
  8
0
 62
     7
 10
90.294499999999999
 20
219.26300000000001
 30
0.0
 11
89.701899999999995
 21
221.47499999999991
 31
0.0
  0
LINE
  5
143
  8
0
 62
     7
 10
89.701899999999995
 20
221.47499999999991
 30
0.0
 11
90.887000000000015
 21
221.47499999999991
 31
0.0
  0
LINE
  5
144
  8
0
 62
     7
 10
89.713999999999999
 20
222.46899999999999
 30
0.0
 11
90.306499999999986
 21
224.6809999999999
 31
0.0
  0
LINE
  5
145
  8
0
 62
     7
 10
90.306499999999986
 20
224.6809999999999
 30
0.0
 11
90.899100000000004
 21
222.46899999999999
 31
0.0
  0
LINE
  5
146
  8
0
 62
     7
 10
90.899100000000004
 20
222.46899999999999
 30
0.0
 11
89.713999999999999
 21
222.46899999999999
 31
0.0
  0
LINE
  5
147
  8
0
 62
     7
 10
90.300500000000014
 20
219.26400000000001
 30
0.0
 11
90.300500000000014
 21
224.67999999999989
 31
0.0
  0
LINE
  5
148
  8
0
 62
     7
 10
84.868600000000001
 20
230.32799999999989
 30
0.0
 11
90.609499999999997
 21
230.32799999999989
 31
0.0
  0
LINE
  5
149
  8
0
 62
     7
 10
77.505499999999998
 20
219.26400000000001
 30
0.0
 11
90.883899999999997
 21
219.26400000000001
 31
0.0
  0
LINE
  5
14A
  8
0
 62
     7
 10
56.919400000000003
 20
211.05799999999999
 30
0.0
 11
57.511899999999997
 21
208.84599999999989
 31
0.0
  0
LINE
  5
14B
  8
0
 62
     7
 10
57.511899999999997
 20
208.84599999999989
 30
0.0
 11
58.104300000000002
 21
211.05799999999999
 31
0.0
  0
LINE
  5
14C
  8
0
 62
     7
 10
58.104300000000002
 20
211.05799999999999
 30
0.0
 11
56.919400000000003
 21
211.05799999999999
 31
0.0
  0
LINE
  5
14D
  8
0
 62
     7
 10
58.092300000000002
 20
222.46899999999999
 30
0.0
 11
57.499899999999997
 21
224.6809999999999
 31
0.0
  0
LINE
  5
14E
  8
0
 62
     7
 10
57.499899999999997
 20
224.6809999999999
 30
0.0
 11
56.907299999999999
 21
222.46899999999999
 31
0.0
  0
LINE
  5
14F
  8
0
 62
     7
 10
56.907299999999999
 20
222.46899999999999
 30
0.0
 11
58.092300000000002
 21
222.46899999999999
 31
0.0
  0
LINE
  5
150
  8
0
 62
     7
 10
57.50589999999999
 20
208.84700000000001
 30
0.0
 11
57.50589999999999
 21
224.67999999999989
 31
0.0
  0
LINE
  5
151
  8
0
 62
     7
 10
69.275499999999994
 20
208.84700000000001
 30
0.0
 11
56.922499999999999
 21
208.84700000000001
 31
0.0
  0
LINE
  5
152
  8
0
 62
     7
 10
71.627799999999993
 20
216.25
 30
0.0
 11
72.772599999999997
 21
218.23299999999989
 31
0.0
  0
LINE
  5
153
  8
0
 62
     7
 10
72.772599999999997
 20
218.23299999999989
 30
0.0
 11
70.789599999999993
 21
217.08799999999991
 31
0.0
  0
LINE
  5
154
  8
0
 62
     7
 10
70.789599999999993
 20
217.08799999999991
 30
0.0
 11
71.627799999999993
 21
216.25
 31
0.0
  0
LINE
  5
155
  8
0
 62
     7
 10
69.922300000000007
 20
215.3829999999999
 30
0.0
 11
84.868600000000001
 21
230.32799999999989
 31
0.0
  0
LINE
  5
156
  8
0
 62
     7
 10
75.979600000000005
 20
222.27799999999991
 30
0.0
 11
74.8352
 21
220.2949999999999
 31
0.0
  0
LINE
  5
157
  8
0
 62
     7
 10
74.8352
 20
220.2949999999999
 30
0.0
 11
76.817800000000005
 21
221.43999999999991
 31
0.0
  0
LINE
  5
158
  8
0
 62
     7
 10
76.817800000000005
 20
221.43999999999991
 30
0.0
 11
75.979600000000005
 21
222.27799999999991
 31
0.0
  0
LINE
  5
159
  8
0
 62
     7
 10
71.303799999999995
 20
205.50899999999999
 30
0.0
 11
72.448599999999999
 21
207.49199999999999
 31
0.0
  0
LINE
  5
15A
  8
0
 62
     7
 10
72.448599999999999
 20
207.49199999999999
 30
0.0
 11
70.465599999999995
 21
206.34700000000001
 31
0.0
  0
LINE
  5
15B
  8
0
 62
     7
 10
70.465599999999995
 20
206.34700000000001
 30
0.0
 11
71.303799999999995
 21
205.50899999999999
 31
0.0
  0
LINE
  5
15C
  8
0
 62
     7
 10
66.439300000000003
 20
201.48199999999991
 30
0.0
 11
72.448599999999999
 21
207.49199999999999
 31
0.0
  0
LINE
  5
15D
  8
0
 62
     7
 10
72.448599999999999
 20
207.49199999999999
 30
0.0
 11
75.159400000000005
 21
210.20199999999991
 31
0.0
  0
LINE
  5
15E
  8
0
 62
     7
 10
76.303799999999995
 20
212.185
 30
0.0
 11
75.159400000000005
 21
210.20199999999991
 31
0.0
  0
LINE
  5
15F
  8
0
 62
     7
 10
75.159400000000005
 20
210.20199999999991
 30
0.0
 11
77.141999999999996
 21
211.34699999999989
 31
0.0
  0
LINE
  5
160
  8
0
 62
     7
 10
77.141999999999996
 20
211.34699999999989
 30
0.0
 11
76.303799999999995
 21
212.185
 31
0.0
  0
LINE
  5
161
  8
0
 62
     7
 10
75.159400000000005
 20
210.20199999999991
 30
0.0
 11
77.331500000000005
 21
212.375
 31
0.0
  0
LINE
  5
162
  8
0
  6
AIGENLINE002
 62
     7
 10
73.804100000000005
 20
181.95500000000001
 30
0.0
 11
73.804100000000005
 21
226.184
 31
0.0
  0
LINE
  5
163
  8
0
  6
AIGENLINE002
 62
     7
 10
45.053699999999999
 20
221.59699999999989
 30
0.0
 11
45.053699999999999
 21
229.01599999999991
 31
0.0
  0
LINE
  5
164
  8
0
  6
AIGENLINE002
 62
     7
 10
102.554
 20
221.845
 30
0.0
 11
102.554
 21
228.78099999999989
 31
0.0
  0
LINE
  5
165
  8
0
  6
AIGENLINE002
 62
     7
 10
62.1372
 20
221.845
 30
0.0
 11
62.1372
 21
229.01599999999991
 31
0.0
  0
LINE
  5
166
  8
0
  6
AIGENLINE002
 62
     7
 10
85.470600000000005
 20
222.154
 30
0.0
 11
85.470600000000005
 21
228.78099999999989
 31
0.0
  0
ARC
  5
167
  8
0
 62
     7
 10
73.804057999999998
 20
208.84714199999991
 30
0.0
 40
3.124893999999999
 50
0.00001
 51
89.999980000000008
  0
ARC
  5
168
  8
0
 62
     7
 10
73.803972999999999
 20
208.84705600000001
 30
0.0
 40
3.124979999999999
 50
89.998420999999993
 51
179.99839099999991
  0
ARC
  5
169
  8
0
 62
     7
 10
73.804057999999998
 20
208.84714199999991
 30
0.0
 40
3.1250650000000002
 50
179.99996999999991
 51
270.00002000000001
  0
ARC
  5
16A
  8
0
 62
     7
 10
73.80397099999999
 20
208.84705700000001
 30
0.0
 40
3.124979999999999
 50
270.001599
 51
0.001569
  0
ARC
  5
16B
  8
0
 62
     7
 10
73.804057999999998
 20
208.84714199999991
 30
0.0
 40
1.916518999999999
 50
0.00001
 51
89.999980000000008
  0
ARC
  5
16C
  8
0
 62
     7
 10
73.803972000000002
 20
208.84705600000001
 30
0.0
 40
1.916604999999999
 50
89.997425000000007
 51
179.9973949999999
  0
ARC
  5
16D
  8
0
 62
     7
 10
73.804230000000004
 20
208.84697
 30
0.0
 40
1.916863
 50
179.994821
 51
269.99487099999999
  0
ARC
  5
16E
  8
0
 62
     7
 10
73.803798999999998
 20
208.84688499999999
 30
0.0
 40
1.9167769999999991
 50
270.00774299999989
 51
0.007714
  0
ARC
  5
16F
  8
0
 62
     7
 10
73.803886000000006
 20
219.26379900000001
 30
0.0
 40
1.458318
 50
359.99324200000001
 51
89.993212
  0
ARC
  5
170
  8
0
 62
     7
 10
73.860660999999993
 20
219.20702399999999
 30
0.0
 40
1.5161500000000001
 50
92.139533
 51
177.8604379999999
  0
ARC
  5
171
  8
0
 62
     7
 10
73.859543000000002
 20
219.31946899999991
 30
0.0
 40
1.515004999999999
 50
182.11239399999991
 51
267.90117099999992
  0
ARC
  5
172
  8
0
 62
     7
 10
73.804057999999998
 20
219.26362700000001
 30
0.0
 40
1.4581459999999991
 50
270.00002000000001
 51
359.99998999999991
  0
TEXT
  5
173
  8
_________2
 62
     7
 10
29.525700000000001
 20
22.226900000000001
 30
0.0
 40
3.9357000000000002
  1
実容量：12L、重量39kg、オーバーフロー付
 41
0.5
  0
LINE
  5
174
  8
_________2
 62
     7
 10
210.24000000000001
 20
148.93100000000001
 30
0.0
 11
188.49000000000001
 21
148.93100000000001
 31
0.0
  0
LINE
  5
175
  8
_________2
 62
     7
 10
105.2389999999999
 20
17.428499999999989
 30
0.0
 11
105.2389999999999
 21
0.4482100000000001
 31
0.0
  0
LINE
  5
176
  8
_________2
 62
     7
 10
105.2389999999999
 20
297.44999999999987
 30
0.0
 11
105.2389999999999
 21
280.42999999999989
 31
0.0
  0
LINE
  5
177
  8
_________2
 62
     7
 10
21.988499999999991
 20
148.93100000000001
 30
0.0
 11
0.238058
 21
148.93100000000001
 31
0.0
  0
LINE
  5
178
  8
_________2
 62
     7
 10
81.679900000000004
 20
51.324300000000001
 30
0.0
 11
79.493700000000004
 21
51.324300000000001
 31
0.0
  0
LINE
  5
179
  8
_________2
 62
     7
 10
82.172600000000017
 20
51.324300000000001
 30
0.0
 11
81.920400000000001
 21
51.324300000000001
 31
0.0
  0
LINE
  5
17A
  8
_________2
 62
     7
 10
82.665199999999984
 20
51.324300000000001
 30
0.0
 11
85.590100000000007
 21
51.324300000000001
 31
0.0
  0
LINE
  5
17B
  8
_________2
 62
     7
 10
82.172600000000017
 20
51.324300000000001
 30
0.0
 11
82.424800000000005
 21
51.324300000000001
 31
0.0
  0
LINE
  5
17C
  8
_________2
 62
     7
 10
75.776399999999995
 20
51.324300000000001
 30
0.0
 11
73.589399999999998
 21
51.324300000000001
 31
0.0
  0
LINE
  5
17D
  8
_________2
 62
     7
 10
76.2684
 20
51.324300000000001
 30
0.0
 11
76.016900000000007
 21
51.324300000000001
 31
0.0
  0
LINE
  5
17E
  8
_________2
 62
     7
 10
76.2684
 20
51.817
 30
0.0
 11
76.2684
 21
54.003900000000002
 31
0.0
  0
LINE
  5
17F
  8
_________2
 62
     7
 10
76.2684
 20
51.324300000000001
 30
0.0
 11
76.2684
 21
51.576500000000003
 31
0.0
  0
LINE
  5
180
  8
_________2
 62
     7
 10
76.76100000000001
 20
51.324300000000001
 30
0.0
 11
78.947999999999993
 21
51.324300000000001
 31
0.0
  0
LINE
  5
181
  8
_________2
 62
     7
 10
76.2684
 20
51.324300000000001
 30
0.0
 11
76.520499999999998
 21
51.324300000000001
 31
0.0
  0
LINE
  5
182
  8
_________2
 62
     7
 10
76.2684
 20
50.832399999999993
 30
0.0
 11
76.2684
 21
48.645400000000002
 31
0.0
  0
LINE
  5
183
  8
_________2
 62
     7
 10
76.2684
 20
51.324300000000001
 30
0.0
 11
76.2684
 21
51.072800000000001
 31
0.0
  0
LINE
  5
184
  8
_________2
 62
     7
 10
79.979399999999984
 20
50.104799999999997
 30
0.0
 11
85.157399999999996
 21
49.240000000000002
 31
0.0
  0
LINE
  5
185
  8
_________2
 62
     7
 10
79.979399999999984
 20
52.543900000000001
 30
0.0
 11
85.157399999999996
 21
53.409300000000002
 31
0.0
  0
LINE
  5
186
  8
_________2
 62
     7
 10
85.157399999999996
 20
49.240000000000002
 30
0.0
 11
85.157399999999996
 21
53.409300000000002
 31
0.0
  0
LINE
  5
187
  8
_________2
 62
     7
 10
79.979399999999984
 20
50.104799999999997
 30
0.0
 11
79.979399999999984
 21
52.543900000000001
 31
0.0
  0
ARC
  5
188
  8
_________2
 62
     7
 10
76.222110000000001
 20
51.277366999999991
 30
0.0
 40
1.2673709999999989
 50
2.1232950000000002
 51
87.909056000000007
  0
ARC
  5
189
  8
_________2
 62
     7
 10
76.315273000000005
 20
51.277400999999998
 30
0.0
 40
1.267363
 50
92.121785999999986
 51
177.878185
  0
ARC
  5
18A
  8
_________2
 62
     7
 10
76.315273000000005
 20
51.371245999999992
 30
0.0
 40
1.267363
 50
182.12181499999991
 51
267.87821400000001
  0
ARC
  5
18B
  8
_________2
 62
     7
 10
76.221461000000005
 20
51.371928999999987
 30
0.0
 40
1.2680439999999991
 50
272.11916400000001
 51
357.84848499999993
  0
ARC
  5
18C
  8
_________2
 62
     7
 10
76.268349999999984
 20
51.324323
 30
0.0
 40
2.0849849999999992
 50
0.00001
 51
89.999980000000008
  0
ARC
  5
18D
  8
_________2
 62
     7
 10
76.348388
 20
51.245001999999992
 30
0.0
 40
2.1657860000000002
 50
92.117855000000034
 51
177.90105299999991
  0
ARC
  5
18E
  8
_________2
 62
     7
 10
76.348354
 20
51.404327000000002
 30
0.0
 40
2.1657779999999991
 50
182.11700400000001
 51
267.88302499999992
  0
ARC
  5
18F
  8
_________2
 62
     7
 10
76.188378999999983
 20
51.405009999999997
 30
0.0
 40
2.1664590000000001
 50
272.11546800000002
 51
357.86560400000002
  0
TEXT
  5
190
  8
_________2
 62
     7
 10
109.5439999999999
 20
23.199100000000001
 30
0.0
 40
3.0923400000000001
  1
図番
 41
0.5
  0
LINE
  5
191
  8
_________2
 62
     7
 10
108.4889999999999
 20
27.4283
 30
0.0
 11
188.49000000000001
 21
27.4283
 31
0.0
  0
TEXT
  5
192
  8
_________2
 62
     7
 10
109.5439999999999
 20
33.198900000000002
 30
0.0
 40
3.0923400000000001
  1
品番
 41
0.5
  0
TEXT
  5
193
  8
_________2
 62
     7
 10
109.5439999999999
 20
53.337699999999998
 30
0.0
 40
3.0923400000000001
  1
名称
 41
0.5
  0
TEXT
  5
194
  8
_________2
 62
     7
 10
96.784058333333334
 20
48.341500000000011
 30
0.0
 40
3.6545800000000002
  1
mm
 41
0.5
 72
     1
 11
98.306799999999996
 21
48.341500000000011
 31
0.0
  0
TEXT
  5
195
  8
_________2
 62
     7
 10
90.582099999999997
 20
53.337699999999998
 30
0.0
 40
3.0923400000000001
  1
単位
 41
0.5
  0
TEXT
  5
196
  8
_________2
 62
     7
 10
90.582099999999997
 20
40.930399999999999
 30
0.0
 40
3.0923400000000001
  1
尺度
 41
0.5
  0
TEXT
  5
197
  8
_________2
 62
     7
 10
94.878562000000016
 20
34.73749999999999
 30
0.0
 40
3.6545800000000002
  1
1 ： 12
 41
0.5
 72
     1
 11
98.898600000000002
 21
34.73749999999999
 31
0.0
  0
TEXT
  5
198
  8
_________2
 62
     7
 10
138.64975000000001
 20
30.627400000000002
 30
0.0
 40
3.9357000000000002
  1
DV032910-00
 41
0.5
 72
     1
 11
148.489
 21
30.627400000000002
 31
0.0
  0
TEXT
  5
199
  8
_________2
 62
     7
 10
141.27354999999989
 20
20.626999999999988
 30
0.0
 40
3.9357000000000002
  1
DV032910
 41
0.5
 72
     1
 11
148.489
 21
20.626999999999988
 31
0.0
  0
TEXT
  5
19A
  8
_________2
 62
     7
 10
25.3642
 20
61.0092
 30
0.0
 40
4.2168199999999993
  1
※壁取付部には厚さ30mm以上の補強木を入れてください。
 41
0.5
  0
TEXT
  5
19B
  8
_________2
 62
     7
 10
114.11799999999999
 20
45.7453
 30
0.0
 40
3.9357000000000002
  1
ヴェーロ　洗面器
 41
0.5
  0
TEXT
  5
19C
  8
_________2
 62
     7
 10
44.303290666666669
 20
35.122599999999991
 30
0.0
 40
3.6545800000000002
  1
石原
 41
0.5
 72
     1
 11
46.252400000000002
 21
35.122599999999991
 31
0.0
  0
TEXT
  5
19D
  8
_________2
 62
     7
 10
25.729290666666671
 20
35.122599999999991
 30
0.0
 40
3.6545800000000002
  1
菅原
 41
0.5
 72
     1
 11
27.6784
 21
35.122599999999991
 31
0.0
  0
TEXT
  5
19E
  8
_________2
 62
     7
 10
72.724699999999999
 20
34.73749999999999
 30
0.0
 40
3.6545800000000002
  1
11.11.10
 41
0.5
  0
TEXT
  5
19F
  8
_________2
 62
     7
 10
71.531999999999996
 20
40.930399999999999
 30
0.0
 40
3.0923400000000001
  1
日付
 41
0.5
  0
TEXT
  5
1A0
  8
_________2
 62
     7
 10
34.578299999999992
 20
40.930399999999999
 30
0.0
 40
3.0923400000000001
  1
検図
 41
0.5
  0
TEXT
  5
1A1
  8
_________2
 62
     7
 10
22.960000000000001
 20
26.730999999999991
 30
0.0
 40
3.0923400000000001
  1
備考
 41
0.5
  0
TEXT
  5
1A2
  8
_________2
 62
     7
 10
22.960000000000001
 20
40.930399999999999
 30
0.0
 40
3.0923400000000001
  1
製図
 41
0.5
  0
TEXT
  5
1A3
  8
_________2
 62
     7
 10
28.727365333333339
 20
49.456400000000002
 30
0.0
 40
4.4979399999999989
  1
セラトレーディング株式会社
 41
0.5
 72
     1
 11
46.119399999999992
 21
49.456400000000002
 31
0.0
  0
LINE
  5
1A4
  8
_________2
 62
     7
 10
188.49000000000001
 20
17.428499999999989
 30
0.0
 11
21.988499999999991
 21
17.428499999999989
 31
0.0
  0
LINE
  5
1A5
  8
_________2
 62
     7
 10
21.988499999999991
 20
17.428499999999989
 30
0.0
 11
21.988499999999991
 21
280.42999999999989
 31
0.0
  0
LINE
  5
1A6
  8
_________2
 62
     7
 10
21.988499999999991
 20
280.42999999999989
 30
0.0
 11
188.49000000000001
 21
280.42999999999989
 31
0.0
  0
LINE
  5
1A7
  8
_________2
 62
     7
 10
188.49000000000001
 20
280.42999999999989
 30
0.0
 11
188.49000000000001
 21
17.428499999999989
 31
0.0
  0
LINE
  5
1A8
  8
_________2
 62
     7
 10
70.488799999999998
 20
30.9285
 30
0.0
 11
70.488799999999998
 21
57.428400000000011
 31
0.0
  0
LINE
  5
1A9
  8
_________2
 62
     7
 10
89.488600000000005
 20
30.9285
 30
0.0
 11
89.488600000000005
 21
57.428400000000011
 31
0.0
  0
LINE
  5
1AA
  8
_________2
 62
     7
 10
108.4889999999999
 20
17.428499999999989
 30
0.0
 11
108.4889999999999
 21
57.428400000000011
 31
0.0
  0
LINE
  5
1AB
  8
_________2
 62
     7
 10
33.488300000000002
 20
30.9285
 30
0.0
 11
33.488300000000002
 21
44.928800000000003
 31
0.0
  0
LINE
  5
1AC
  8
_________2
 62
     7
 10
21.988499999999991
 20
30.9285
 30
0.0
 11
108.4889999999999
 21
30.9285
 31
0.0
  0
LINE
  5
1AD
  8
_________2
 62
     7
 10
21.988499999999991
 20
44.928800000000003
 30
0.0
 11
108.4889999999999
 21
44.928800000000003
 31
0.0
  0
LINE
  5
1AE
  8
_________2
 62
     7
 10
108.4889999999999
 20
37.428100000000001
 30
0.0
 11
188.49000000000001
 21
37.428100000000001
 31
0.0
  0
LINE
  5
1AF
  8
_________2
 62
     7
 10
21.988499999999991
 20
57.428400000000011
 30
0.0
 11
188.49000000000001
 21
57.428400000000011
 31
0.0
  0
ENDSEC
  0
EOF
