  0
SECTION
  2
HEADER
  9
$ACADVER
  1
AC1009
  9
$INSBASE
 10
0.0
 20
0.0
 30
0.0
  9
$EXTMIN
 10
-4.70052
 20
-21.071400000000001
 30
0.0
  9
$EXTMAX
 10
205.30099999999999
 20
275.93099999999993
 30
0.0
  9
$LIMMIN
 10
0.0
 20
0.0
  9
$LIMMAX
 10
12.0
 20
9.0
  9
$ORTHOMODE
 70
     0
  9
$REGENMODE
 70
     1
  9
$FILLMODE
 70
     1
  9
$QTEXTMODE
 70
     0
  9
$MIRRTEXT
 70
     1
  9
$DRAGMODE
 70
     2
  9
$LTSCALE
 40
1.0
  9
$OSMODE
 70
    37
  9
$ATTMODE
 70
     1
  9
$TEXTSIZE
 40
0.0
  9
$TRACEWID
 40
0.05
  9
$TEXTSTYLE
  7
STANDARD
  9
$CLAYER
  8
0
  9
$CELTYPE
  6
CONTINUOUS
  9
$CECOLOR
 62
   256
  9
$DIMSCALE
 40
1.0
  9
$DIMASZ
 40
0.18
  9
$DIMEXO
 40
0.0625
  9
$DIMDLI
 40
0.38
  9
$DIMRND
 40
0.0
  9
$DIMDLE
 40
0.0
  9
$DIMEXE
 40
0.18
  9
$DIMTP
 40
0.0
  9
$DIMTM
 40
0.0
  9
$DIMTXT
 40
0.18
  9
$DIMCEN
 40
0.09
  9
$DIMTSZ
 40
0.0
  9
$DIMTOL
 70
     0
  9
$DIMLIM
 70
     0
  9
$DIMTIH
 70
     1
  9
$DIMTOH
 70
     1
  9
$DIMSE1
 70
     0
  9
$DIMSE2
 70
     0
  9
$DIMTAD
 70
     0
  9
$DIMZIN
 70
     0
  9
$DIMBLK
  1

  9
$DIMASO
 70
     1
  9
$DIMSHO
 70
     1
  9
$DIMPOST
  1

  9
$DIMAPOST
  1

  9
$DIMALT
 70
     0
  9
$DIMALTD
 70
     2
  9
$DIMALTF
 40
25.399999999999999
  9
$DIMLFAC
 40
1.0
  9
$DIMTOFL
 70
     0
  9
$DIMTVP
 40
0.0
  9
$DIMTIX
 70
     0
  9
$DIMSOXD
 70
     0
  9
$DIMSAH
 70
     0
  9
$DIMBLK1
  1

  9
$DIMBLK2
  1

  9
$DIMSTYLE
  2
STANDARD
  9
$DIMCLRD
 70
     0
  9
$DIMCLRE
 70
     0
  9
$DIMCLRT
 70
     0
  9
$DIMTFAC
 40
1.0
  9
$DIMGAP
 40
0.09
  9
$LUNITS
 70
     2
  9
$LUPREC
 70
     4
  9
$SKETCHINC
 40
0.1
  9
$FILLETRAD
 40
0.0
  9
$AUNITS
 70
     0
  9
$AUPREC
 70
     0
  9
$MENU
  1
.
  9
$ELEVATION
 40
0.0
  9
$PELEVATION
 40
0.0
  9
$THICKNESS
 40
0.0
  9
$LIMCHECK
 70
     0
  9
$BLIPMODE
 70
     0
  9
$CHAMFERA
 40
0.0
  9
$CHAMFERB
 40
0.0
  9
$SKPOLY
 70
     0
  9
$TDCREATE
 40
2444972.375
  9
$TDUPDATE
 40
2456039.2502355552
  9
$TDINDWG
 40
0.0000070602
  9
$TDUSRTIMER
 40
0.0000070602
  9
$USRTIMER
 70
     1
  9
$ANGBASE
 50
0.0
  9
$ANGDIR
 70
     0
  9
$PDMODE
 70
     0
  9
$PDSIZE
 40
0.0
  9
$PLINEWID
 40
0.0
  9
$COORDS
 70
     1
  9
$SPLFRAME
 70
     0
  9
$SPLINETYPE
 70
     6
  9
$SPLINESEGS
 70
     8
  9
$ATTDIA
 70
     0
  9
$ATTREQ
 70
     1
  9
$HANDLING
 70
     1
  9
$HANDSEED
  5
141
  9
$SURFTAB1
 70
     6
  9
$SURFTAB2
 70
     6
  9
$SURFTYPE
 70
     6
  9
$SURFU
 70
     6
  9
$SURFV
 70
     6
  9
$UCSNAME
  2

  9
$UCSORG
 10
0.0
 20
0.0
 30
0.0
  9
$UCSXDIR
 10
1.0
 20
0.0
 30
0.0
  9
$UCSYDIR
 10
0.0
 20
1.0
 30
0.0
  9
$PUCSNAME
  2

  9
$PUCSORG
 10
0.0
 20
0.0
 30
0.0
  9
$PUCSXDIR
 10
1.0
 20
0.0
 30
0.0
  9
$PUCSYDIR
 10
0.0
 20
1.0
 30
0.0
  9
$USERI1
 70
     0
  9
$USERI2
 70
     0
  9
$USERI3
 70
     0
  9
$USERI4
 70
     0
  9
$USERI5
 70
     0
  9
$USERR1
 40
0.0
  9
$USERR2
 40
0.0
  9
$USERR3
 40
0.0
  9
$USERR4
 40
0.0
  9
$USERR5
 40
0.0
  9
$WORLDVIEW
 70
     1
  9
$SHADEDGE
 70
     3
  9
$SHADEDIF
 70
    70
  9
$TILEMODE
 70
     1
  9
$MAXACTVP
 70
    48
  9
$PLIMCHECK
 70
     0
  9
$PEXTMIN
 10
1.0000000000000000E+020
 20
1.0000000000000000E+020
 30
1.0000000000000000E+020
  9
$PEXTMAX
 10
-1.0000000000000000E+020
 20
-1.0000000000000000E+020
 30
-1.0000000000000000E+020
  9
$PLIMMIN
 10
0.0
 20
0.0
  9
$PLIMMAX
 10
12.0
 20
9.0
  9
$UNITMODE
 70
     0
  9
$VISRETAIN
 70
     1
  9
$PLINEGEN
 70
     0
  9
$PSLTSCALE
 70
     1
  0
ENDSEC
  0
SECTION
  2
TABLES
  0
TABLE
  2
VPORT
 70
     2
  0
VPORT
  2
*ACTIVE
 70
     0
 10
0.0
 20
0.0
 11
1.0
 21
1.0
 12
205.3106854945909
 22
127.4297999999999
 13
0.0
 23
0.0
 14
1.0
 24
1.0
 15
0.0
 25
0.0
 16
0.0
 26
0.0
 36
1.0
 17
0.0
 27
0.0
 37
0.0
 40
299.2467506297229
 41
2.2894736842105261
 42
50.0
 43
0.0
 44
0.0
 50
0.0
 51
0.0
 71
     0
 72
   100
 73
     1
 74
     1
 75
     0
 76
     0
 77
     0
 78
     0
  0
ENDTAB
  0
TABLE
  2
LTYPE
 70
     4
  0
LTYPE
  2
CONTINUOUS
 70
     0
  3
Solid line
 72
    65
 73
     0
 40
0.0
  0
LTYPE
  2
AIGENLINE001
 70
     0
  3
generate AI->DXF Converter
 72
    65
 73
     2
 40
1.5522299999999991
 49
0.776115
 49
-0.776115
  0
LTYPE
  2
AIGENLINE002
 70
     0
  3
generate AI->DXF Converter
 72
    65
 73
     4
 40
5.8561449999999988
 49
3.5278
 49
-0.776115
 49
0.776115
 49
-0.776115
  0
LTYPE
  2
AIGENLINE003
 70
     0
  3
generate AI->DXF Converter
 72
    65
 73
     6
 40
7.4083750000000004
 49
3.5278
 49
-0.776115
 49
0.776115
 49
-0.776115
 49
0.776115
 49
-0.776115
  0
ENDTAB
  0
TABLE
  2
LAYER
 70
     2
  0
LAYER
  2
0
 70
     0
 62
     7
  6
CONTINUOUS
  0
LAYER
  2
_________2
 70
     0
 62
     7
  6
CONTINUOUS
  0
ENDTAB
  0
TABLE
  2
STYLE
 70
     1
  0
STYLE
  2
STANDARD
 70
     0
 40
0.0
 41
0.0
 50
0.0
 71
     0
 42
0.0
  3
TXT
  4
EXTFONT.SHX
  0
ENDTAB
  0
TABLE
  2
VIEW
 70
     0
  0
ENDTAB
  0
TABLE
  2
UCS
 70
     0
  0
ENDTAB
  0
TABLE
  2
APPID
 70
     1
  0
APPID
  2
ACAD
 70
     0
  0
ENDTAB
  0
TABLE
  2
DIMSTYLE
 70
     1
  0
DIMSTYLE
  2
STANDARD
 70
     0
  3

  4

  5

  6

  7

 40
1.0
 41
0.18
 42
0.0625
 43
0.38
 44
0.18
 45
0.0
 46
0.0
 47
0.0
 48
0.0
140
0.18
141
0.09
142
0.0
143
25.399999999999999
144
1.0
145
0.0
146
1.0
147
0.09
 71
     0
 72
     0
 73
     1
 74
     1
 75
     0
 76
     0
 77
     0
 78
     0
170
     0
171
     2
172
     0
173
     0
174
     0
175
     0
176
     0
177
     0
178
     0
  0
ENDTAB
  0
ENDSEC
  0
SECTION
  2
BLOCKS
  0
BLOCK
  8
0
  2
$MODEL_SPACE
 70
     0
 10
0.0
 20
0.0
 30
0.0
  3
$MODEL_SPACE
  1

  0
ENDBLK
  5
1A
  8
0
  0
BLOCK
 67
     1
  8
0
  2
$PAPER_SPACE
 70
     0
 10
0.0
 20
0.0
 30
0.0
  3
$PAPER_SPACE
  1

  0
ENDBLK
  5
17
 67
     1
  8
0
  0
ENDSEC
  0
SECTION
  2
ENTITIES
  0
TEXT
  5
24
  8
0
 62
     7
 10
128.185
 20
112.3679824999999
 30
0.0
 40
3.0923400000000001
  1
120
 50
90.0
 41
0.5
 72
     1
 11
128.185
 21
114.04300000000001
 31
0.0
  0
TEXT
  5
25
  8
0
 62
     7
 10
128.00205
 20
88.202899999999985
 30
0.0
 40
3.0923400000000001
  1
%%c175
 41
0.5
 72
     1
 11
130.57900000000001
 21
88.202899999999985
 31
0.0
  0
TEXT
  5
26
  8
0
 62
     7
 10
154.809
 20
110.58513499999999
 30
0.0
 40
3.0923400000000001
  1
145
 50
90.0
 41
0.5
 72
     1
 11
154.809
 21
112.389
 31
0.0
  0
TEXT
  5
27
  8
0
 62
     7
 10
162.77699999999999
 20
109.51298249999989
 30
0.0
 40
3.0923400000000001
  1
170
 50
90.0
 41
0.5
 72
     1
 11
162.77699999999999
 21
111.1879999999999
 31
0.0
  0
TEXT
  5
28
  8
0
 62
     7
 10
128.65159249999999
 20
95.946899999999985
 30
0.0
 40
3.0923400000000001
  1
%%c110
 41
0.5
 72
     1
 11
130.84200000000001
 21
95.946899999999985
 31
0.0
  0
TEXT
  5
29
  8
0
 62
     7
 10
74.852779999999996
 20
197.4129999999999
 30
0.0
 40
3.0923400000000001
  1
%%c46
 41
0.5
 72
     2
 11
78.975899999999996
 21
197.4129999999999
 31
0.0
  0
TEXT
  5
2A
  8
0
 62
     7
 10
140.44710000000001
 20
190.6809999999999
 30
0.0
 40
3.0923400000000001
  1
%%c125
 41
0.5
 72
     2
 11
145.601
 21
190.6809999999999
 31
0.0
  0
TEXT
  5
2B
  8
0
 62
     7
 10
123.11976
 20
167.22799999999989
 30
0.0
 40
3.0923400000000001
  1
カウンター切込寸法
 41
0.5
 72
     1
 11
131.36600000000001
 21
167.22799999999989
 31
0.0
  0
TEXT
  5
2C
  8
0
 62
     7
 10
83.456199999999995
 20
110.153845
 30
0.0
 40
3.0923400000000001
  1
max.30
 50
90.0
 41
0.5
 72
     2
 11
83.456199999999995
 21
117.627
 31
0.0
  0
TEXT
  5
2D
  8
0
 62
     7
 10
63.968253342852101
 20
177.3976768939381
 30
0.0
 40
3.0923400000000001
  1
%%c330
 50
2.06128
 41
0.5
 72
     1
 11
66.672300000000007
 21
177.495
 31
0.0
  0
LINE
  5
2E
  8
0
 62
     7
 10
129.09999999999991
 20
119.98699999999999
 30
0.0
 11
129.09999999999991
 21
107.98699999999999
 31
0.0
  0
LINE
  5
2F
  8
0
 62
     7
 10
129.09999999999991
 20
107.98699999999999
 30
0.0
 11
129.52299999999991
 21
110.387
 31
0.0
  0
LINE
  5
30
  8
0
 62
     7
 10
129.52299999999991
 20
110.387
 30
0.0
 11
128.67699999999999
 21
110.387
 31
0.0
  0
LINE
  5
31
  8
0
 62
     7
 10
128.67699999999999
 20
110.387
 30
0.0
 11
129.09999999999991
 21
107.98699999999999
 31
0.0
  0
LINE
  5
32
  8
0
 62
     7
 10
129.09999999999991
 20
119.98699999999999
 30
0.0
 11
128.67699999999999
 21
117.5869999999999
 31
0.0
  0
LINE
  5
33
  8
0
 62
     7
 10
128.67699999999999
 20
117.5869999999999
 30
0.0
 11
129.52299999999991
 21
117.5869999999999
 31
0.0
  0
LINE
  5
34
  8
0
 62
     7
 10
129.52299999999991
 20
117.5869999999999
 30
0.0
 11
129.09999999999991
 21
119.98699999999999
 31
0.0
  0
LINE
  5
35
  8
0
  6
AIGENLINE001
 62
     7
 10
133.36600000000001
 20
106.5239999999999
 30
0.0
 11
133.36600000000001
 21
103.04299999999991
 31
0.0
  0
LINE
  5
36
  8
0
  6
AIGENLINE001
 62
     7
 10
133.53099999999989
 20
106.91800000000001
 30
0.0
 11
134.566
 21
108.044
 31
0.0
  0
ARC
  5
37
  8
0
  6
AIGENLINE001
 62
     7
 10
133.9214749999999
 20
106.521912
 30
0.0
 40
0.555823
 50
134.576043
 51
179.74315599999991
  0
LINE
  5
38
  8
0
  6
AIGENLINE001
 62
     7
 10
131.066
 20
108.044
 30
0.0
 11
134.566
 21
108.044
 31
0.0
  0
LINE
  5
39
  8
0
  6
AIGENLINE001
 62
     7
 10
128.76599999999999
 20
106.5239999999999
 30
0.0
 11
128.76599999999999
 21
103.04299999999991
 31
0.0
  0
LINE
  5
3A
  8
0
  6
AIGENLINE001
 62
     7
 10
128.59999999999999
 20
106.91800000000001
 30
0.0
 11
127.566
 21
108.044
 31
0.0
  0
ARC
  5
3B
  8
0
  6
AIGENLINE001
 62
     7
 10
128.2095149999999
 20
106.5217419999999
 30
0.0
 40
0.5562279999999999
 50
0.274144
 51
45.406615999999993
  0
LINE
  5
3C
  8
0
  6
AIGENLINE001
 62
     7
 10
131.066
 20
108.044
 30
0.0
 11
127.566
 21
108.044
 31
0.0
  0
ARC
  5
3D
  8
0
  6
AIGENLINE001
 62
     7
 10
147.112829
 20
119.5893209999999
 30
0.0
 40
0.4544170000000001
 50
90.275844000000006
 51
134.73421899999991
  0
ARC
  5
3E
  8
0
  6
AIGENLINE001
 62
     7
 10
153.46871699999991
 20
110.649627
 30
0.0
 40
11.417491999999999
 50
125.7812159999999
 51
129.17858799999991
  0
ARC
  5
3F
  8
0
  6
AIGENLINE001
 62
     7
 10
157.77212
 20
105.3306179999999
 30
0.0
 40
18.259332000000001
 50
129.10228599999999
 51
132.44864699999991
  0
ARC
  5
40
  8
0
  6
AIGENLINE001
 62
     7
 10
164.8204439999999
 20
97.588370999999995
 30
0.0
 40
28.72932999999999
 50
132.399518
 51
135.02390299999999
  0
ARC
  5
41
  8
0
  6
AIGENLINE001
 62
     7
 10
179.82459700000001
 20
82.665331000000009
 30
0.0
 40
49.891097000000002
 50
135.07962599999991
 51
139.491015
  0
ARC
  5
42
  8
0
  6
AIGENLINE001
 62
     7
 10
207.9315959999999
 20
57.96020699999999
 30
0.0
 40
87.310188999999994
 50
139.145815
 51
140.69457700000001
  0
ARC
  5
43
  8
0
  6
AIGENLINE001
 62
     7
 10
105.1308539999999
 20
142.14323099999999
 30
0.0
 40
45.561083000000004
 50
314.80067000000003
 51
320.66989299999989
  0
ARC
  5
44
  8
0
  6
AIGENLINE001
 62
     7
 10
124.9516489999999
 20
122.3154999999999
 30
0.0
 40
17.525739000000002
 50
309.76017200000001
 51
314.49782799999991
  0
ARC
  5
45
  8
0
  6
AIGENLINE001
 62
     7
 10
132.55328499999999
 20
113.3516919999999
 30
0.0
 40
5.7742449999999987
 50
298.3632629999999
 51
308.66303699999997
  0
ARC
  5
46
  8
0
  6
AIGENLINE001
 62
     7
 10
134.1168219999999
 20
110.51154
 30
0.0
 40
2.532408999999999
 50
287.88687099999993
 51
297.76150699999999
  0
ARC
  5
47
  8
0
  6
AIGENLINE001
 62
     7
 10
134.53549399999989
 20
109.1866
 30
0.0
 40
1.1429510000000001
 50
271.50894899999997
 51
288.31318099999999
  0
LINE
  5
48
  8
0
  6
AIGENLINE002
 62
     7
 10
131.066
 20
101.96599999999999
 30
0.0
 11
131.066
 21
121.95399999999999
 31
0.0
  0
ARC
  5
49
  8
0
  6
AIGENLINE001
 62
     7
 10
115.01908899999989
 20
119.58975099999989
 30
0.0
 40
0.453986
 50
45.243744999999997
 51
89.790062000000006
  0
ARC
  5
4A
  8
0
  6
AIGENLINE001
 62
     7
 10
108.65275699999999
 20
110.63775200000001
 30
0.0
 40
11.433127000000001
 50
50.819451000000001
 51
54.211832999999999
  0
ARC
  5
4B
  8
0
  6
AIGENLINE001
 62
     7
 10
104.3490449999999
 20
105.3203649999999
 30
0.0
 40
18.273903000000001
 50
47.549016999999999
 51
50.892454000000008
  0
ARC
  5
4C
  8
0
  6
AIGENLINE001
 62
     7
 10
97.307368000000025
 20
97.585911999999993
 30
0.0
 40
28.733661999999988
 50
44.974378000000002
 51
47.598274000000004
  0
ARC
  5
4D
  8
0
  6
AIGENLINE001
 62
     7
 10
82.289715999999984
 20
82.65049599999999
 30
0.0
 40
49.913727999999999
 50
40.509168999999993
 51
44.918498999999997
  0
ARC
  5
4E
  8
0
  6
AIGENLINE001
 62
     7
 10
54.165702000000003
 20
57.931910999999999
 30
0.0
 40
87.354494999999986
 50
39.305597999999989
 51
40.853569999999998
  0
ARC
  5
4F
  8
0
  6
AIGENLINE001
 62
     7
 10
157.000539
 20
142.14323099999999
 30
0.0
 40
45.561083000000004
 50
219.330127
 51
225.19935000000001
  0
ARC
  5
50
  8
0
  6
AIGENLINE001
 62
     7
 10
137.179745
 20
122.3154999999999
 30
0.0
 40
17.525739000000002
 50
225.50219199999989
 51
230.23984699999991
  0
ARC
  5
51
  8
0
  6
AIGENLINE001
 62
     7
 10
129.57810799999999
 20
113.3516919999999
 30
0.0
 40
5.7742449999999987
 50
231.33698199999989
 51
241.63675599999999
  0
ARC
  5
52
  8
0
  6
AIGENLINE001
 62
     7
 10
128.0145719999999
 20
110.51154
 30
0.0
 40
2.532408999999999
 50
242.2385129999999
 51
252.11314899999999
  0
ARC
  5
53
  8
0
  6
AIGENLINE001
 62
     7
 10
127.595899
 20
109.1866
 30
0.0
 40
1.1429510000000001
 50
251.68683899999999
 51
268.49107099999998
  0
ARC
  5
54
  8
0
 62
     7
 10
122.55282099999999
 20
106.050603
 30
0.0
 40
0.5070359999999999
 50
219.781531
 51
269.60966000000002
  0
LINE
  5
55
  8
0
 62
     7
 10
122.54899999999989
 20
105.5439999999999
 30
0.0
 11
139.58099999999999
 21
105.5439999999999
 31
0.0
  0
LINE
  5
56
  8
0
 62
     7
 10
122.1629999999999
 20
105.726
 30
0.0
 11
122.035
 21
105.8799999999999
 31
0.0
  0
LINE
  5
57
  8
0
 62
     7
 10
125.7139999999999
 20
105.32299999999989
 30
0.0
 11
126.9549999999999
 21
103.4839999999999
 31
0.0
  0
ARC
  5
58
  8
0
 62
     7
 10
125.295357
 20
105.0351889999999
 30
0.0
 40
0.5084100000000001
 50
34.491146000000001
 51
89.482589000000004
  0
LINE
  5
59
  8
0
 62
     7
 10
131.066
 20
103.04299999999991
 30
0.0
 11
127.78399999999991
 21
103.04299999999991
 31
0.0
  0
ARC
  5
5A
  8
0
 62
     7
 10
127.79328599999999
 20
104.06130899999989
 30
0.0
 40
1.017898999999999
 50
214.52274499999999
 51
269.45102900000001
  0
LINE
  5
5B
  8
0
 62
     7
 10
139.96299999999991
 20
105.7209999999999
 30
0.0
 11
140.09700000000001
 21
105.8799999999999
 31
0.0
  0
ARC
  5
5C
  8
0
 62
     7
 10
109.30014199999999
 20
131.584765
 30
0.0
 40
40.114505000000001
 50
320.15315499999991
 51
341.75192700000002
  0
LINE
  5
5D
  8
0
 62
     7
 10
136.417
 20
105.32299999999989
 30
0.0
 11
135.17699999999999
 21
103.4839999999999
 31
0.0
  0
ARC
  5
5E
  8
0
 62
     7
 10
136.83594099999991
 20
105.0353689999999
 30
0.0
 40
0.5082300000000001
 50
90.506823999999995
 51
145.51940200000001
  0
LINE
  5
5F
  8
0
 62
     7
 10
131.066
 20
103.04299999999991
 30
0.0
 11
134.3479999999999
 21
103.04299999999991
 31
0.0
  0
ARC
  5
60
  8
0
 62
     7
 10
134.33927
 20
104.0591229999999
 30
0.0
 40
1.0157020000000001
 50
270.48456900000002
 51
325.541697
  0
ARC
  5
61
  8
0
 62
     7
 10
139.578361
 20
106.049431
 30
0.0
 40
0.5058600000000001
 50
270.33715599999988
 51
319.56647299999992
  0
LINE
  5
62
  8
0
 62
     7
 10
114.73399999999999
 20
119.0239999999999
 30
0.0
 11
114.5929999999999
 21
119.4529999999999
 31
0.0
  0
ARC
  5
63
  8
0
 62
     7
 10
152.828756
 20
131.58285900000001
 30
0.0
 40
40.11110399999999
 50
198.24630899999991
 51
219.84737299999989
  0
LINE
  5
64
  8
0
 62
     7
 10
131.066
 20
120.0439999999999
 30
0.0
 11
115.0209999999999
 21
120.0439999999999
 31
0.0
  0
ARC
  5
65
  8
0
 62
     7
 10
115.0379719999999
 20
119.576581
 30
0.0
 40
0.467469
 50
92.11100900000001
 51
177.88896199999999
  0
ARC
  5
66
  8
0
 62
     7
 10
115.0205219999999
 20
119.59338
 30
0.0
 40
0.4497020000000001
 50
179.94641200000001
 51
198.157453
  0
LINE
  5
67
  8
0
 62
     7
 10
147.39699999999999
 20
119.0239999999999
 30
0.0
 11
147.5389999999999
 21
119.4529999999999
 31
0.0
  0
LINE
  5
68
  8
0
 62
     7
 10
131.066
 20
120.0439999999999
 30
0.0
 11
147.1109999999999
 21
120.0439999999999
 31
0.0
  0
ARC
  5
69
  8
0
 62
     7
 10
147.094111
 20
119.576581
 30
0.0
 40
0.467469
 50
2.1110359999999999
 51
87.888953999999984
  0
LINE
  5
6A
  8
0
  6
AIGENLINE002
 62
     7
 10
59.4071
 20
164.43199999999999
 30
0.0
 11
59.4071
 21
200.34999999999991
 31
0.0
  0
LINE
  5
6B
  8
0
  6
AIGENLINE002
 62
     7
 10
41.253599999999992
 20
182.5859999999999
 30
0.0
 11
77.171000000000006
 21
182.5859999999999
 31
0.0
  0
LINE
  5
6C
  8
0
 62
     7
 10
126.682
 20
178.19799999999989
 30
0.0
 11
135.477
 21
186.99299999999999
 31
0.0
  0
LINE
  5
6D
  8
0
 62
     7
 10
135.48500000000001
 20
187.0079999999999
 30
0.0
 11
133.489
 21
185.6109999999999
 31
0.0
  0
LINE
  5
6E
  8
0
 62
     7
 10
133.489
 20
185.6109999999999
 30
0.0
 11
134.08699999999999
 21
185.012
 31
0.0
  0
LINE
  5
6F
  8
0
 62
     7
 10
134.08699999999999
 20
185.012
 30
0.0
 11
135.48500000000001
 21
187.0079999999999
 31
0.0
  0
LINE
  5
70
  8
0
 62
     7
 10
126.646
 20
178.1699999999999
 30
0.0
 11
128.64299999999989
 21
179.56700000000001
 31
0.0
  0
LINE
  5
71
  8
0
 62
     7
 10
128.64299999999989
 20
179.56700000000001
 30
0.0
 11
128.0439999999999
 21
180.166
 31
0.0
  0
LINE
  5
72
  8
0
 62
     7
 10
128.0439999999999
 20
180.166
 30
0.0
 11
126.646
 21
178.1699999999999
 31
0.0
  0
LINE
  5
73
  8
0
 62
     7
 10
73.004599999999996
 20
196.1879999999999
 30
0.0
 11
78.975899999999996
 21
196.1879999999999
 31
0.0
  0
LINE
  5
74
  8
0
 62
     7
 10
137.93299999999991
 20
189.45599999999999
 30
0.0
 11
145.601
 21
189.45599999999999
 31
0.0
  0
LINE
  5
75
  8
0
 62
     7
 10
135.48500000000001
 20
187.0079999999999
 30
0.0
 11
137.93299999999991
 21
189.45599999999999
 31
0.0
  0
LINE
  5
76
  8
0
 62
     7
 10
84.156300000000002
 20
101.45699999999999
 30
0.0
 11
84.156300000000002
 21
97.169200000000004
 31
0.0
  0
LINE
  5
77
  8
0
 62
     7
 10
84.156300000000002
 20
101.5439999999999
 30
0.0
 11
83.733099999999993
 21
99.143600000000021
 31
0.0
  0
LINE
  5
78
  8
0
 62
     7
 10
83.733099999999993
 20
99.143600000000021
 30
0.0
 11
84.579400000000007
 21
99.143600000000021
 31
0.0
  0
LINE
  5
79
  8
0
 62
     7
 10
84.579400000000007
 20
99.143600000000021
 30
0.0
 11
84.156300000000002
 21
101.5439999999999
 31
0.0
  0
LINE
  5
7A
  8
0
 62
     7
 10
84.156300000000002
 20
105.631
 30
0.0
 11
84.156300000000002
 21
117.627
 31
0.0
  0
LINE
  5
7B
  8
0
 62
     7
 10
84.156300000000002
 20
105.5439999999999
 30
0.0
 11
84.579400000000007
 21
107.9439999999999
 31
0.0
  0
LINE
  5
7C
  8
0
 62
     7
 10
84.579400000000007
 20
107.9439999999999
 30
0.0
 11
83.733099999999993
 21
107.9439999999999
 31
0.0
  0
LINE
  5
7D
  8
0
 62
     7
 10
83.733099999999993
 20
107.9439999999999
 30
0.0
 11
84.156300000000002
 21
105.5439999999999
 31
0.0
  0
LINE
  5
7E
  8
0
 62
     7
 10
71.068100000000001
 20
170.9199999999999
 30
0.0
 11
47.768399999999993
 21
194.21999999999991
 31
0.0
  0
LINE
  5
7F
  8
0
 62
     7
 10
47.741599999999998
 20
194.2529999999999
 30
0.0
 11
49.139400000000002
 21
192.25599999999989
 31
0.0
  0
LINE
  5
80
  8
0
 62
     7
 10
49.139400000000002
 20
192.25599999999989
 30
0.0
 11
49.7378
 21
192.8549999999999
 31
0.0
  0
LINE
  5
81
  8
0
 62
     7
 10
49.7378
 20
192.8549999999999
 30
0.0
 11
47.741599999999998
 21
194.2529999999999
 31
0.0
  0
LINE
  5
82
  8
0
 62
     7
 10
71.069199999999995
 20
170.92500000000001
 30
0.0
 11
69.671300000000002
 21
172.92099999999991
 31
0.0
  0
LINE
  5
83
  8
0
 62
     7
 10
69.671300000000002
 20
172.92099999999991
 30
0.0
 11
69.072900000000004
 21
172.32299999999989
 31
0.0
  0
LINE
  5
84
  8
0
 62
     7
 10
69.072900000000004
 20
172.32299999999989
 30
0.0
 11
71.069199999999995
 21
170.92500000000001
 31
0.0
  0
LINE
  5
85
  8
0
 62
     7
 10
53.769199999999998
 20
176.953
 30
0.0
 11
57.725200000000001
 21
180.87700000000001
 31
0.0
  0
LINE
  5
86
  8
0
 62
     7
 10
61.111400000000003
 20
184.26299999999989
 30
0.0
 11
73.004599999999996
 21
196.1879999999999
 31
0.0
  0
LINE
  5
87
  8
0
 62
     7
 10
125.56999999999999
 20
94.250799999999984
 30
0.0
 11
136.50599999999989
 21
94.250799999999984
 31
0.0
  0
LINE
  5
88
  8
0
 62
     7
 10
136.56399999999991
 20
94.250799999999984
 30
0.0
 11
134.1639999999999
 21
94.674599999999998
 31
0.0
  0
LINE
  5
89
  8
0
 62
     7
 10
134.1639999999999
 20
94.674599999999998
 30
0.0
 11
134.1639999999999
 21
93.827799999999996
 31
0.0
  0
LINE
  5
8A
  8
0
 62
     7
 10
134.1639999999999
 20
93.827799999999996
 30
0.0
 11
136.56399999999991
 21
94.250799999999984
 31
0.0
  0
LINE
  5
8B
  8
0
 62
     7
 10
125.5659999999999
 20
94.250799999999984
 30
0.0
 11
127.96599999999999
 21
93.827799999999996
 31
0.0
  0
LINE
  5
8C
  8
0
 62
     7
 10
127.96599999999999
 20
93.827799999999996
 30
0.0
 11
127.96599999999999
 21
94.674599999999998
 31
0.0
  0
LINE
  5
8D
  8
0
 62
     7
 10
127.96599999999999
 20
94.674599999999998
 30
0.0
 11
125.5659999999999
 21
94.250799999999984
 31
0.0
  0
LINE
  5
8E
  8
0
 62
     7
 10
163.56099999999989
 20
103.10299999999989
 30
0.0
 11
163.56099999999989
 21
120.03700000000001
 31
0.0
  0
LINE
  5
8F
  8
0
 62
     7
 10
163.56099999999989
 20
120.0439999999999
 30
0.0
 11
163.13800000000001
 21
117.64399999999991
 31
0.0
  0
LINE
  5
90
  8
0
 62
     7
 10
163.13800000000001
 20
117.64399999999991
 30
0.0
 11
163.98400000000001
 21
117.64399999999991
 31
0.0
  0
LINE
  5
91
  8
0
 62
     7
 10
163.98400000000001
 20
117.64399999999991
 30
0.0
 11
163.56099999999989
 21
120.0439999999999
 31
0.0
  0
LINE
  5
92
  8
0
 62
     7
 10
163.56099999999989
 20
103.044
 30
0.0
 11
163.98400000000001
 21
105.444
 31
0.0
  0
LINE
  5
93
  8
0
 62
     7
 10
163.98400000000001
 20
105.444
 30
0.0
 11
163.13800000000001
 21
105.444
 31
0.0
  0
LINE
  5
94
  8
0
 62
     7
 10
163.13800000000001
 20
105.444
 30
0.0
 11
163.56099999999989
 21
103.044
 31
0.0
  0
LINE
  5
95
  8
0
 62
     7
 10
122.336
 20
87.041200000000003
 30
0.0
 11
139.79900000000001
 21
87.041200000000003
 31
0.0
  0
LINE
  5
96
  8
0
 62
     7
 10
139.81399999999991
 20
87.041200000000003
 30
0.0
 11
137.4139999999999
 21
87.464299999999994
 31
0.0
  0
LINE
  5
97
  8
0
 62
     7
 10
137.4139999999999
 20
87.464299999999994
 30
0.0
 11
137.4139999999999
 21
86.617800000000003
 31
0.0
  0
LINE
  5
98
  8
0
 62
     7
 10
137.4139999999999
 20
86.617800000000003
 30
0.0
 11
139.81399999999991
 21
87.041200000000003
 31
0.0
  0
LINE
  5
99
  8
0
 62
     7
 10
122.316
 20
87.041200000000003
 30
0.0
 11
124.71599999999999
 21
86.617800000000003
 31
0.0
  0
LINE
  5
9A
  8
0
 62
     7
 10
124.71599999999999
 20
86.617800000000003
 30
0.0
 11
124.71599999999999
 21
87.464299999999994
 31
0.0
  0
LINE
  5
9B
  8
0
 62
     7
 10
124.71599999999999
 20
87.464299999999994
 30
0.0
 11
122.316
 21
87.041200000000003
 31
0.0
  0
LINE
  5
9C
  8
0
 62
     7
 10
155.56100000000001
 20
105.631
 30
0.0
 11
155.56100000000001
 21
120.03700000000001
 31
0.0
  0
LINE
  5
9D
  8
0
 62
     7
 10
155.56100000000001
 20
120.0439999999999
 30
0.0
 11
155.13799999999989
 21
117.64399999999991
 31
0.0
  0
LINE
  5
9E
  8
0
 62
     7
 10
155.13799999999989
 20
117.64399999999991
 30
0.0
 11
155.98400000000001
 21
117.64399999999991
 31
0.0
  0
LINE
  5
9F
  8
0
 62
     7
 10
155.98400000000001
 20
117.64399999999991
 30
0.0
 11
155.56100000000001
 21
120.0439999999999
 31
0.0
  0
LINE
  5
A0
  8
0
 62
     7
 10
155.56100000000001
 20
105.5439999999999
 30
0.0
 11
155.98400000000001
 21
107.9439999999999
 31
0.0
  0
LINE
  5
A1
  8
0
 62
     7
 10
155.98400000000001
 20
107.9439999999999
 30
0.0
 11
155.13799999999989
 21
107.9439999999999
 31
0.0
  0
LINE
  5
A2
  8
0
 62
     7
 10
155.13799999999989
 20
107.9439999999999
 30
0.0
 11
155.56100000000001
 21
105.5439999999999
 31
0.0
  0
ARC
  5
A3
  8
0
 62
     7
 10
131.06569599999989
 20
182.58897499999989
 30
0.0
 40
6.2501329999999991
 50
0.00001
 51
89.999980000000008
  0
ARC
  5
A4
  8
0
 62
     7
 10
131.065698
 20
182.58897499999989
 30
0.0
 40
6.2501329999999991
 50
90.0
 51
179.99996999999991
  0
ARC
  5
A5
  8
0
 62
     7
 10
131.06569599999989
 20
182.58897499999989
 30
0.0
 40
6.2501309999999988
 50
179.99996999999991
 51
270.00002000000001
  0
ARC
  5
A6
  8
0
 62
     7
 10
131.06569599999989
 20
182.588977
 30
0.0
 40
6.2501329999999991
 50
270.00002000000001
 51
359.99998999999991
  0
LINE
  5
A7
  8
0
  6
AIGENLINE002
 62
     7
 10
120.303
 20
182.589
 30
0.0
 11
140.86500000000001
 21
182.589
 31
0.0
  0
LINE
  5
A8
  8
0
 62
     7
 10
85.251700000000014
 20
101.5439999999999
 30
0.0
 11
79.067199999999985
 21
101.5439999999999
 31
0.0
  0
LINE
  5
A9
  8
0
 62
     7
 10
85.251700000000014
 20
105.5439999999999
 30
0.0
 11
79.067199999999985
 21
105.5439999999999
 31
0.0
  0
LINE
  5
AA
  8
0
  6
AIGENLINE003
 62
     7
 10
78.108400000000003
 20
101.5439999999999
 30
0.0
 11
42.309699999999999
 21
101.5439999999999
 31
0.0
  0
LINE
  5
AB
  8
0
  6
AIGENLINE002
 62
     7
 10
59.4054
 20
98.819699999999997
 30
0.0
 11
59.4054
 21
121.977
 31
0.0
  0
LINE
  5
AC
  8
0
  6
AIGENLINE003
 62
     7
 10
49.328899999999997
 20
105.5439999999999
 30
0.0
 11
42.309699999999999
 21
105.5439999999999
 31
0.0
  0
LINE
  5
AD
  8
0
 62
     7
 10
84.156300000000002
 20
101.5439999999999
 30
0.0
 11
84.156300000000002
 21
105.5439999999999
 31
0.0
  0
LINE
  5
AE
  8
0
  6
AIGENLINE003
 62
     7
 10
78.108400000000003
 20
105.5439999999999
 30
0.0
 11
69.718100000000007
 21
105.5439999999999
 31
0.0
  0
LINE
  5
AF
  8
0
  6
AIGENLINE002
 62
     7
 10
131.066
 20
174.39400000000001
 30
0.0
 11
131.066
 21
190.81399999999999
 31
0.0
  0
LINE
  5
B0
  8
0
 62
     7
 10
53.639400000000002
 20
105.5439999999999
 30
0.0
 11
50.888999999999989
 21
105.5439999999999
 31
0.0
  0
ARC
  5
B1
  8
0
 62
     7
 10
50.893122999999989
 20
106.0523169999999
 30
0.0
 40
0.5087540000000002
 50
219.87158099999991
 51
269.53935399999989
  0
LINE
  5
B2
  8
0
 62
     7
 10
65.171300000000002
 20
105.5439999999999
 30
0.0
 11
67.9208
 21
105.5439999999999
 31
0.0
  0
LINE
  5
B3
  8
0
 62
     7
 10
65.171300000000002
 20
105.5439999999999
 30
0.0
 11
53.639400000000002
 21
105.5439999999999
 31
0.0
  0
LINE
  5
B4
  8
0
 62
     7
 10
50.502699999999997
 20
105.726
 30
0.0
 11
50.374200000000002
 21
105.8799999999999
 31
0.0
  0
LINE
  5
B5
  8
0
 62
     7
 10
43.074099999999987
 20
119.0239999999999
 30
0.0
 11
42.93269999999999
 21
119.4529999999999
 31
0.0
  0
ARC
  5
B6
  8
0
 62
     7
 10
81.162541000000004
 20
131.5791889999999
 30
0.0
 40
40.104370000000003
 50
198.24396100000001
 51
219.8485729999999
  0
LINE
  5
B7
  8
0
 62
     7
 10
59.4054
 20
120.0439999999999
 30
0.0
 11
43.360199999999999
 21
120.0439999999999
 31
0.0
  0
ARC
  5
B8
  8
0
 62
     7
 10
43.359059999999999
 20
119.5937779999999
 30
0.0
 40
0.4489180000000001
 50
179.99708000000001
 51
198.2437139999999
  0
ARC
  5
B9
  8
0
 62
     7
 10
43.377473999999999
 20
119.57639399999989
 30
0.0
 40
0.4676560000000001
 50
92.111140999999989
 51
177.86689799999991
  0
LINE
  5
BA
  8
0
 62
     7
 10
54.053899999999999
 20
105.32299999999989
 30
0.0
 11
55.2943
 21
103.4839999999999
 31
0.0
  0
ARC
  5
BB
  8
0
 62
     7
 10
53.635125000000002
 20
105.035703
 30
0.0
 40
0.507894
 50
34.460825999999997
 51
89.512908999999993
  0
LINE
  5
BC
  8
0
 62
     7
 10
59.4054
 20
103.044
 30
0.0
 11
56.12339999999999
 21
103.044
 31
0.0
  0
ARC
  5
BD
  8
0
 62
     7
 10
56.132789000000002
 20
104.06180000000001
 30
0.0
 40
1.0180419999999999
 50
214.550747
 51
269.47002300000003
  0
LINE
  5
BE
  8
0
 62
     7
 10
68.302899999999994
 20
105.7209999999999
 30
0.0
 11
68.436599999999984
 21
105.8799999999999
 31
0.0
  0
LINE
  5
BF
  8
0
 62
     7
 10
75.736599999999996
 20
119.0239999999999
 30
0.0
 11
75.877799999999993
 21
119.4529999999999
 31
0.0
  0
ARC
  5
C0
  8
0
 62
     7
 10
37.642596999999988
 20
131.582292
 30
0.0
 40
40.110647
 50
320.15315699999991
 51
341.75434799999988
  0
LINE
  5
C1
  8
0
 62
     7
 10
59.4054
 20
120.0439999999999
 30
0.0
 11
75.450500000000005
 21
120.0439999999999
 31
0.0
  0
ARC
  5
C2
  8
0
 62
     7
 10
75.45985300000001
 20
119.59243600000001
 30
0.0
 40
0.440561
 50
341.58171299999992
 51
0.177493
  0
ARC
  5
C3
  8
0
 62
     7
 10
75.433391999999998
 20
119.5767129999999
 30
0.0
 40
0.467332
 50
2.0953970000000002
 51
87.904593999999989
  0
LINE
  5
C4
  8
0
 62
     7
 10
64.756699999999995
 20
105.32299999999989
 30
0.0
 11
63.51639999999999
 21
103.4839999999999
 31
0.0
  0
ARC
  5
C5
  8
0
 62
     7
 10
65.175744999999992
 20
105.0351049999999
 30
0.0
 40
0.5084930000000001
 50
90.502720999999994
 51
145.50376199999999
  0
LINE
  5
C6
  8
0
 62
     7
 10
59.4054
 20
103.044
 30
0.0
 11
62.687399999999997
 21
103.044
 31
0.0
  0
ARC
  5
C7
  8
0
 62
     7
 10
62.678863
 20
104.0600579999999
 30
0.0
 40
1.0162910000000001
 50
270.47869400000002
 51
325.50057599999991
  0
LINE
  5
C8
  8
0
 62
     7
 10
62.1768
 20
186.19799999999989
 30
0.0
 11
61.03159999999999
 21
184.215
 31
0.0
  0
LINE
  5
C9
  8
0
 62
     7
 10
61.03159999999999
 20
184.215
 30
0.0
 11
63.014800000000001
 21
185.36000000000001
 31
0.0
  0
LINE
  5
CA
  8
0
 62
     7
 10
63.014800000000001
 20
185.36000000000001
 30
0.0
 11
62.1768
 21
186.19799999999989
 31
0.0
  0
LINE
  5
CB
  8
0
 62
     7
 10
56.634099999999989
 20
178.9799999999999
 30
0.0
 11
57.7789
 21
180.96299999999999
 31
0.0
  0
LINE
  5
CC
  8
0
 62
     7
 10
57.7789
 20
180.96299999999999
 30
0.0
 11
55.795900000000003
 21
179.8179999999999
 31
0.0
  0
LINE
  5
CD
  8
0
 62
     7
 10
55.795900000000003
 20
179.8179999999999
 30
0.0
 11
56.634099999999989
 21
178.9799999999999
 31
0.0
  0
LINE
  5
CE
  8
0
 62
     7
 10
57.7789
 20
180.96299999999999
 30
0.0
 11
61.03159999999999
 21
184.215
 31
0.0
  0
ARC
  5
CF
  8
0
 62
     7
 10
60.375354999999999
 20
194.374605
 30
0.0
 40
0.4996970000000001
 50
0.191103
 51
37.247560999999997
  0
ARC
  5
D0
  8
0
 62
     7
 10
60.100326000000003
 20
194.191655
 30
0.0
 40
0.8296229999999999
 50
35.80883699999999
 51
51.735643000000003
  0
ARC
  5
D1
  8
0
 62
     7
 10
59.711621999999998
 20
193.68646200000001
 30
0.0
 40
1.467020999999999
 50
52.035021999999991
 51
76.961039999999997
  0
ARC
  5
D2
  8
0
 62
     7
 10
59.419528999999997
 20
192.7578399999999
 30
0.0
 40
2.4387560000000001
 50
75.197493999999992
 51
90.332817000000006
  0
ARC
  5
D3
  8
0
 62
     7
 10
59.406053999999997
 20
192.81009800000001
 30
0.0
 40
2.386455999999999
 50
90.016586999999987
 51
115.164379
  0
ARC
  5
D4
  8
0
 62
     7
 10
58.85190699999999
 20
194.06502
 30
0.0
 40
1.0155110000000001
 50
116.973524
 51
146.8585159999999
  0
ARC
  5
D5
  8
0
 62
     7
 10
58.440893999999993
 20
194.370262
 30
0.0
 40
0.5054270000000001
 50
150.361581
 51
179.3186629999999
  0
ARC
  5
D6
  8
0
 62
     7
 10
58.435203000000001
 20
194.37791799999991
 30
0.0
 40
0.499702
 50
180.18873300000001
 51
217.25655099999989
  0
ARC
  5
D7
  8
0
 62
     7
 10
58.710369999999998
 20
194.56089199999991
 30
0.0
 40
0.829751
 50
215.80997499999989
 51
231.73907
  0
ARC
  5
D8
  8
0
 62
     7
 10
59.099145999999998
 20
195.06610000000001
 30
0.0
 40
1.467206
 50
232.03511399999999
 51
256.962762
  0
ARC
  5
D9
  8
0
 62
     7
 10
59.391252999999999
 20
195.994643
 30
0.0
 40
2.4388659999999991
 50
255.19788199999991
 51
270.331502
  0
ARC
  5
DA
  8
0
 62
     7
 10
59.404671999999998
 20
195.94201799999999
 30
0.0
 40
2.3862009999999989
 50
270.01659799999987
 51
295.16698500000001
  0
ARC
  5
DB
  8
0
 62
     7
 10
59.959047999999989
 20
194.686656
 30
0.0
 40
1.014762999999999
 50
296.979851
 51
326.88513799999998
  0
ARC
  5
DC
  8
0
 62
     7
 10
60.369365999999999
 20
194.382237
 30
0.0
 40
0.505719
 50
330.37788699999987
 51
359.32418699999988
  0
ARC
  5
DD
  8
0
 62
     7
 10
59.405361999999997
 20
182.58897499999989
 30
0.0
 40
2.2999610000000001
 50
0.00001
 51
89.999980000000008
  0
ARC
  5
DE
  8
0
 62
     7
 10
59.405363000000001
 20
182.58897499999989
 30
0.0
 40
2.2999610000000001
 50
90.0
 51
179.99996999999991
  0
ARC
  5
DF
  8
0
 62
     7
 10
59.405361999999997
 20
182.58897499999989
 30
0.0
 40
2.29996
 50
179.99996999999991
 51
270.00002000000001
  0
ARC
  5
E0
  8
0
 62
     7
 10
59.405361999999997
 20
182.588976
 30
0.0
 40
2.2999610000000001
 50
270.00002000000001
 51
359.99998999999991
  0
ARC
  5
E1
  8
0
 62
     7
 10
59.405361999999997
 20
182.58897499999989
 30
0.0
 40
3.500067
 50
0.00001
 51
89.999980000000008
  0
ARC
  5
E2
  8
0
 62
     7
 10
59.405363000000001
 20
182.58897499999989
 30
0.0
 40
3.500067
 50
90.0
 51
179.99996999999991
  0
ARC
  5
E3
  8
0
 62
     7
 10
59.405276000000001
 20
182.58906099999999
 30
0.0
 40
3.4999799999999999
 50
180.00141999999991
 51
270.00142999999991
  0
ARC
  5
E4
  8
0
 62
     7
 10
59.405448
 20
182.58906200000001
 30
0.0
 40
3.4999809999999991
 50
269.99860999999993
 51
359.99858
  0
ARC
  5
E5
  8
0
 62
     7
 10
59.405359999999988
 20
182.589145
 30
0.0
 40
16.49505199999999
 50
0.00001
 51
89.999980000000008
  0
ARC
  5
E6
  8
0
 62
     7
 10
59.405279999999998
 20
182.58905899999999
 30
0.0
 40
16.495138000000001
 50
89.999701000000002
 51
179.99967100000001
  0
ARC
  5
E7
  8
0
 62
     7
 10
59.405359999999988
 20
182.589145
 30
0.0
 40
16.495218999999992
 50
179.99996999999991
 51
270.00002000000001
  0
ARC
  5
E8
  8
0
 62
     7
 10
59.405273999999999
 20
182.58906499999989
 30
0.0
 40
16.495138000000001
 50
270.00031899999988
 51
0.000289
  0
ARC
  5
E9
  8
0
 62
     7
 10
67.917846999999995
 20
106.049446
 30
0.0
 40
0.505876
 50
270.33798200000001
 51
319.56564700000001
  0
LINE
  5
EA
  8
0
 62
     7
 10
164.4959999999999
 20
103.04299999999991
 30
0.0
 11
135.732
 21
103.04299999999991
 31
0.0
  0
LINE
  5
EB
  8
0
 62
     7
 10
148.703
 20
120.0439999999999
 30
0.0
 11
164.4959999999999
 21
120.0439999999999
 31
0.0
  0
LINE
  5
EC
  8
0
 62
     7
 10
156.27699999999999
 20
105.5439999999999
 30
0.0
 11
141.64400000000001
 21
105.5439999999999
 31
0.0
  0
LINE
  5
ED
  8
0
 62
     7
 10
122.316
 20
104.6449999999999
 30
0.0
 11
122.316
 21
86.208500000000001
 31
0.0
  0
LINE
  5
EE
  8
0
 62
     7
 10
125.5659999999999
 20
93.950800000000001
 30
0.0
 11
125.5659999999999
 21
104.35299999999999
 31
0.0
  0
LINE
  5
EF
  8
0
 62
     7
 10
139.81399999999991
 20
104.64400000000001
 30
0.0
 11
139.81399999999991
 21
86.208500000000001
 31
0.0
  0
LINE
  5
F0
  8
0
 62
     7
 10
136.56399999999991
 20
93.950800000000001
 30
0.0
 11
136.56399999999991
 21
104.352
 31
0.0
  0
TEXT
  5
F1
  8
_________2
 62
     7
 10
24.5868
 20
0.707283
 30
0.0
 40
3.9357000000000002
  1
330サイズ、実容量1.7L、オーバーフロー付
 41
0.5
  0
LINE
  5
F2
  8
_________2
 62
     7
 10
100.2999999999999
 20
-4.0910799999999998
 30
0.0
 11
100.2999999999999
 21
-21.071400000000001
 31
0.0
  0
LINE
  5
F3
  8
_________2
 62
     7
 10
76.741
 20
29.8047
 30
0.0
 11
74.554699999999997
 21
29.8047
 31
0.0
  0
LINE
  5
F4
  8
_________2
 62
     7
 10
77.233699999999999
 20
29.8047
 30
0.0
 11
76.981499999999997
 21
29.8047
 31
0.0
  0
LINE
  5
F5
  8
_________2
 62
     7
 10
77.726299999999995
 20
29.8047
 30
0.0
 11
80.651200000000003
 21
29.8047
 31
0.0
  0
LINE
  5
F6
  8
_________2
 62
     7
 10
77.233699999999999
 20
29.8047
 30
0.0
 11
77.485900000000001
 21
29.8047
 31
0.0
  0
LINE
  5
F7
  8
_________2
 62
     7
 10
70.837500000000006
 20
29.8047
 30
0.0
 11
68.650499999999994
 21
29.8047
 31
0.0
  0
LINE
  5
F8
  8
_________2
 62
     7
 10
71.329400000000007
 20
29.8047
 30
0.0
 11
71.0779
 21
29.8047
 31
0.0
  0
LINE
  5
F9
  8
_________2
 62
     7
 10
71.329400000000007
 20
30.2974
 30
0.0
 11
71.329400000000007
 21
32.484400000000001
 31
0.0
  0
LINE
  5
FA
  8
_________2
 62
     7
 10
71.329400000000007
 20
29.8047
 30
0.0
 11
71.329400000000007
 21
30.056899999999992
 31
0.0
  0
LINE
  5
FB
  8
_________2
 62
     7
 10
71.822100000000006
 20
29.8047
 30
0.0
 11
74.009
 21
29.8047
 31
0.0
  0
LINE
  5
FC
  8
_________2
 62
     7
 10
71.329400000000007
 20
29.8047
 30
0.0
 11
71.581599999999995
 21
29.8047
 31
0.0
  0
LINE
  5
FD
  8
_________2
 62
     7
 10
71.329400000000007
 20
29.312799999999999
 30
0.0
 11
71.329400000000007
 21
27.125800000000002
 31
0.0
  0
LINE
  5
FE
  8
_________2
 62
     7
 10
71.329400000000007
 20
29.8047
 30
0.0
 11
71.329400000000007
 21
29.5532
 31
0.0
  0
LINE
  5
FF
  8
_________2
 62
     7
 10
75.040499999999994
 20
28.5852
 30
0.0
 11
80.218500000000006
 21
27.720400000000001
 31
0.0
  0
LINE
  5
100
  8
_________2
 62
     7
 10
75.040499999999994
 20
31.0243
 30
0.0
 11
80.218500000000006
 21
31.889700000000001
 31
0.0
  0
LINE
  5
101
  8
_________2
 62
     7
 10
80.218500000000006
 20
27.720400000000001
 30
0.0
 11
80.218500000000006
 21
31.889700000000001
 31
0.0
  0
LINE
  5
102
  8
_________2
 62
     7
 10
75.040499999999994
 20
28.5852
 30
0.0
 11
75.040499999999994
 21
31.0243
 31
0.0
  0
ARC
  5
103
  8
_________2
 62
     7
 10
71.283190000000005
 20
29.757787
 30
0.0
 40
1.2673709999999989
 50
2.1232950000000002
 51
87.909056000000007
  0
ARC
  5
104
  8
_________2
 62
     7
 10
71.375959999999992
 20
29.758213000000001
 30
0.0
 40
1.2669559999999991
 50
92.104701000000006
 51
177.8952689999999
  0
ARC
  5
105
  8
_________2
 62
     7
 10
71.376357999999996
 20
29.851671
 30
0.0
 40
1.2673680000000001
 50
182.12203600000001
 51
267.877993
  0
ARC
  5
106
  8
_________2
 62
     7
 10
71.282541000000009
 20
29.852347999999999
 30
0.0
 40
1.2680439999999991
 50
272.11916400000001
 51
357.84848499999993
  0
ARC
  5
107
  8
_________2
 62
     7
 10
71.329430000000002
 20
29.804742999999998
 30
0.0
 40
2.0849849999999992
 50
0.00001
 51
89.999980000000008
  0
ARC
  5
108
  8
_________2
 62
     7
 10
71.409075999999999
 20
29.725812999999992
 30
0.0
 40
2.165379999999999
 50
92.107876000000005
 51
177.91103200000001
  0
ARC
  5
109
  8
_________2
 62
     7
 10
71.409439000000006
 20
29.884751999999999
 30
0.0
 40
2.1657829999999998
 50
182.117133
 51
267.88289700000001
  0
ARC
  5
10A
  8
_________2
 62
     7
 10
71.249459000000002
 20
29.885429999999989
 30
0.0
 40
2.1664590000000001
 50
272.11546800000002
 51
357.86560400000002
  0
TEXT
  5
10B
  8
_________2
 62
     7
 10
104.605
 20
1.6794899999999999
 30
0.0
 40
3.0923400000000001
  1
図番
 41
0.5
  0
LINE
  5
10C
  8
_________2
 62
     7
 10
103.55
 20
5.9087199999999989
 30
0.0
 11
183.55099999999999
 21
5.9087199999999989
 31
0.0
  0
TEXT
  5
10D
  8
_________2
 62
     7
 10
104.605
 20
11.679299999999991
 30
0.0
 40
3.0923400000000001
  1
品番
 41
0.5
  0
TEXT
  5
10E
  8
_________2
 62
     7
 10
104.605
 20
31.818100000000001
 30
0.0
 40
3.0923400000000001
  1
名称
 41
0.5
  0
TEXT
  5
10F
  8
_________2
 62
     7
 10
91.845058333333341
 20
26.821999999999989
 30
0.0
 40
3.6545800000000002
  1
mm
 41
0.5
 72
     1
 11
93.367800000000003
 21
26.821999999999989
 31
0.0
  0
TEXT
  5
110
  8
_________2
 62
     7
 10
85.643199999999993
 20
31.818100000000001
 30
0.0
 40
3.0923400000000001
  1
単位
 41
0.5
  0
TEXT
  5
111
  8
_________2
 62
     7
 10
85.643199999999993
 20
19.410799999999991
 30
0.0
 40
3.0923400000000001
  1
尺度
 41
0.5
  0
TEXT
  5
112
  8
_________2
 62
     7
 10
90.09193616666667
 20
13.2179
 30
0.0
 40
3.6545800000000002
  1
1 ： 10
 41
0.5
 72
     1
 11
93.959699999999998
 21
13.2179
 31
0.0
  0
TEXT
  5
113
  8
_________2
 62
     7
 10
133.38277500000001
 20
9.1078600000000005
 30
0.0
 40
3.9357000000000002
  1
DV040833-00
 41
0.5
 72
     1
 11
143.55000000000001
 21
9.1078600000000005
 31
0.0
  0
TEXT
  5
114
  8
_________2
 62
     7
 10
136.00657499999991
 20
-0.8926299999999999
 30
0.0
 40
3.9357000000000002
  1
DV040833
 41
0.5
 72
     1
 11
143.55000000000001
 21
-0.8926299999999999
 31
0.0
  0
TEXT
  5
115
  8
_________2
 62
     7
 10
109.179
 20
24.2257
 30
0.0
 40
3.9357000000000002
  1
スタルク　手洗器
 41
0.5
  0
TEXT
  5
116
  8
_________2
 62
     7
 10
39.425300333333333
 20
13.603
 30
0.0
 40
3.6545800000000002
  1
早川
 41
0.5
 72
     1
 11
41.313499999999998
 21
13.603
 31
0.0
  0
TEXT
  5
117
  8
_________2
 62
     7
 10
20.79039066666666
 20
13.603
 30
0.0
 40
3.6545800000000002
  1
石原
 41
0.5
 72
     1
 11
22.7395
 21
13.603
 31
0.0
  0
TEXT
  5
118
  8
_________2
 62
     7
 10
67.785799999999995
 20
13.2179
 30
0.0
 40
3.6545800000000002
  1
12.04.18
 41
0.5
  0
TEXT
  5
119
  8
_________2
 62
     7
 10
66.593100000000007
 20
19.410799999999991
 30
0.0
 40
3.0923400000000001
  1
日付
 41
0.5
  0
TEXT
  5
11A
  8
_________2
 62
     7
 10
29.639399999999998
 20
19.410799999999991
 30
0.0
 40
3.0923400000000001
  1
検図
 41
0.5
  0
TEXT
  5
11B
  8
_________2
 62
     7
 10
18.021100000000001
 20
5.21143
 30
0.0
 40
3.0923400000000001
  1
備考
 41
0.5
  0
TEXT
  5
11C
  8
_________2
 62
     7
 10
18.021100000000001
 20
19.410799999999991
 30
0.0
 40
3.0923400000000001
  1
製図
 41
0.5
  0
TEXT
  5
11D
  8
_________2
 62
     7
 10
23.788465333333338
 20
27.936800000000002
 30
0.0
 40
4.4979399999999989
  1
セラトレーディング株式会社
 41
0.5
 72
     1
 11
41.180500000000002
 21
27.936800000000002
 31
0.0
  0
LINE
  5
11E
  8
_________2
 62
     7
 10
183.55099999999999
 20
-4.0910799999999998
 30
0.0
 11
17.049499999999998
 21
-4.0910799999999998
 31
0.0
  0
LINE
  5
11F
  8
_________2
 62
     7
 10
17.049499999999998
 20
-4.0910799999999998
 30
0.0
 11
17.049499999999998
 21
258.911
 31
0.0
  0
LINE
  5
120
  8
_________2
 62
     7
 10
17.049499999999998
 20
258.911
 30
0.0
 11
183.55099999999999
 21
258.911
 31
0.0
  0
LINE
  5
121
  8
_________2
 62
     7
 10
183.55099999999999
 20
258.911
 30
0.0
 11
183.55099999999999
 21
-4.0910799999999998
 31
0.0
  0
LINE
  5
122
  8
_________2
 62
     7
 10
65.549899999999994
 20
9.4089600000000004
 30
0.0
 11
65.549899999999994
 21
35.908799999999999
 31
0.0
  0
LINE
  5
123
  8
_________2
 62
     7
 10
84.549700000000016
 20
9.4089600000000004
 30
0.0
 11
84.549700000000016
 21
35.908799999999999
 31
0.0
  0
LINE
  5
124
  8
_________2
 62
     7
 10
103.55
 20
-4.0910799999999998
 30
0.0
 11
103.55
 21
35.908799999999999
 31
0.0
  0
LINE
  5
125
  8
_________2
 62
     7
 10
28.549299999999992
 20
9.4089600000000004
 30
0.0
 11
28.549299999999992
 21
23.409199999999998
 31
0.0
  0
LINE
  5
126
  8
_________2
 62
     7
 10
17.049499999999998
 20
9.4089600000000004
 30
0.0
 11
103.55
 21
9.4089600000000004
 31
0.0
  0
LINE
  5
127
  8
_________2
 62
     7
 10
17.049499999999998
 20
23.409199999999998
 30
0.0
 11
103.55
 21
23.409199999999998
 31
0.0
  0
LINE
  5
128
  8
_________2
 62
     7
 10
103.55
 20
15.9085
 30
0.0
 11
183.55099999999999
 21
15.9085
 31
0.0
  0
LINE
  5
129
  8
_________2
 62
     7
 10
17.049499999999998
 20
35.908799999999999
 30
0.0
 11
183.55099999999999
 21
35.908799999999999
 31
0.0
  0
LINE
  5
12A
  8
_________2
 62
     7
 10
205.30099999999999
 20
127.411
 30
0.0
 11
183.55000000000001
 21
127.411
 31
0.0
  0
LINE
  5
12B
  8
_________2
 62
     7
 10
100.2999999999999
 20
275.93099999999993
 30
0.0
 11
100.2999999999999
 21
258.911
 31
0.0
  0
LINE
  5
12C
  8
_________2
 62
     7
 10
17.049499999999998
 20
127.411
 30
0.0
 11
-4.70052
 21
127.411
 31
0.0
  0
ENDSEC
  0
EOF
