  0
SECTION
  2
HEADER
  9
$ACADVER
  1
AC1009
  9
$INSBASE
 10
0.0
 20
0.0
 30
0.0
  9
$EXTMIN
 10
-4.70052
 20
-21.071400000000001
 30
0.0
  9
$EXTMAX
 10
205.30099999999999
 20
275.93099999999993
 30
0.0
  9
$LIMMIN
 10
0.0
 20
0.0
  9
$LIMMAX
 10
12.0
 20
9.0
  9
$ORTHOMODE
 70
     0
  9
$REGENMODE
 70
     1
  9
$FILLMODE
 70
     1
  9
$QTEXTMODE
 70
     0
  9
$MIRRTEXT
 70
     1
  9
$DRAGMODE
 70
     2
  9
$LTSCALE
 40
1.0
  9
$OSMODE
 70
    37
  9
$ATTMODE
 70
     1
  9
$TEXTSIZE
 40
0.0
  9
$TRACEWID
 40
0.05
  9
$TEXTSTYLE
  7
STANDARD
  9
$CLAYER
  8
0
  9
$CELTYPE
  6
CONTINUOUS
  9
$CECOLOR
 62
   256
  9
$DIMSCALE
 40
1.0
  9
$DIMASZ
 40
0.18
  9
$DIMEXO
 40
0.0625
  9
$DIMDLI
 40
0.38
  9
$DIMRND
 40
0.0
  9
$DIMDLE
 40
0.0
  9
$DIMEXE
 40
0.18
  9
$DIMTP
 40
0.0
  9
$DIMTM
 40
0.0
  9
$DIMTXT
 40
0.18
  9
$DIMCEN
 40
0.09
  9
$DIMTSZ
 40
0.0
  9
$DIMTOL
 70
     0
  9
$DIMLIM
 70
     0
  9
$DIMTIH
 70
     1
  9
$DIMTOH
 70
     1
  9
$DIMSE1
 70
     0
  9
$DIMSE2
 70
     0
  9
$DIMTAD
 70
     0
  9
$DIMZIN
 70
     0
  9
$DIMBLK
  1

  9
$DIMASO
 70
     1
  9
$DIMSHO
 70
     1
  9
$DIMPOST
  1

  9
$DIMAPOST
  1

  9
$DIMALT
 70
     0
  9
$DIMALTD
 70
     2
  9
$DIMALTF
 40
25.399999999999999
  9
$DIMLFAC
 40
1.0
  9
$DIMTOFL
 70
     0
  9
$DIMTVP
 40
0.0
  9
$DIMTIX
 70
     0
  9
$DIMSOXD
 70
     0
  9
$DIMSAH
 70
     0
  9
$DIMBLK1
  1

  9
$DIMBLK2
  1

  9
$DIMSTYLE
  2
STANDARD
  9
$DIMCLRD
 70
     0
  9
$DIMCLRE
 70
     0
  9
$DIMCLRT
 70
     0
  9
$DIMTFAC
 40
1.0
  9
$DIMGAP
 40
0.09
  9
$LUNITS
 70
     2
  9
$LUPREC
 70
     4
  9
$SKETCHINC
 40
0.1
  9
$FILLETRAD
 40
0.0
  9
$AUNITS
 70
     0
  9
$AUPREC
 70
     0
  9
$MENU
  1
.
  9
$ELEVATION
 40
0.0
  9
$PELEVATION
 40
0.0
  9
$THICKNESS
 40
0.0
  9
$LIMCHECK
 70
     0
  9
$BLIPMODE
 70
     0
  9
$CHAMFERA
 40
0.0
  9
$CHAMFERB
 40
0.0
  9
$SKPOLY
 70
     0
  9
$TDCREATE
 40
2444972.375
  9
$TDUPDATE
 40
2453810.256446932
  9
$TDINDWG
 40
0.0010688426
  9
$TDUSRTIMER
 40
0.0010688426
  9
$USRTIMER
 70
     1
  9
$ANGBASE
 50
0.0
  9
$ANGDIR
 70
     0
  9
$PDMODE
 70
     0
  9
$PDSIZE
 40
0.0
  9
$PLINEWID
 40
0.0
  9
$COORDS
 70
     1
  9
$SPLFRAME
 70
     0
  9
$SPLINETYPE
 70
     6
  9
$SPLINESEGS
 70
     8
  9
$ATTDIA
 70
     0
  9
$ATTREQ
 70
     1
  9
$HANDLING
 70
     1
  9
$HANDSEED
  5
1D1
  9
$SURFTAB1
 70
     6
  9
$SURFTAB2
 70
     6
  9
$SURFTYPE
 70
     6
  9
$SURFU
 70
     6
  9
$SURFV
 70
     6
  9
$UCSNAME
  2

  9
$UCSORG
 10
0.0
 20
0.0
 30
0.0
  9
$UCSXDIR
 10
1.0
 20
0.0
 30
0.0
  9
$UCSYDIR
 10
0.0
 20
1.0
 30
0.0
  9
$PUCSNAME
  2

  9
$PUCSORG
 10
0.0
 20
0.0
 30
0.0
  9
$PUCSXDIR
 10
1.0
 20
0.0
 30
0.0
  9
$PUCSYDIR
 10
0.0
 20
1.0
 30
0.0
  9
$USERI1
 70
     0
  9
$USERI2
 70
     0
  9
$USERI3
 70
     0
  9
$USERI4
 70
     0
  9
$USERI5
 70
     0
  9
$USERR1
 40
0.0
  9
$USERR2
 40
0.0
  9
$USERR3
 40
0.0
  9
$USERR4
 40
0.0
  9
$USERR5
 40
0.0
  9
$WORLDVIEW
 70
     1
  9
$SHADEDGE
 70
     3
  9
$SHADEDIF
 70
    70
  9
$TILEMODE
 70
     1
  9
$MAXACTVP
 70
    48
  9
$PLIMCHECK
 70
     0
  9
$PEXTMIN
 10
1.0000000000000000E+020
 20
1.0000000000000000E+020
 30
1.0000000000000000E+020
  9
$PEXTMAX
 10
-1.0000000000000000E+020
 20
-1.0000000000000000E+020
 30
-1.0000000000000000E+020
  9
$PLIMMIN
 10
0.0
 20
0.0
  9
$PLIMMAX
 10
12.0
 20
9.0
  9
$UNITMODE
 70
     0
  9
$VISRETAIN
 70
     1
  9
$PLINEGEN
 70
     0
  9
$PSLTSCALE
 70
     1
  0
ENDSEC
  0
SECTION
  2
TABLES
  0
TABLE
  2
VPORT
 70
     2
  0
VPORT
  2
*ACTIVE
 70
     0
 10
0.0
 20
0.0
 11
1.0
 21
1.0
 12
189.56085651407921
 22
127.4297999999999
 13
0.0
 23
0.0
 14
1.0
 24
1.0
 15
0.0
 25
0.0
 16
0.0
 26
0.0
 36
1.0
 17
0.0
 27
0.0
 37
0.0
 40
299.2467506297229
 41
2.1842105263157889
 42
50.0
 43
0.0
 44
0.0
 50
0.0
 51
0.0
 71
     0
 72
   100
 73
     1
 74
     1
 75
     0
 76
     0
 77
     0
 78
     0
  0
ENDTAB
  0
TABLE
  2
LTYPE
 70
     3
  0
LTYPE
  2
CONTINUOUS
 70
     0
  3
Solid line
 72
    65
 73
     0
 40
0.0
  0
LTYPE
  2
AIGENLINE001
 70
     0
  3
generate AI->DXF Converter
 72
    65
 73
     4
 40
5.8561449999999988
 49
3.5278
 49
-0.776115
 49
0.776115
 49
-0.776115
  0
LTYPE
  2
AIGENLINE002
 70
     0
  3
generate AI->DXF Converter
 72
    65
 73
     2
 40
1.5522299999999991
 49
0.776115
 49
-0.776115
  0
ENDTAB
  0
TABLE
  2
LAYER
 70
     2
  0
LAYER
  2
0
 70
     0
 62
     7
  6
CONTINUOUS
  0
LAYER
  2
_________2
 70
     0
 62
     7
  6
CONTINUOUS
  0
ENDTAB
  0
TABLE
  2
STYLE
 70
     1
  0
STYLE
  2
STANDARD
 70
     0
 40
0.0
 41
0.0
 50
0.0
 71
     0
 42
0.0
  3
TXT
  4
EXTFONT.SHX
  0
ENDTAB
  0
TABLE
  2
VIEW
 70
     0
  0
ENDTAB
  0
TABLE
  2
UCS
 70
     0
  0
ENDTAB
  0
TABLE
  2
APPID
 70
     1
  0
APPID
  2
ACAD
 70
     0
  0
ENDTAB
  0
TABLE
  2
DIMSTYLE
 70
     1
  0
DIMSTYLE
  2
STANDARD
 70
     0
  3

  4

  5

  6

  7

 40
1.0
 41
0.18
 42
0.0625
 43
0.38
 44
0.18
 45
0.0
 46
0.0
 47
0.0
 48
0.0
140
0.18
141
0.09
142
0.0
143
25.399999999999999
144
1.0
145
0.0
146
1.0
147
0.09
 71
     0
 72
     0
 73
     1
 74
     1
 75
     0
 76
     0
 77
     0
 78
     0
170
     0
171
     2
172
     0
173
     0
174
     0
175
     0
176
     0
177
     0
178
     0
  0
ENDTAB
  0
ENDSEC
  0
SECTION
  2
BLOCKS
  0
BLOCK
  8
0
  2
$MODEL_SPACE
 70
     0
 10
0.0
 20
0.0
 30
0.0
  3
$MODEL_SPACE
  1

  0
ENDBLK
  5
1A
  8
0
  0
BLOCK
 67
     1
  8
0
  2
$PAPER_SPACE
 70
     0
 10
0.0
 20
0.0
 30
0.0
  3
$PAPER_SPACE
  1

  0
ENDBLK
  5
17
 67
     1
  8
0
  0
ENDSEC
  0
SECTION
  2
ENTITIES
  0
TEXT
  5
23
  8
0
 62
     7
 10
108.2579999999999
 20
205.63852499999999
 30
0.0
 40
3.0923400000000001
  1
75
 50
90.0
 41
0.5
 72
     1
 11
108.2579999999999
 21
206.92699999999999
 31
0.0
  0
TEXT
  5
24
  8
0
 62
     7
 10
108.2579999999999
 20
198.89452499999999
 30
0.0
 40
3.0923400000000001
  1
65
 50
90.0
 41
0.5
 72
     1
 11
108.2579999999999
 21
200.18299999999991
 31
0.0
  0
TEXT
  5
25
  8
0
 62
     7
 10
116.774
 20
183.65913499999991
 30
0.0
 40
3.0923400000000001
  1
500
 50
90.0
 41
0.5
 72
     1
 11
116.774
 21
185.46299999999999
 31
0.0
  0
TEXT
  5
26
  8
0
 62
     7
 10
112.3129999999999
 20
94.914339999999996
 30
0.0
 40
3.0923400000000001
  1
245
 50
90.0
 41
0.5
 72
     1
 11
112.3129999999999
 21
96.975899999999996
 31
0.0
  0
TEXT
  5
27
  8
0
 62
     7
 10
177.41800000000001
 20
105.5863725
 30
0.0
 40
3.0923400000000001
  1
50
 50
90.0
 41
0.5
 72
     1
 11
177.41800000000001
 21
106.746
 31
0.0
  0
TEXT
  5
28
  8
0
 62
     7
 10
103.334
 20
105.5863725
 30
0.0
 40
3.0923400000000001
  1
50
 50
90.0
 41
0.5
 72
     1
 11
103.334
 21
106.746
 31
0.0
  0
TEXT
  5
29
  8
0
 62
     7
 10
54.8947
 20
112.8870674999999
 30
0.0
 40
3.0923400000000001
  1
10
 50
90.0
 41
0.5
 72
     1
 11
54.8947
 21
113.789
 31
0.0
  0
TEXT
  5
2A
  8
0
 62
     7
 10
108.2579999999999
 20
181.9734399999999
 30
0.0
 40
3.0923400000000001
  1
285
 50
90.0
 41
0.5
 72
     1
 11
108.2579999999999
 21
184.03499999999991
 31
0.0
  0
TEXT
  5
2B
  8
0
 62
     7
 10
108.2579999999999
 20
163.11852500000001
 30
0.0
 40
3.0923400000000001
  1
75
 50
90.0
 41
0.5
 72
     1
 11
108.2579999999999
 21
164.40700000000001
 31
0.0
  0
TEXT
  5
2C
  8
0
 62
     7
 10
77.147239999999996
 20
217.959
 30
0.0
 40
3.0923400000000001
  1
%%c35
 41
0.5
 72
     1
 11
79.208799999999997
 21
217.959
 31
0.0
  0
TEXT
  5
2D
  8
0
 62
     7
 10
70.892039999999994
 20
184.309
 30
0.0
 40
3.0923400000000001
  1
%%c46
 41
0.5
 72
     1
 11
72.953599999999994
 21
184.309
 31
0.0
  0
TEXT
  5
2E
  8
0
 62
     7
 10
21.921800000000001
 20
45.690499999999993
 30
0.0
 40
3.9357000000000002
  1
・壁取付部には厚さ30mm以上の補強木を入れてください。
 41
0.5
  0
TEXT
  5
2F
  8
0
 62
     7
 10
21.921800000000001
 20
40.770899999999997
 30
0.0
 40
3.9357000000000002
  1
・ペデスタル（DV085790）とのセットの施工に当たっては、施工説明書を参照してください。
 41
0.5
  0
TEXT
  5
30
  8
0
 62
     7
 10
156.93813499999999
 20
78.793599999999998
 30
0.0
 40
3.0923400000000001
  1
200
 41
0.5
 72
     1
 11
158.74199999999999
 21
78.793599999999998
 31
0.0
  0
TEXT
  5
31
  8
0
 62
     7
 10
141.422135
 20
118.01000000000001
 30
0.0
 40
3.0923400000000001
  1
500
 41
0.5
 72
     1
 11
143.226
 21
118.01000000000001
 31
0.0
  0
TEXT
  5
32
  8
0
 62
     7
 10
60.498134999999991
 20
145.304
 30
0.0
 40
3.0923400000000001
  1
700
 41
0.5
 72
     1
 11
62.301999999999992
 21
145.304
 31
0.0
  0
TEXT
  5
33
  8
0
 62
     7
 10
60.369287499999999
 20
119.5289999999999
 30
0.0
 40
3.0923400000000001
  1
280
 41
0.5
 72
     1
 11
62.301999999999992
 21
119.5289999999999
 31
0.0
  0
TEXT
  5
34
  8
0
 62
     7
 10
60.369287499999999
 20
152.6689999999999
 30
0.0
 40
3.0923400000000001
  1
550
 41
0.5
 72
     1
 11
62.301999999999992
 21
152.6689999999999
 31
0.0
  0
TEXT
  5
35
  8
0
 62
     7
 10
65.440529999999995
 20
219.48799999999989
 30
0.0
 40
3.0923400000000001
  1
100
 41
0.5
 72
     1
 11
66.986699999999985
 21
219.48799999999989
 31
0.0
  0
TEXT
  5
36
  8
0
 62
     7
 10
55.364930000000001
 20
219.48799999999989
 30
0.0
 40
3.0923400000000001
  1
100
 41
0.5
 72
     1
 11
56.911099999999998
 21
219.48799999999989
 31
0.0
  0
LINE
  5
37
  8
0
 62
     7
 10
112.461
 20
84.753999999999976
 30
0.0
 11
143.90000000000001
 21
84.753999999999976
 31
0.0
  0
LINE
  5
38
  8
0
 62
     7
 10
112.461
 20
109.25399999999991
 30
0.0
 11
117.70399999999989
 21
109.25399999999991
 31
0.0
  0
LINE
  5
39
  8
0
 62
     7
 10
113.74799999999991
 20
107.04299999999991
 30
0.0
 11
113.15600000000001
 21
109.25399999999991
 31
0.0
  0
LINE
  5
3A
  8
0
 62
     7
 10
113.15600000000001
 20
109.25399999999991
 30
0.0
 11
112.56399999999989
 21
107.04299999999991
 31
0.0
  0
LINE
  5
3B
  8
0
 62
     7
 10
112.56399999999989
 20
107.04299999999991
 30
0.0
 11
113.74799999999991
 21
107.04299999999991
 31
0.0
  0
LINE
  5
3C
  8
0
 62
     7
 10
112.578
 20
86.964399999999998
 30
0.0
 11
113.17
 21
84.753999999999976
 31
0.0
  0
LINE
  5
3D
  8
0
 62
     7
 10
113.17
 20
84.753999999999976
 30
0.0
 11
113.76299999999991
 21
86.964399999999998
 31
0.0
  0
LINE
  5
3E
  8
0
 62
     7
 10
113.76299999999991
 20
86.964399999999998
 30
0.0
 11
112.578
 21
86.964399999999998
 31
0.0
  0
LINE
  5
3F
  8
0
 62
     7
 10
113.1629999999999
 20
109.25399999999991
 30
0.0
 11
113.1629999999999
 21
84.753999999999976
 31
0.0
  0
LINE
  5
40
  8
0
 62
     7
 10
166.31399999999999
 20
116.59399999999989
 30
0.0
 11
168.52500000000001
 21
117.187
 31
0.0
  0
LINE
  5
41
  8
0
 62
     7
 10
168.52500000000001
 20
117.187
 30
0.0
 11
166.31399999999999
 21
117.7789999999999
 31
0.0
  0
LINE
  5
42
  8
0
 62
     7
 10
166.31399999999999
 20
117.7789999999999
 30
0.0
 11
166.31399999999999
 21
116.59399999999989
 31
0.0
  0
LINE
  5
43
  8
0
 62
     7
 10
120.7359999999999
 20
117.764
 30
0.0
 11
118.52500000000001
 21
117.1729999999999
 31
0.0
  0
LINE
  5
44
  8
0
 62
     7
 10
118.52500000000001
 20
117.1729999999999
 30
0.0
 11
120.7359999999999
 21
116.5799999999999
 31
0.0
  0
LINE
  5
45
  8
0
 62
     7
 10
120.7359999999999
 20
116.5799999999999
 30
0.0
 11
120.7359999999999
 21
117.764
 31
0.0
  0
LINE
  5
46
  8
0
 62
     7
 10
168.52500000000001
 20
117.179
 30
0.0
 11
118.52500000000001
 21
117.179
 31
0.0
  0
LINE
  5
47
  8
0
 62
     7
 10
118.52500000000001
 20
109.9079999999999
 30
0.0
 11
118.52500000000001
 21
117.72
 31
0.0
  0
LINE
  5
48
  8
0
 62
     7
 10
168.52500000000001
 20
109.9079999999999
 30
0.0
 11
168.52500000000001
 21
117.72
 31
0.0
  0
LINE
  5
49
  8
0
 62
     7
 10
166.31399999999999
 20
77.446200000000005
 30
0.0
 11
168.52500000000001
 21
78.038799999999995
 31
0.0
  0
LINE
  5
4A
  8
0
 62
     7
 10
168.52500000000001
 20
78.038799999999995
 30
0.0
 11
166.31399999999999
 21
78.630700000000004
 31
0.0
  0
LINE
  5
4B
  8
0
 62
     7
 10
166.31399999999999
 20
78.630700000000004
 30
0.0
 11
166.31399999999999
 21
77.446200000000005
 31
0.0
  0
LINE
  5
4C
  8
0
 62
     7
 10
150.73599999999999
 20
78.616200000000006
 30
0.0
 11
148.52500000000001
 21
78.024299999999997
 31
0.0
  0
LINE
  5
4D
  8
0
 62
     7
 10
148.52500000000001
 20
78.024299999999997
 30
0.0
 11
150.73599999999999
 21
77.431799999999996
 31
0.0
  0
LINE
  5
4E
  8
0
 62
     7
 10
150.73599999999999
 20
77.431799999999996
 30
0.0
 11
150.73599999999999
 21
78.616200000000006
 31
0.0
  0
LINE
  5
4F
  8
0
 62
     7
 10
168.52500000000001
 20
78.031199999999984
 30
0.0
 11
148.52500000000001
 21
78.031199999999984
 31
0.0
  0
LINE
  5
50
  8
0
 62
     7
 10
168.52500000000001
 20
77.681899999999999
 30
0.0
 11
168.52500000000001
 21
88.199799999999996
 31
0.0
  0
LINE
  5
51
  8
0
 62
     7
 10
148.52500000000001
 20
77.681899999999999
 30
0.0
 11
148.52500000000001
 21
82.399600000000007
 31
0.0
  0
LINE
  5
52
  8
0
 62
     7
 10
152.27600000000001
 20
85.080600000000004
 30
0.0
 11
152.27600000000001
 21
85.004099999999994
 31
0.0
  0
LINE
  5
53
  8
0
 62
     7
 10
145.27499999999989
 20
84.753999999999976
 30
0.0
 11
152.02500000000001
 21
84.753999999999976
 31
0.0
  0
ARC
  5
54
  8
0
 62
     7
 10
152.01602500000001
 20
85.013554999999997
 30
0.0
 40
0.259707
 50
272.07888800000001
 51
357.92112200000003
  0
LINE
  5
55
  8
0
 62
     7
 10
152.43700000000001
 20
85.314899999999994
 30
0.0
 11
155.62599999999989
 21
86.510300000000001
 31
0.0
  0
ARC
  5
56
  8
0
 62
     7
 10
152.53111899999999
 20
85.077072000000001
 30
0.0
 40
0.255582
 50
111.4917659999999
 51
179.20556999999991
  0
LINE
  5
57
  8
0
 62
     7
 10
156.27500000000001
 20
87.944199999999995
 30
0.0
 11
156.27500000000001
 21
87.446700000000007
 31
0.0
  0
ARC
  5
58
  8
0
 62
     7
 10
155.24791200000001
 20
87.465750999999983
 30
0.0
 40
1.027606
 50
291.604986
 51
358.93896999999998
  0
LINE
  5
59
  8
0
 62
     7
 10
144.77500000000001
 20
85.254199999999997
 30
0.0
 11
144.77500000000001
 21
86.9499
 31
0.0
  0
ARC
  5
5A
  8
0
 62
     7
 10
145.275083
 20
85.254249999999999
 30
0.0
 40
0.5002310000000002
 50
179.99996999999991
 51
270.00002000000001
  0
LINE
  5
5B
  8
0
  6
AIGENLINE001
 62
     7
 10
148.52500000000001
 20
93.962100000000007
 30
0.0
 11
148.52500000000001
 21
82.882599999999996
 31
0.0
  0
LINE
  5
5C
  8
0
 62
     7
 10
137.52500000000001
 20
87.448099999999997
 30
0.0
 11
153.011
 21
86.384200000000007
 31
0.0
  0
LINE
  5
5D
  8
0
 62
     7
 10
120.02500000000001
 20
99.253799999999998
 30
0.0
 11
168.52500000000001
 21
99.253799999999998
 31
0.0
  0
ARC
  5
5E
  8
0
 62
     7
 10
124.806776
 20
97.239223999999993
 30
0.0
 40
2.0146099999999989
 50
50.893800000000013
 51
89.857821999999999
  0
LINE
  5
5F
  8
0
 62
     7
 10
153.52500000000001
 20
86.954099999999997
 30
0.0
 11
153.322
 21
86.547499999999985
 31
0.0
  0
ARC
  5
60
  8
0
 62
     7
 10
153.04847699999991
 20
86.691085000000001
 30
0.0
 40
0.309064
 50
263.116964
 51
332.32680299999993
  0
LINE
  5
61
  8
0
 62
     7
 10
158.52600000000001
 20
88.753799999999984
 30
0.0
 11
153.52500000000001
 21
86.954099999999997
 31
0.0
  0
LINE
  5
62
  8
0
 62
     7
 10
168.52500000000001
 20
88.753799999999984
 30
0.0
 11
158.52600000000001
 21
88.753799999999984
 31
0.0
  0
LINE
  5
63
  8
0
  6
AIGENLINE002
 62
     7
 10
155.00499999999991
 20
107.9739999999999
 30
0.0
 11
166.63800000000001
 21
108.45099999999999
 31
0.0
  0
LINE
  5
64
  8
0
  6
AIGENLINE002
 62
     7
 10
154.52500000000001
 20
107.47499999999989
 30
0.0
 11
154.52500000000001
 21
102.39399999999991
 31
0.0
  0
ARC
  5
65
  8
0
  6
AIGENLINE002
 62
     7
 10
155.04369099999991
 20
107.45679799999991
 30
0.0
 40
0.5187720000000001
 50
94.301182999999995
 51
178.0370659999999
  0
LINE
  5
66
  8
0
  6
AIGENLINE002
 62
     7
 10
167.739
 20
109.163
 30
0.0
 11
166.79699999999991
 21
108.505
 31
0.0
  0
ARC
  5
67
  8
0
  6
AIGENLINE002
 62
     7
 10
166.62642
 20
108.748668
 30
0.0
 40
0.297963
 50
272.14376099999993
 51
305.02225399999998
  0
LINE
  5
68
  8
0
  6
AIGENLINE001
 62
     7
 10
161.02500000000001
 20
111.24799999999991
 30
0.0
 11
161.02500000000001
 21
105.5649999999999
 31
0.0
  0
ARC
  5
69
  8
0
  6
AIGENLINE002
 62
     7
 10
168.02631099999999
 20
108.75385799999999
 30
0.0
 40
0.500458
 50
90.120457999999999
 51
125.088785
  0
LINE
  5
6A
  8
0
 62
     7
 10
168.52500000000001
 20
108.75399999999991
 30
0.0
 11
168.52500000000001
 21
88.753799999999984
 31
0.0
  0
LINE
  5
6B
  8
0
 62
     7
 10
119.02500000000001
 20
109.25399999999991
 30
0.0
 11
168.02500000000001
 21
109.25399999999991
 31
0.0
  0
ARC
  5
6C
  8
0
 62
     7
 10
168.02525900000001
 20
108.75408400000001
 30
0.0
 40
0.5002310000000002
 50
0.00001
 51
89.999980000000008
  0
LINE
  5
6D
  8
0
 62
     7
 10
119.52500000000001
 20
99.754099999999994
 30
0.0
 11
119.52500000000001
 21
103.047
 31
0.0
  0
ARC
  5
6E
  8
0
 62
     7
 10
151.21802600000001
 20
114.66593999999991
 30
0.0
 40
29.726984999999988
 50
212.25154599999991
 51
219.943299
  0
ARC
  5
6F
  8
0
 62
     7
 10
159.819256
 20
121.54537999999999
 30
0.0
 40
40.738933000000003
 50
219.59463700000001
 51
236.8215799999999
  0
ARC
  5
70
  8
0
 62
     7
 10
120.02512900000001
 20
99.754058999999998
 30
0.0
 40
0.5002310000000002
 50
179.99996999999991
 51
270.00002000000001
  0
LINE
  5
71
  8
0
 62
     7
 10
119.37899999999991
 20
103.40000000000001
 30
0.0
 11
118.672
 21
104.107
 31
0.0
  0
ARC
  5
72
  8
0
 62
     7
 10
119.0185749999999
 20
103.0445789999999
 30
0.0
 40
0.506328
 50
0.262923
 51
44.643318999999998
  0
ARC
  5
73
  8
0
 62
     7
 10
119.0314749999999
 20
104.463809
 30
0.0
 40
0.5063550000000001
 50
180.264995
 51
224.75297
  0
ARC
  5
74
  8
0
 62
     7
 10
119.025356
 20
108.75408400000001
 30
0.0
 40
0.5002310000000002
 50
90.0
 51
179.99996999999991
  0
LINE
  5
75
  8
0
 62
     7
 10
119.785
 20
104.254
 30
0.0
 11
168.52500000000001
 21
104.254
 31
0.0
  0
LINE
  5
76
  8
0
 62
     7
 10
118.52500000000001
 20
108.75399999999991
 30
0.0
 11
118.52500000000001
 21
104.461
 31
0.0
  0
LINE
  5
77
  8
0
 62
     7
 10
38.66749999999999
 20
97.717299999999994
 30
0.0
 11
40.360199999999992
 21
90.607299999999995
 31
0.0
  0
ARC
  5
78
  8
0
 62
     7
 10
36.673966
 20
97.193103000000008
 30
0.0
 40
2.0612819999999989
 50
14.732668
 51
88.668905000000024
  0
ARC
  5
79
  8
0
 62
     7
 10
52.801504000000001
 20
86.754168000000007
 30
0.0
 40
0.500145
 50
270.00988699999999
 51
0.009857
  0
LINE
  5
7A
  8
0
 62
     7
 10
57.301600000000001
 20
87.454300000000003
 30
0.0
 11
53.776699999999998
 21
87.277900000000002
 31
0.0
  0
ARC
  5
7B
  8
0
 62
     7
 10
53.820756000000003
 20
86.760377000000005
 30
0.0
 40
0.519419
 50
94.881250000000009
 51
178.0147969999999
  0
LINE
  5
7C
  8
0
 62
     7
 10
42.301000000000002
 20
103.50399999999991
 30
0.0
 11
42.301000000000002
 21
100.00399999999991
 31
0.0
  0
LINE
  5
7D
  8
0
 62
     7
 10
39.301000000000002
 20
108.504
 30
0.0
 11
39.301000000000002
 21
105.00399999999991
 31
0.0
  0
LINE
  5
7E
  8
0
 62
     7
 10
177.69799999999989
 20
106.465
 30
0.0
 11
178.28999999999991
 21
104.254
 31
0.0
  0
LINE
  5
7F
  8
0
 62
     7
 10
178.28999999999991
 20
104.254
 30
0.0
 11
178.88200000000001
 21
106.465
 31
0.0
  0
LINE
  5
80
  8
0
 62
     7
 10
178.88200000000001
 20
106.465
 30
0.0
 11
177.69799999999989
 21
106.465
 31
0.0
  0
LINE
  5
81
  8
0
 62
     7
 10
178.86799999999999
 20
107.04299999999991
 30
0.0
 11
178.27500000000001
 21
109.25399999999991
 31
0.0
  0
LINE
  5
82
  8
0
 62
     7
 10
178.27500000000001
 20
109.25399999999991
 30
0.0
 11
177.68299999999991
 21
107.04299999999991
 31
0.0
  0
LINE
  5
83
  8
0
 62
     7
 10
177.68299999999991
 20
107.04299999999991
 30
0.0
 11
178.86799999999999
 21
107.04299999999991
 31
0.0
  0
LINE
  5
84
  8
0
 62
     7
 10
178.2829999999999
 20
104.254
 30
0.0
 11
178.2829999999999
 21
109.25399999999991
 31
0.0
  0
LINE
  5
85
  8
0
 62
     7
 10
178.92799999999991
 20
104.254
 30
0.0
 11
173.309
 21
104.254
 31
0.0
  0
LINE
  5
86
  8
0
 62
     7
 10
179.15000000000001
 20
109.25399999999991
 30
0.0
 11
169.68700000000001
 21
109.25399999999991
 31
0.0
  0
LINE
  5
87
  8
0
 62
     7
 10
103.6139999999999
 20
106.465
 30
0.0
 11
104.2059999999999
 21
104.254
 31
0.0
  0
LINE
  5
88
  8
0
 62
     7
 10
104.2059999999999
 20
104.254
 30
0.0
 11
104.7979999999999
 21
106.465
 31
0.0
  0
LINE
  5
89
  8
0
 62
     7
 10
104.7979999999999
 20
106.465
 30
0.0
 11
103.6139999999999
 21
106.465
 31
0.0
  0
LINE
  5
8A
  8
0
 62
     7
 10
104.78399999999991
 20
107.04299999999991
 30
0.0
 11
104.191
 21
109.25399999999991
 31
0.0
  0
LINE
  5
8B
  8
0
 62
     7
 10
104.191
 20
109.25399999999991
 30
0.0
 11
103.5989999999999
 21
107.04299999999991
 31
0.0
  0
LINE
  5
8C
  8
0
 62
     7
 10
103.5989999999999
 20
107.04299999999991
 30
0.0
 11
104.78399999999991
 21
107.04299999999991
 31
0.0
  0
LINE
  5
8D
  8
0
 62
     7
 10
104.1989999999999
 20
104.254
 30
0.0
 11
104.1989999999999
 21
109.25399999999991
 31
0.0
  0
LINE
  5
8E
  8
0
  6
AIGENLINE001
 62
     7
 10
172.33299999999991
 20
104.254
 30
0.0
 11
163.68999999999991
 21
104.254
 31
0.0
  0
LINE
  5
8F
  8
0
 62
     7
 10
104.845
 20
104.254
 30
0.0
 11
98.166499999999999
 21
104.254
 31
0.0
  0
LINE
  5
90
  8
0
 62
     7
 10
56.246400000000001
 20
106.04299999999991
 30
0.0
 11
55.654099999999993
 21
108.25399999999991
 31
0.0
  0
LINE
  5
91
  8
0
 62
     7
 10
55.654099999999993
 20
108.25399999999991
 30
0.0
 11
55.061799999999998
 21
106.04299999999991
 31
0.0
  0
LINE
  5
92
  8
0
 62
     7
 10
55.061799999999998
 20
106.04299999999991
 30
0.0
 11
56.246400000000001
 21
106.04299999999991
 31
0.0
  0
LINE
  5
93
  8
0
 62
     7
 10
55.0764
 20
111.465
 30
0.0
 11
55.668599999999998
 21
109.25399999999991
 31
0.0
  0
LINE
  5
94
  8
0
 62
     7
 10
55.668599999999998
 20
109.25399999999991
 30
0.0
 11
56.261000000000003
 21
111.465
 31
0.0
  0
LINE
  5
95
  8
0
 62
     7
 10
56.261000000000003
 20
111.465
 30
0.0
 11
55.0764
 21
111.465
 31
0.0
  0
LINE
  5
96
  8
0
 62
     7
 10
55.6614
 20
115.6729999999999
 30
0.0
 11
55.6614
 21
105.5379999999999
 31
0.0
  0
LINE
  5
97
  8
0
  6
AIGENLINE002
 62
     7
 10
50.802
 20
108.25399999999991
 30
0.0
 11
73.801999999999992
 21
108.25399999999991
 31
0.0
  0
LINE
  5
98
  8
0
 62
     7
 10
74.091399999999993
 20
118.02799999999991
 30
0.0
 11
76.301900000000003
 21
118.62
 31
0.0
  0
LINE
  5
99
  8
0
 62
     7
 10
76.301900000000003
 20
118.62
 30
0.0
 11
74.091399999999993
 21
119.212
 31
0.0
  0
LINE
  5
9A
  8
0
 62
     7
 10
74.091399999999993
 20
119.212
 30
0.0
 11
74.091399999999993
 21
118.02799999999991
 31
0.0
  0
LINE
  5
9B
  8
0
 62
     7
 10
50.512500000000003
 20
119.19799999999999
 30
0.0
 11
48.30210000000001
 21
118.60599999999999
 31
0.0
  0
LINE
  5
9C
  8
0
 62
     7
 10
48.30210000000001
 20
118.60599999999999
 30
0.0
 11
50.512500000000003
 21
118.01299999999991
 31
0.0
  0
LINE
  5
9D
  8
0
 62
     7
 10
50.512500000000003
 20
118.01299999999991
 30
0.0
 11
50.512500000000003
 21
119.19799999999999
 31
0.0
  0
LINE
  5
9E
  8
0
 62
     7
 10
76.302099999999996
 20
118.613
 30
0.0
 11
48.301900000000003
 21
118.613
 31
0.0
  0
LINE
  5
9F
  8
0
 62
     7
 10
76.302099999999996
 20
119.202
 30
0.0
 11
76.302099999999996
 21
106.17399999999989
 31
0.0
  0
LINE
  5
A0
  8
0
  6
AIGENLINE001
 62
     7
 10
76.302099999999996
 20
102.795
 30
0.0
 11
76.302099999999996
 21
105.82599999999999
 31
0.0
  0
LINE
  5
A1
  8
0
  6
AIGENLINE002
 62
     7
 10
75.802199999999999
 20
103.254
 30
0.0
 11
76.801999999999992
 21
103.254
 31
0.0
  0
LINE
  5
A2
  8
0
  6
AIGENLINE002
 62
     7
 10
75.802199999999999
 20
105.254
 30
0.0
 11
76.801999999999992
 21
105.254
 31
0.0
  0
ARC
  5
A3
  8
0
  6
AIGENLINE002
 62
     7
 10
76.76338299999999
 20
104.29304499999991
 30
0.0
 40
1.0394639999999991
 50
272.12901799999997
 51
357.85125199999987
  0
ARC
  5
A4
  8
0
  6
AIGENLINE002
 62
     7
 10
76.764105000000001
 20
104.21581999999999
 30
0.0
 40
1.0387159999999991
 50
2.1104620000000001
 51
87.909268000000012
  0
LINE
  5
A5
  8
0
  6
AIGENLINE001
 62
     7
 10
74.323599999999999
 20
104.254
 30
0.0
 11
78.283100000000005
 21
104.254
 31
0.0
  0
ARC
  5
A6
  8
0
  6
AIGENLINE002
 62
     7
 10
75.840836999999993
 20
104.215103
 30
0.0
 40
1.039458999999999
 50
92.128725000000017
 51
177.851505
  0
ARC
  5
A7
  8
0
  6
AIGENLINE002
 62
     7
 10
75.840119999999999
 20
104.2923229999999
 30
0.0
 40
1.0387159999999991
 50
182.11046399999989
 51
267.90930600000002
  0
LINE
  5
A8
  8
0
 62
     7
 10
48.301900000000003
 20
119.202
 30
0.0
 11
48.301900000000003
 21
106.17399999999989
 31
0.0
  0
LINE
  5
A9
  8
0
  6
AIGENLINE001
 62
     7
 10
48.301900000000003
 20
102.795
 30
0.0
 11
48.301900000000003
 21
105.82599999999999
 31
0.0
  0
LINE
  5
AA
  8
0
  6
AIGENLINE002
 62
     7
 10
47.801900000000003
 20
103.254
 30
0.0
 11
48.8018
 21
103.254
 31
0.0
  0
LINE
  5
AB
  8
0
  6
AIGENLINE002
 62
     7
 10
47.801900000000003
 20
105.254
 30
0.0
 11
48.8018
 21
105.254
 31
0.0
  0
ARC
  5
AC
  8
0
  6
AIGENLINE002
 62
     7
 10
48.763198000000003
 20
104.29304
 30
0.0
 40
1.039458999999999
 50
272.12874399999993
 51
357.85152499999992
  0
ARC
  5
AD
  8
0
  6
AIGENLINE002
 62
     7
 10
48.763914
 20
104.21581999999999
 30
0.0
 40
1.0387159999999991
 50
2.1104620000000001
 51
87.909268000000012
  0
LINE
  5
AE
  8
0
  6
AIGENLINE001
 62
     7
 10
46.323399999999999
 20
104.254
 30
0.0
 11
50.282899999999998
 21
104.254
 31
0.0
  0
ARC
  5
AF
  8
0
  6
AIGENLINE002
 62
     7
 10
47.840483999999996
 20
104.215272
 30
0.0
 40
1.03929
 50
92.12960099999998
 51
177.86049800000001
  0
ARC
  5
B0
  8
0
  6
AIGENLINE002
 62
     7
 10
47.839923999999989
 20
104.292311
 30
0.0
 40
1.03871
 50
182.10980499999999
 51
267.90009600000002
  0
LINE
  5
B1
  8
0
 62
     7
 10
105.066
 20
109.25399999999991
 30
0.0
 11
98.166499999999999
 21
109.25399999999991
 31
0.0
  0
LINE
  5
B2
  8
0
 62
     7
 10
85.936000000000007
 20
97.717299999999994
 30
0.0
 11
84.243099999999998
 21
90.607299999999995
 31
0.0
  0
ARC
  5
B3
  8
0
 62
     7
 10
52.808990999999999
 20
99.841631000000007
 30
0.0
 40
13.58829899999999
 50
267.04814199999993
 51
269.96880099999998
  0
ARC
  5
B4
  8
0
 62
     7
 10
53.577502000000003
 20
116.832258
 30
0.0
 40
30.596146999999998
 50
251.45495899999989
 51
267.24940699999991
  0
ARC
  5
B5
  8
0
 62
     7
 10
50.212094999999998
 20
105.83756200000001
 30
0.0
 40
19.104448999999988
 50
244.684575
 51
250.53656599999999
  0
ARC
  5
B6
  8
0
 62
     7
 10
43.318305000000002
 20
91.333961000000002
 30
0.0
 40
3.0460189999999989
 50
193.8021489999999
 51
245.2489029999999
  0
ARC
  5
B7
  8
0
 62
     7
 10
71.794353999999998
 20
99.842320000000001
 30
0.0
 40
13.58829899999999
 50
270.03121900000002
 51
272.95187799999991
  0
ARC
  5
B8
  8
0
 62
     7
 10
71.025841
 20
116.83299599999989
 30
0.0
 40
30.596195999999999
 50
272.75061399999998
 51
288.54504700000001
  0
ARC
  5
B9
  8
0
 62
     7
 10
74.391468000000003
 20
105.8376779999999
 30
0.0
 40
19.103837999999989
 50
289.46342799999991
 51
295.31559099999998
  0
ARC
  5
BA
  8
0
 62
     7
 10
81.285584000000014
 20
91.334200999999993
 30
0.0
 40
3.045385
 50
294.74536699999987
 51
346.20362099999988
  0
LINE
  5
BB
  8
0
 62
     7
 10
28.801500000000001
 20
99.253799999999998
 30
0.0
 11
95.8018
 21
99.253799999999998
 31
0.0
  0
ARC
  5
BC
  8
0
 62
     7
 10
87.929699999999997
 20
97.192920000000015
 30
0.0
 40
2.0614720000000002
 50
91.339869999999976
 51
165.263453
  0
ARC
  5
BD
  8
0
 62
     7
 10
71.821128999999985
 20
86.773268999999999
 30
0.0
 40
0.5196069999999999
 50
182.09724499999999
 51
267.86331200000001
  0
LINE
  5
BE
  8
0
 62
     7
 10
67.301699999999997
 20
87.454300000000003
 30
0.0
 11
70.826599999999999
 21
87.277900000000002
 31
0.0
  0
ARC
  5
BF
  8
0
 62
     7
 10
70.783473000000001
 20
86.761037000000002
 30
0.0
 40
0.518686
 50
1.914963999999999
 51
85.209701999999993
  0
LINE
  5
C0
  8
0
 62
     7
 10
59.051699999999997
 20
84.753999999999976
 30
0.0
 11
65.551599999999993
 21
84.753999999999976
 31
0.0
  0
LINE
  5
C1
  8
0
 62
     7
 10
58.551699999999997
 20
85.254199999999997
 30
0.0
 11
58.551699999999997
 21
87.453599999999994
 31
0.0
  0
ARC
  5
C2
  8
0
 62
     7
 10
59.070928000000002
 20
85.273276999999993
 30
0.0
 40
0.5196130000000001
 50
182.0985639999999
 51
267.881733
  0
LINE
  5
C3
  8
0
 62
     7
 10
66.051699999999997
 20
87.453599999999994
 30
0.0
 11
66.051699999999997
 21
85.254199999999997
 31
0.0
  0
ARC
  5
C4
  8
0
 62
     7
 10
65.532938000000001
 20
85.272756999999999
 30
0.0
 40
0.519075
 50
272.06304399999988
 51
357.95669900000001
  0
LINE
  5
C5
  8
0
 62
     7
 10
57.301600000000001
 20
87.454300000000003
 30
0.0
 11
67.301699999999997
 21
87.454300000000003
 31
0.0
  0
LINE
  5
C6
  8
0
  6
AIGENLINE001
 62
     7
 10
62.301999999999992
 20
82.813699999999997
 30
0.0
 11
62.301999999999992
 21
111.107
 31
0.0
  0
LINE
  5
C7
  8
0
 62
     7
 10
82.302099999999996
 20
103.50399999999991
 30
0.0
 11
82.302099999999996
 21
100.00399999999991
 31
0.0
  0
LINE
  5
C8
  8
0
 62
     7
 10
85.302499999999995
 20
108.504
 30
0.0
 11
85.302499999999995
 21
105.00399999999991
 31
0.0
  0
LINE
  5
C9
  8
0
 62
     7
 10
28.301500000000001
 20
99.754099999999994
 30
0.0
 11
28.301500000000001
 21
103.047
 31
0.0
  0
ARC
  5
CA
  8
0
 62
     7
 10
28.820934000000001
 20
99.773290000000003
 30
0.0
 40
0.519824
 50
182.12007800000001
 51
267.86021799999997
  0
LINE
  5
CB
  8
0
 62
     7
 10
28.155000000000001
 20
103.40000000000001
 30
0.0
 11
27.447900000000001
 21
104.107
 31
0.0
  0
ARC
  5
CC
  8
0
 62
     7
 10
27.795994
 20
103.04458
 30
0.0
 40
0.505478
 50
0.263207
 51
44.738397999999989
  0
ARC
  5
CD
  8
0
 62
     7
 10
27.809149999999999
 20
104.463989
 30
0.0
 40
0.507636
 50
180.28455199999999
 51
224.6382459999999
  0
ARC
  5
CE
  8
0
 62
     7
 10
27.820464000000001
 20
108.73538499999999
 30
0.0
 40
0.51928
 50
92.103113000000022
 51
177.93633099999991
  0
LINE
  5
CF
  8
0
 62
     7
 10
27.801400000000001
 20
109.25399999999991
 30
0.0
 11
96.801900000000003
 21
109.25399999999991
 31
0.0
  0
LINE
  5
D0
  8
0
 62
     7
 10
28.561900000000001
 20
104.254
 30
0.0
 11
96.082899999999995
 21
104.254
 31
0.0
  0
LINE
  5
D1
  8
0
 62
     7
 10
27.301500000000001
 20
108.75399999999991
 30
0.0
 11
27.301500000000001
 21
104.461
 31
0.0
  0
LINE
  5
D2
  8
0
 62
     7
 10
96.302099999999996
 20
99.754099999999994
 30
0.0
 11
96.302099999999996
 21
103.047
 31
0.0
  0
ARC
  5
D3
  8
0
 62
     7
 10
95.801821000000004
 20
99.754059999999996
 30
0.0
 40
0.5002310000000002
 50
270.00002000000001
 51
359.99998999999991
  0
LINE
  5
D4
  8
0
 62
     7
 10
96.448499999999996
 20
103.40000000000001
 30
0.0
 11
97.1554
 21
104.107
 31
0.0
  0
ARC
  5
D5
  8
0
 62
     7
 10
96.805747999999994
 20
103.0453159999999
 30
0.0
 40
0.5036990000000001
 50
135.178831
 51
179.819525
  0
LINE
  5
D6
  8
0
 62
     7
 10
97.3018
 20
108.75399999999991
 30
0.0
 11
97.3018
 21
104.461
 31
0.0
  0
ARC
  5
D7
  8
0
 62
     7
 10
96.792017000000001
 20
104.4648889999999
 30
0.0
 40
0.5098200000000001
 50
315.46179100000001
 51
359.61545099999989
  0
ARC
  5
D8
  8
0
 62
     7
 10
96.782560000000004
 20
108.7350629999999
 30
0.0
 40
0.5196130000000001
 50
2.0977749999999991
 51
87.862741999999983
  0
LINE
  5
D9
  8
0
 62
     7
 10
117.029
 20
163.1339999999999
 30
0.0
 11
117.621
 21
160.923
 31
0.0
  0
LINE
  5
DA
  8
0
 62
     7
 10
117.621
 20
160.923
 30
0.0
 11
118.2139999999999
 21
163.1339999999999
 31
0.0
  0
LINE
  5
DB
  8
0
 62
     7
 10
118.2139999999999
 20
163.1339999999999
 30
0.0
 11
117.029
 21
163.1339999999999
 31
0.0
  0
LINE
  5
DC
  8
0
 62
     7
 10
118.199
 20
208.71299999999999
 30
0.0
 11
117.607
 21
210.923
 31
0.0
  0
LINE
  5
DD
  8
0
 62
     7
 10
117.607
 20
210.923
 30
0.0
 11
117.015
 21
208.71299999999999
 31
0.0
  0
LINE
  5
DE
  8
0
 62
     7
 10
117.015
 20
208.71299999999999
 30
0.0
 11
118.199
 21
208.71299999999999
 31
0.0
  0
LINE
  5
DF
  8
0
 62
     7
 10
117.6139999999999
 20
160.923
 30
0.0
 11
117.6139999999999
 21
210.923
 31
0.0
  0
LINE
  5
E0
  8
0
 62
     7
 10
108.569
 20
199.13399999999999
 30
0.0
 11
109.1609999999999
 21
196.92299999999989
 31
0.0
  0
LINE
  5
E1
  8
0
 62
     7
 10
109.1609999999999
 20
196.92299999999989
 30
0.0
 11
109.7529999999999
 21
199.13399999999999
 31
0.0
  0
LINE
  5
E2
  8
0
 62
     7
 10
109.7529999999999
 20
199.13399999999999
 30
0.0
 11
108.569
 21
199.13399999999999
 31
0.0
  0
LINE
  5
E3
  8
0
 62
     7
 10
108.569
 20
205.63399999999999
 30
0.0
 11
109.1609999999999
 21
203.42299999999989
 31
0.0
  0
LINE
  5
E4
  8
0
 62
     7
 10
109.1609999999999
 20
203.42299999999989
 30
0.0
 11
109.7529999999999
 21
205.63399999999999
 31
0.0
  0
LINE
  5
E5
  8
0
 62
     7
 10
109.7529999999999
 20
205.63399999999999
 30
0.0
 11
108.569
 21
205.63399999999999
 31
0.0
  0
LINE
  5
E6
  8
0
 62
     7
 10
108.569
 20
170.6329999999999
 30
0.0
 11
109.1609999999999
 21
168.423
 31
0.0
  0
LINE
  5
E7
  8
0
 62
     7
 10
109.1609999999999
 20
168.423
 30
0.0
 11
109.7529999999999
 21
170.6329999999999
 31
0.0
  0
LINE
  5
E8
  8
0
 62
     7
 10
109.7529999999999
 20
170.6329999999999
 30
0.0
 11
108.569
 21
170.6329999999999
 31
0.0
  0
LINE
  5
E9
  8
0
 62
     7
 10
108.569
 20
163.1339999999999
 30
0.0
 11
109.1609999999999
 21
160.923
 31
0.0
  0
LINE
  5
EA
  8
0
 62
     7
 10
109.1609999999999
 20
160.923
 30
0.0
 11
109.7529999999999
 21
163.1339999999999
 31
0.0
  0
LINE
  5
EB
  8
0
 62
     7
 10
109.7529999999999
 20
163.1339999999999
 30
0.0
 11
108.569
 21
163.1339999999999
 31
0.0
  0
LINE
  5
EC
  8
0
 62
     7
 10
109.7389999999999
 20
166.21199999999999
 30
0.0
 11
109.146
 21
168.423
 31
0.0
  0
LINE
  5
ED
  8
0
 62
     7
 10
109.146
 20
168.423
 30
0.0
 11
108.5539999999999
 21
166.21199999999999
 31
0.0
  0
LINE
  5
EE
  8
0
 62
     7
 10
108.5539999999999
 20
166.21199999999999
 30
0.0
 11
109.7389999999999
 21
166.21199999999999
 31
0.0
  0
LINE
  5
EF
  8
0
 62
     7
 10
109.7389999999999
 20
201.21299999999991
 30
0.0
 11
109.146
 21
203.42299999999989
 31
0.0
  0
LINE
  5
F0
  8
0
 62
     7
 10
109.146
 20
203.42299999999989
 30
0.0
 11
108.5539999999999
 21
201.21299999999991
 31
0.0
  0
LINE
  5
F1
  8
0
 62
     7
 10
108.5539999999999
 20
201.21299999999991
 30
0.0
 11
109.7389999999999
 21
201.21299999999991
 31
0.0
  0
LINE
  5
F2
  8
0
 62
     7
 10
109.7389999999999
 20
194.71299999999991
 30
0.0
 11
109.146
 21
196.92299999999989
 31
0.0
  0
LINE
  5
F3
  8
0
 62
     7
 10
109.146
 20
196.92299999999989
 30
0.0
 11
108.5539999999999
 21
194.71299999999991
 31
0.0
  0
LINE
  5
F4
  8
0
 62
     7
 10
108.5539999999999
 20
194.71299999999991
 30
0.0
 11
109.7389999999999
 21
194.71299999999991
 31
0.0
  0
LINE
  5
F5
  8
0
 62
     7
 10
109.7389999999999
 20
208.71299999999999
 30
0.0
 11
109.146
 21
210.923
 31
0.0
  0
LINE
  5
F6
  8
0
 62
     7
 10
109.146
 20
210.923
 30
0.0
 11
108.5539999999999
 21
208.71299999999999
 31
0.0
  0
LINE
  5
F7
  8
0
 62
     7
 10
108.5539999999999
 20
208.71299999999999
 30
0.0
 11
109.7389999999999
 21
208.71299999999999
 31
0.0
  0
LINE
  5
F8
  8
0
 62
     7
 10
109.1539999999999
 20
160.923
 30
0.0
 11
109.1539999999999
 21
210.923
 31
0.0
  0
LINE
  5
F9
  8
0
 62
     7
 10
118.2329999999999
 20
160.923
 30
0.0
 11
86.933699999999988
 21
160.923
 31
0.0
  0
LINE
  5
FA
  8
0
 62
     7
 10
109.77200000000001
 20
168.423
 30
0.0
 11
83.595100000000002
 21
168.423
 31
0.0
  0
LINE
  5
FB
  8
0
 62
     7
 10
109.77200000000001
 20
196.92299999999989
 30
0.0
 11
83.718800000000002
 21
196.92299999999989
 31
0.0
  0
LINE
  5
FC
  8
0
 62
     7
 10
109.77200000000001
 20
203.42299999999989
 30
0.0
 11
76.423000000000002
 21
203.42299999999989
 31
0.0
  0
LINE
  5
FD
  8
0
 62
     7
 10
118.2329999999999
 20
210.923
 30
0.0
 11
91.193600000000004
 21
210.923
 31
0.0
  0
LINE
  5
FE
  8
0
 62
     7
 10
82.364800000000002
 20
216.87599999999989
 30
0.0
 11
75.754499999999993
 21
216.87599999999989
 31
0.0
  0
LINE
  5
FF
  8
0
 62
     7
 10
76.209800000000001
 20
183.0259999999999
 30
0.0
 11
69.199100000000001
 21
183.0259999999999
 31
0.0
  0
LINE
  5
100
  8
0
 62
     7
 10
65.521100000000004
 20
205.80500000000001
 30
0.0
 11
63.539299999999997
 21
204.66099999999989
 31
0.0
  0
LINE
  5
101
  8
0
 62
     7
 10
63.539299999999997
 20
204.66099999999989
 30
0.0
 11
64.683499999999995
 21
206.64299999999989
 31
0.0
  0
LINE
  5
102
  8
0
 62
     7
 10
64.683499999999995
 20
206.64299999999989
 30
0.0
 11
65.521100000000004
 21
205.80500000000001
 31
0.0
  0
LINE
  5
103
  8
0
 62
     7
 10
59.082700000000003
 20
201.04199999999989
 30
0.0
 11
61.064500000000002
 21
202.18599999999989
 31
0.0
  0
LINE
  5
104
  8
0
 62
     7
 10
61.064500000000002
 20
202.18599999999989
 30
0.0
 11
59.920400000000001
 21
200.20400000000001
 31
0.0
  0
LINE
  5
105
  8
0
 62
     7
 10
59.920400000000001
 20
200.20400000000001
 30
0.0
 11
59.082700000000003
 21
201.04199999999989
 31
0.0
  0
LINE
  5
106
  8
0
 62
     7
 10
58.336500000000001
 20
199.45699999999991
 30
0.0
 11
75.754499999999993
 21
216.87599999999989
 31
0.0
  0
LINE
  5
107
  8
0
 62
     7
 10
65.9101
 20
187.15199999999999
 30
0.0
 11
63.9283
 21
188.297
 31
0.0
  0
LINE
  5
108
  8
0
 62
     7
 10
63.9283
 20
188.297
 30
0.0
 11
65.072400000000002
 21
186.315
 31
0.0
  0
LINE
  5
109
  8
0
 62
     7
 10
65.072400000000002
 20
186.315
 30
0.0
 11
65.9101
 21
187.15199999999999
 31
0.0
  0
LINE
  5
10A
  8
0
 62
     7
 10
58.693800000000003
 20
192.69399999999999
 30
0.0
 11
60.675600000000003
 21
191.55000000000001
 31
0.0
  0
LINE
  5
10B
  8
0
 62
     7
 10
60.675600000000003
 20
191.55000000000001
 30
0.0
 11
59.531500000000001
 21
193.53200000000001
 31
0.0
  0
LINE
  5
10C
  8
0
 62
     7
 10
59.531500000000001
 20
193.53200000000001
 30
0.0
 11
58.693800000000003
 21
192.69399999999999
 31
0.0
  0
LINE
  5
10D
  8
0
 62
     7
 10
57.043599999999998
 20
195.18199999999999
 30
0.0
 11
69.199100000000001
 21
183.0259999999999
 31
0.0
  0
LINE
  5
10E
  8
0
 62
     7
 10
29.5123
 20
144.88199999999989
 30
0.0
 11
27.3019
 21
144.28999999999991
 31
0.0
  0
LINE
  5
10F
  8
0
 62
     7
 10
27.3019
 20
144.28999999999991
 30
0.0
 11
29.5123
 21
143.69799999999989
 31
0.0
  0
LINE
  5
110
  8
0
 62
     7
 10
29.5123
 20
143.69799999999989
 30
0.0
 11
29.5123
 21
144.88199999999989
 31
0.0
  0
LINE
  5
111
  8
0
 62
     7
 10
95.091300000000004
 20
143.71199999999999
 30
0.0
 11
97.301700000000011
 21
144.30500000000001
 31
0.0
  0
LINE
  5
112
  8
0
 62
     7
 10
97.301700000000011
 20
144.30500000000001
 30
0.0
 11
95.091300000000004
 21
144.89699999999999
 31
0.0
  0
LINE
  5
113
  8
0
 62
     7
 10
95.091300000000004
 20
144.89699999999999
 30
0.0
 11
95.091300000000004
 21
143.71199999999999
 31
0.0
  0
LINE
  5
114
  8
0
 62
     7
 10
27.3017
 20
144.297
 30
0.0
 11
97.3018
 21
144.297
 31
0.0
  0
LINE
  5
115
  8
0
 62
     7
 10
97.302499999999995
 20
143.78200000000001
 30
0.0
 11
97.302499999999995
 21
170.44799999999989
 31
0.0
  0
LINE
  5
116
  8
0
 62
     7
 10
27.3017
 20
143.78200000000001
 30
0.0
 11
27.3017
 21
170.44799999999989
 31
0.0
  0
LINE
  5
117
  8
0
 62
     7
 10
37.0124
 20
152.334
 30
0.0
 11
34.802100000000003
 21
151.74100000000001
 31
0.0
  0
LINE
  5
118
  8
0
 62
     7
 10
34.802100000000003
 20
151.74100000000001
 30
0.0
 11
37.0124
 21
151.15000000000001
 31
0.0
  0
LINE
  5
119
  8
0
 62
     7
 10
37.0124
 20
151.15000000000001
 30
0.0
 11
37.0124
 21
152.334
 31
0.0
  0
LINE
  5
11A
  8
0
 62
     7
 10
87.591200000000015
 20
151.1639999999999
 30
0.0
 11
89.801599999999993
 21
151.756
 31
0.0
  0
LINE
  5
11B
  8
0
 62
     7
 10
89.801599999999993
 20
151.756
 30
0.0
 11
87.591200000000015
 21
152.3479999999999
 31
0.0
  0
LINE
  5
11C
  8
0
 62
     7
 10
87.591200000000015
 20
152.3479999999999
 30
0.0
 11
87.591200000000015
 21
151.1639999999999
 31
0.0
  0
LINE
  5
11D
  8
0
 62
     7
 10
34.801900000000003
 20
151.749
 30
0.0
 11
89.8018
 21
151.749
 31
0.0
  0
LINE
  5
11E
  8
0
 62
     7
 10
89.802499999999995
 20
151.23400000000001
 30
0.0
 11
89.802499999999995
 21
174.5
 31
0.0
  0
LINE
  5
11F
  8
0
 62
     7
 10
34.801900000000003
 20
151.23400000000001
 30
0.0
 11
34.801900000000003
 21
174.5
 31
0.0
  0
LINE
  5
120
  8
0
  6
AIGENLINE001
 62
     7
 10
67.829499999999996
 20
189.923
 30
0.0
 11
56.884900000000002
 21
189.923
 31
0.0
  0
LINE
  5
121
  8
0
  6
AIGENLINE001
 62
     7
 10
75.426400000000001
 20
203.42299999999989
 30
0.0
 11
49.378500000000003
 21
203.42299999999989
 31
0.0
  0
LINE
  5
122
  8
0
 62
     7
 10
89.509699999999995
 20
175.62999999999991
 30
0.0
 11
82.595299999999995
 21
168.71599999999989
 31
0.0
  0
ARC
  5
123
  8
0
 62
     7
 10
81.882949999999994
 20
169.43564900000001
 30
0.0
 40
1.0128360000000001
 50
270.28712299999989
 51
314.69476500000002
  0
LINE
  5
124
  8
0
 62
     7
 10
89.802499999999995
 20
176.33699999999999
 30
0.0
 11
89.802499999999995
 21
189.96599999999989
 31
0.0
  0
ARC
  5
125
  8
0
 62
     7
 10
88.788944999999984
 20
176.342669
 30
0.0
 40
1.0135629999999991
 50
315.32201199999997
 51
359.69611999999989
  0
LINE
  5
126
  8
0
 62
     7
 10
82.584299999999999
 20
196.67899999999989
 30
0.0
 11
89.457300000000004
 21
190.72200000000001
 31
0.0
  0
ARC
  5
127
  8
0
 62
     7
 10
88.788331999999997
 20
189.95976599999989
 30
0.0
 40
1.014181999999999
 50
0.362232
 51
48.730131000000007
  0
ARC
  5
128
  8
0
 62
     7
 10
81.925524999999993
 20
195.91390100000001
 30
0.0
 40
1.0093529999999999
 50
49.257995000000001
 51
89.781912000000005
  0
LINE
  5
129
  8
0
 62
     7
 10
97.009699999999995
 20
203.21599999999989
 30
0.0
 11
89.595099999999988
 21
210.63
 31
0.0
  0
ARC
  5
12A
  8
0
 62
     7
 10
88.882908
 20
209.91075799999999
 30
0.0
 40
1.012426
 50
45.295608000000001
 51
89.702768000000006
  0
LINE
  5
12B
  8
0
 62
     7
 10
97.302499999999995
 20
173.33699999999999
 30
0.0
 11
97.302499999999995
 21
202.50899999999999
 31
0.0
  0
ARC
  5
12C
  8
0
 62
     7
 10
96.290243000000004
 20
202.5039699999999
 30
0.0
 40
1.012281999999999
 50
0.274312
 51
44.70755599999999
  0
LINE
  5
12D
  8
0
 62
     7
 10
85.595299999999995
 20
161.21600000000001
 30
0.0
 11
97.009699999999995
 21
172.62999999999991
 31
0.0
  0
ARC
  5
12E
  8
0
 62
     7
 10
96.290413000000001
 20
173.34206199999991
 30
0.0
 40
1.0121119999999999
 50
315.28850699999992
 51
359.72962499999988
  0
ARC
  5
12F
  8
0
 62
     7
 10
84.882959
 20
161.93562899999989
 30
0.0
 40
1.0128360000000001
 50
270.28712299999989
 51
314.69476500000002
  0
LINE
  5
130
  8
0
 62
     7
 10
95.209599999999995
 20
173.37599999999989
 30
0.0
 11
84.849800000000002
 21
163.01599999999999
 31
0.0
  0
ARC
  5
131
  8
0
 62
     7
 10
84.137434999999996
 20
163.73570299999989
 30
0.0
 40
1.0128360000000001
 50
270.28712299999989
 51
314.69476500000002
  0
LINE
  5
132
  8
0
 62
     7
 10
95.502399999999994
 20
174.083
 30
0.0
 11
95.502399999999994
 21
201.76300000000001
 31
0.0
  0
ARC
  5
133
  8
0
 62
     7
 10
94.488382000000001
 20
174.08839499999991
 30
0.0
 40
1.014073
 50
315.33376600000003
 51
359.68436600000001
  0
LINE
  5
134
  8
0
 62
     7
 10
95.209599999999995
 20
202.47099999999989
 30
0.0
 11
88.849599999999995
 21
208.83000000000001
 31
0.0
  0
ARC
  5
135
  8
0
 62
     7
 10
94.490168999999995
 20
201.75844599999999
 30
0.0
 40
1.012281999999999
 50
0.274312
 51
44.70755599999999
  0
ARC
  5
136
  8
0
 62
     7
 10
88.137383999999997
 20
208.11068399999999
 30
0.0
 40
1.012426
 50
45.295608000000001
 51
89.702768000000006
  0
ARC
  5
137
  8
0
 62
     7
 10
62.302017000000014
 20
189.923113
 30
0.0
 40
3.7500110000000002
 50
0.00001
 51
89.999980000000008
  0
ARC
  5
138
  8
0
 62
     7
 10
62.302017999999997
 20
189.923113
 30
0.0
 40
3.7500110000000002
 50
90.0
 51
179.99996999999991
  0
ARC
  5
139
  8
0
 62
     7
 10
62.302017000000014
 20
189.923113
 30
0.0
 40
3.750008999999999
 50
179.99996999999991
 51
270.00002000000001
  0
ARC
  5
13A
  8
0
 62
     7
 10
62.302017000000014
 20
189.92311399999991
 30
0.0
 40
3.7500110000000002
 50
270.00002000000001
 51
359.99998999999991
  0
ARC
  5
13B
  8
0
 62
     7
 10
62.302017000000014
 20
189.923113
 30
0.0
 40
2.2999610000000001
 50
0.00001
 51
89.999980000000008
  0
ARC
  5
13C
  8
0
 62
     7
 10
62.301931999999987
 20
189.92302699999991
 30
0.0
 40
2.3000470000000002
 50
89.997854000000004
 51
179.99782500000001
  0
ARC
  5
13D
  8
0
 62
     7
 10
62.30193100000001
 20
189.92319900000001
 30
0.0
 40
2.300046
 50
180.0021549999999
 51
270.00216499999999
  0
ARC
  5
13E
  8
0
 62
     7
 10
62.302017000000014
 20
189.92311399999991
 30
0.0
 40
2.2999610000000001
 50
270.00002000000001
 51
359.99998999999991
  0
LINE
  5
13F
  8
0
 62
     7
 10
64.5124
 20
219.23799999999989
 30
0.0
 11
62.301999999999992
 21
218.6459999999999
 31
0.0
  0
LINE
  5
140
  8
0
 62
     7
 10
62.301999999999992
 20
218.6459999999999
 30
0.0
 11
64.5124
 21
218.054
 31
0.0
  0
LINE
  5
141
  8
0
 62
     7
 10
64.5124
 20
218.054
 30
0.0
 11
64.5124
 21
219.23799999999989
 31
0.0
  0
LINE
  5
142
  8
0
 62
     7
 10
54.5124
 20
219.23799999999989
 30
0.0
 11
52.301999999999992
 21
218.6459999999999
 31
0.0
  0
LINE
  5
143
  8
0
 62
     7
 10
52.301999999999992
 20
218.6459999999999
 30
0.0
 11
54.5124
 21
218.054
 31
0.0
  0
LINE
  5
144
  8
0
 62
     7
 10
54.5124
 20
218.054
 30
0.0
 11
54.5124
 21
219.23799999999989
 31
0.0
  0
LINE
  5
145
  8
0
 62
     7
 10
60.091500000000003
 20
218.0679999999999
 30
0.0
 11
62.301999999999992
 21
218.65999999999991
 31
0.0
  0
LINE
  5
146
  8
0
 62
     7
 10
62.301999999999992
 20
218.65999999999991
 30
0.0
 11
60.091500000000003
 21
219.25299999999999
 31
0.0
  0
LINE
  5
147
  8
0
 62
     7
 10
60.091500000000003
 20
219.25299999999999
 30
0.0
 11
60.091500000000003
 21
218.0679999999999
 31
0.0
  0
LINE
  5
148
  8
0
 62
     7
 10
70.091300000000004
 20
218.0679999999999
 30
0.0
 11
72.3018
 21
218.65999999999991
 31
0.0
  0
LINE
  5
149
  8
0
 62
     7
 10
72.3018
 20
218.65999999999991
 30
0.0
 11
70.091300000000004
 21
219.25299999999999
 31
0.0
  0
LINE
  5
14A
  8
0
 62
     7
 10
70.091300000000004
 20
219.25299999999999
 30
0.0
 11
70.091300000000004
 21
218.0679999999999
 31
0.0
  0
LINE
  5
14B
  8
0
 62
     7
 10
52.301900000000003
 20
218.65299999999991
 30
0.0
 11
72.301999999999992
 21
218.65299999999991
 31
0.0
  0
LINE
  5
14C
  8
0
 62
     7
 10
62.301999999999992
 20
212.8899999999999
 30
0.0
 11
62.301999999999992
 21
219.34099999999989
 31
0.0
  0
LINE
  5
14D
  8
0
 62
     7
 10
72.301999999999992
 20
207.12599999999989
 30
0.0
 11
72.301999999999992
 21
219.34099999999989
 31
0.0
  0
LINE
  5
14E
  8
0
  6
AIGENLINE001
 62
     7
 10
72.301999999999992
 20
206.46700000000001
 30
0.0
 11
72.301999999999992
 21
200.13
 31
0.0
  0
ARC
  5
14F
  8
0
  6
AIGENLINE002
 62
     7
 10
72.234754000000009
 20
203.35591700000001
 30
0.0
 40
1.818595999999999
 50
2.1186869999999991
 51
87.881303000000003
  0
ARC
  5
150
  8
0
  6
AIGENLINE002
 62
     7
 10
72.369612000000004
 20
203.355704
 30
0.0
 40
1.818822999999999
 50
92.130762000000004
 51
177.8748479999999
  0
ARC
  5
151
  8
0
  6
AIGENLINE002
 62
     7
 10
72.369385999999992
 20
203.49037000000001
 30
0.0
 40
1.818589
 50
182.118313
 51
267.87607700000001
  0
ARC
  5
152
  8
0
  6
AIGENLINE002
 62
     7
 10
72.234376999999995
 20
203.49075999999999
 30
0.0
 40
1.8189859999999991
 50
272.13012400000002
 51
357.86988500000001
  0
LINE
  5
153
  8
0
 62
     7
 10
52.301900000000003
 20
207.12599999999989
 30
0.0
 11
52.301900000000003
 21
219.34099999999989
 31
0.0
  0
LINE
  5
154
  8
0
  6
AIGENLINE001
 62
     7
 10
76.302099999999996
 20
212.5029999999999
 30
0.0
 11
76.302099999999996
 21
206.16599999999991
 31
0.0
  0
LINE
  5
155
  8
0
  6
AIGENLINE001
 62
     7
 10
48.301900000000003
 20
212.5029999999999
 30
0.0
 11
48.301900000000003
 21
206.16599999999991
 31
0.0
  0
LINE
  5
156
  8
0
  6
AIGENLINE001
 62
     7
 10
52.301900000000003
 20
206.46700000000001
 30
0.0
 11
52.301900000000003
 21
200.13
 31
0.0
  0
ARC
  5
157
  8
0
  6
AIGENLINE002
 62
     7
 10
52.234642999999991
 20
203.35591700000001
 30
0.0
 40
1.818595999999999
 50
2.1186869999999991
 51
87.881303000000003
  0
ARC
  5
158
  8
0
  6
AIGENLINE002
 62
     7
 10
52.369495000000001
 20
203.35570999999999
 30
0.0
 40
1.818816999999999
 50
92.130605000000003
 51
177.87500399999999
  0
ARC
  5
159
  8
0
  6
AIGENLINE002
 62
     7
 10
52.36927399999999
 20
203.49037000000001
 30
0.0
 40
1.818589
 50
182.118313
 51
267.87607700000001
  0
ARC
  5
15A
  8
0
  6
AIGENLINE002
 62
     7
 10
52.234260999999996
 20
203.49076500000001
 30
0.0
 40
1.8189919999999991
 50
272.13027999999991
 51
357.86972900000001
  0
ARC
  5
15B
  8
0
 62
     7
 10
62.234617999999998
 20
203.35592899999989
 30
0.0
 40
1.8185899999999999
 50
2.1183109999999998
 51
87.876039999999989
  0
ARC
  5
15C
  8
0
 62
     7
 10
62.369631999999989
 20
203.35553499999989
 30
0.0
 40
1.8189919999999991
 50
92.130261000000019
 51
177.86971
  0
ARC
  5
15D
  8
0
 62
     7
 10
62.369250000000001
 20
203.49038200000001
 30
0.0
 40
1.818595
 50
182.1186899999999
 51
267.88133999999991
  0
ARC
  5
15E
  8
0
 62
     7
 10
62.234397999999999
 20
203.49059099999991
 30
0.0
 40
1.818816999999999
 50
272.13062500000001
 51
357.875024
  0
LINE
  5
15F
  8
0
 62
     7
 10
42.716200000000001
 20
168.423
 30
0.0
 11
81.888000000000005
 21
168.423
 31
0.0
  0
LINE
  5
160
  8
0
 62
     7
 10
35.094700000000003
 20
175.62999999999991
 30
0.0
 11
42.009099999999989
 21
168.71599999999989
 31
0.0
  0
ARC
  5
161
  8
0
 62
     7
 10
42.721330999999999
 20
169.43540999999999
 30
0.0
 40
1.0125969999999991
 50
225.29965499999989
 51
269.70863100000003
  0
LINE
  5
162
  8
0
 62
     7
 10
34.801900000000003
 20
176.33699999999999
 30
0.0
 11
34.801900000000003
 21
189.96599999999989
 31
0.0
  0
ARC
  5
163
  8
0
 62
     7
 10
35.815204999999992
 20
176.34257400000001
 30
0.0
 40
1.013333
 50
180.29859799999991
 51
224.68330999999989
  0
LINE
  5
164
  8
0
 62
     7
 10
42.0199
 20
196.67899999999989
 30
0.0
 11
35.146900000000002
 21
190.72200000000001
 31
0.0
  0
ARC
  5
165
  8
0
 62
     7
 10
35.814137999999993
 20
189.96079
 30
0.0
 40
1.012267
 50
131.234193
 51
179.6950139999999
  0
LINE
  5
166
  8
0
 62
     7
 10
42.674799999999991
 20
196.92299999999989
 30
0.0
 11
81.929400000000001
 21
196.92299999999989
 31
0.0
  0
ARC
  5
167
  8
0
 62
     7
 10
42.679071
 20
195.912857
 30
0.0
 40
1.010399
 50
90.239947000000015
 51
130.72010599999999
  0
LINE
  5
168
  8
0
 62
     7
 10
35.716000000000001
 20
210.923
 30
0.0
 11
88.888199999999998
 21
210.923
 31
0.0
  0
LINE
  5
169
  8
0
 62
     7
 10
27.5947
 20
203.21599999999989
 30
0.0
 11
35.008899999999997
 21
210.63
 31
0.0
  0
ARC
  5
16A
  8
0
 62
     7
 10
35.721761999999991
 20
209.909223
 30
0.0
 40
1.0139629999999991
 50
90.322874999999996
 51
134.6688399999999
  0
LINE
  5
16B
  8
0
 62
     7
 10
27.3017
 20
173.33699999999999
 30
0.0
 11
27.3017
 21
202.50899999999999
 31
0.0
  0
ARC
  5
16C
  8
0
 62
     7
 10
28.315401999999999
 20
202.503198
 30
0.0
 40
1.0137249999999991
 50
135.31179099999989
 51
179.682479
  0
LINE
  5
16D
  8
0
 62
     7
 10
39.008899999999997
 20
161.21600000000001
 30
0.0
 11
27.5947
 21
172.62999999999991
 31
0.0
  0
ARC
  5
16E
  8
0
 62
     7
 10
28.314596000000002
 20
173.34256899999991
 30
0.0
 40
1.0129170000000001
 50
180.2988949999999
 51
224.7068359999999
  0
LINE
  5
16F
  8
0
 62
     7
 10
39.716000000000001
 20
160.923
 30
0.0
 11
84.887999999999991
 21
160.923
 31
0.0
  0
ARC
  5
170
  8
0
 62
     7
 10
39.721556
 20
161.93636799999999
 30
0.0
 40
1.0135780000000001
 50
225.32228499999999
 51
269.68599999999998
  0
LINE
  5
171
  8
0
 62
     7
 10
40.4617
 20
162.7229999999999
 30
0.0
 11
84.142499999999998
 21
162.7229999999999
 31
0.0
  0
LINE
  5
172
  8
0
 62
     7
 10
29.394600000000001
 20
173.37599999999989
 30
0.0
 11
39.754600000000003
 21
163.01599999999999
 31
0.0
  0
ARC
  5
173
  8
0
 62
     7
 10
40.466845999999997
 20
163.7354629999999
 30
0.0
 40
1.0125969999999991
 50
225.29965499999989
 51
269.70863100000003
  0
LINE
  5
174
  8
0
 62
     7
 10
29.101800000000001
 20
174.083
 30
0.0
 11
29.101800000000001
 21
201.76300000000001
 31
0.0
  0
ARC
  5
175
  8
0
 62
     7
 10
30.115085999999991
 20
174.08808999999999
 30
0.0
 40
1.013333
 50
180.29859799999991
 51
224.68330999999989
  0
LINE
  5
176
  8
0
 62
     7
 10
29.394600000000001
 20
202.47099999999989
 30
0.0
 11
35.7545
 21
208.83000000000001
 31
0.0
  0
ARC
  5
177
  8
0
 62
     7
 10
30.115636999999989
 20
201.75778399999999
 30
0.0
 40
1.0138849999999999
 50
135.32940400000001
 51
179.6886879999999
  0
LINE
  5
178
  8
0
 62
     7
 10
36.461599999999997
 20
209.12299999999991
 30
0.0
 11
88.142600000000002
 21
209.12299999999991
 31
0.0
  0
ARC
  5
179
  8
0
 62
     7
 10
36.467290999999989
 20
208.10913600000001
 30
0.0
 40
1.0139769999999999
 50
90.323193000000018
 51
134.66852099999991
  0
LINE
  5
17A
  8
0
  6
AIGENLINE001
 62
     7
 10
62.301999999999992
 20
158.35299999999989
 30
0.0
 11
62.301999999999992
 21
212.28700000000001
 31
0.0
  0
LINE
  5
17B
  8
_________2
 62
     7
 10
205.30099999999999
 20
127.411
 30
0.0
 11
183.55000000000001
 21
127.411
 31
0.0
  0
LINE
  5
17C
  8
_________2
 62
     7
 10
100.2999999999999
 20
-4.0910799999999998
 30
0.0
 11
100.2999999999999
 21
-21.071400000000001
 31
0.0
  0
LINE
  5
17D
  8
_________2
 62
     7
 10
100.2999999999999
 20
275.93099999999993
 30
0.0
 11
100.2999999999999
 21
258.911
 31
0.0
  0
LINE
  5
17E
  8
_________2
 62
     7
 10
17.049499999999998
 20
127.411
 30
0.0
 11
-4.70052
 21
127.411
 31
0.0
  0
LINE
  5
17F
  8
_________2
 62
     7
 10
76.741
 20
29.8047
 30
0.0
 11
74.554699999999997
 21
29.8047
 31
0.0
  0
LINE
  5
180
  8
_________2
 62
     7
 10
77.233699999999999
 20
29.8047
 30
0.0
 11
76.981499999999997
 21
29.8047
 31
0.0
  0
LINE
  5
181
  8
_________2
 62
     7
 10
77.726299999999995
 20
29.8047
 30
0.0
 11
80.651200000000003
 21
29.8047
 31
0.0
  0
LINE
  5
182
  8
_________2
 62
     7
 10
77.233699999999999
 20
29.8047
 30
0.0
 11
77.485500000000002
 21
29.8047
 31
0.0
  0
LINE
  5
183
  8
_________2
 62
     7
 10
70.837100000000007
 20
29.8047
 30
0.0
 11
68.650499999999994
 21
29.8047
 31
0.0
  0
LINE
  5
184
  8
_________2
 62
     7
 10
71.329400000000007
 20
29.8047
 30
0.0
 11
71.077600000000004
 21
29.8047
 31
0.0
  0
LINE
  5
185
  8
_________2
 62
     7
 10
71.329400000000007
 20
30.2974
 30
0.0
 11
71.329400000000007
 21
32.484400000000001
 31
0.0
  0
LINE
  5
186
  8
_________2
 62
     7
 10
71.329400000000007
 20
29.8047
 30
0.0
 11
71.329400000000007
 21
30.056899999999992
 31
0.0
  0
LINE
  5
187
  8
_________2
 62
     7
 10
71.822100000000006
 20
29.8047
 30
0.0
 11
74.009
 21
29.8047
 31
0.0
  0
LINE
  5
188
  8
_________2
 62
     7
 10
71.329400000000007
 20
29.8047
 30
0.0
 11
71.581599999999995
 21
29.8047
 31
0.0
  0
LINE
  5
189
  8
_________2
 62
     7
 10
71.329400000000007
 20
29.312799999999999
 30
0.0
 11
71.329400000000007
 21
27.125800000000002
 31
0.0
  0
LINE
  5
18A
  8
_________2
 62
     7
 10
71.329400000000007
 20
29.8047
 30
0.0
 11
71.329400000000007
 21
29.5532
 31
0.0
  0
LINE
  5
18B
  8
_________2
 62
     7
 10
75.040499999999994
 20
28.5852
 30
0.0
 11
80.218500000000006
 21
27.720400000000001
 31
0.0
  0
LINE
  5
18C
  8
_________2
 62
     7
 10
75.040499999999994
 20
31.0243
 30
0.0
 11
80.218500000000006
 21
31.889700000000001
 31
0.0
  0
LINE
  5
18D
  8
_________2
 62
     7
 10
80.218500000000006
 20
27.720400000000001
 30
0.0
 11
80.218500000000006
 21
31.889700000000001
 31
0.0
  0
LINE
  5
18E
  8
_________2
 62
     7
 10
75.040499999999994
 20
28.5852
 30
0.0
 11
75.040499999999994
 21
31.0243
 31
0.0
  0
ARC
  5
18F
  8
_________2
 62
     7
 10
71.28285600000001
 20
29.757811
 30
0.0
 40
1.2673589999999999
 50
2.122214
 51
87.893958999999995
  0
ARC
  5
190
  8
_________2
 62
     7
 10
71.375959999999992
 20
29.758213000000001
 30
0.0
 40
1.2669559999999991
 50
92.104701000000006
 51
177.8952689999999
  0
ARC
  5
191
  8
_________2
 62
     7
 10
71.376357999999996
 20
29.851671
 30
0.0
 40
1.2673680000000001
 50
182.12203600000001
 51
267.877993
  0
ARC
  5
192
  8
_________2
 62
     7
 10
71.282531999999989
 20
29.851998999999989
 30
0.0
 40
1.267695999999999
 50
272.12015300000002
 51
357.863674
  0
ARC
  5
193
  8
_________2
 62
     7
 10
71.329430000000002
 20
29.804742999999998
 30
0.0
 40
2.0849849999999992
 50
0.00001
 51
89.999980000000008
  0
ARC
  5
194
  8
_________2
 62
     7
 10
71.329603000000006
 20
29.804915000000001
 30
0.0
 40
2.084813
 50
90.004733999999999
 51
180.00474399999999
  0
ARC
  5
195
  8
_________2
 62
     7
 10
71.409106000000008
 20
29.884775999999999
 30
0.0
 40
2.1657950000000001
 50
182.11776599999999
 51
267.89173399999999
  0
ARC
  5
196
  8
_________2
 62
     7
 10
71.249459000000002
 20
29.885429999999989
 30
0.0
 40
2.1664590000000001
 50
272.11546800000002
 51
357.86560400000002
  0
TEXT
  5
197
  8
_________2
 62
     7
 10
104.605
 20
1.6794899999999999
 30
0.0
 40
3.0923400000000001
  1
図番
 41
0.5
  0
LINE
  5
198
  8
_________2
 62
     7
 10
103.55
 20
5.9087199999999989
 30
0.0
 11
183.55099999999999
 21
5.9087199999999989
 31
0.0
  0
TEXT
  5
199
  8
_________2
 62
     7
 10
104.605
 20
11.679299999999991
 30
0.0
 40
3.0923400000000001
  1
品番
 41
0.5
  0
TEXT
  5
19A
  8
_________2
 62
     7
 10
104.605
 20
31.818100000000001
 30
0.0
 40
3.0923400000000001
  1
名称
 41
0.5
  0
TEXT
  5
19B
  8
_________2
 62
     7
 10
91.845058333333341
 20
26.821999999999989
 30
0.0
 40
3.6545800000000002
  1
mm
 41
0.5
 72
     1
 11
93.367800000000003
 21
26.821999999999989
 31
0.0
  0
TEXT
  5
19C
  8
_________2
 62
     7
 10
85.643199999999993
 20
31.818100000000001
 30
0.0
 40
3.0923400000000001
  1
単位
 41
0.5
  0
TEXT
  5
19D
  8
_________2
 62
     7
 10
85.643199999999993
 20
19.410799999999991
 30
0.0
 40
3.0923400000000001
  1
尺度
 41
0.5
  0
TEXT
  5
19E
  8
_________2
 62
     7
 10
90.09193616666667
 20
13.2179
 30
0.0
 40
3.6545800000000002
  1
1 ： 10
 41
0.5
 72
     1
 11
93.959699999999998
 21
13.2179
 31
0.0
  0
TEXT
  5
19F
  8
_________2
 62
     7
 10
133.38277500000001
 20
9.1078600000000005
 30
0.0
 40
3.9357000000000002
  1
DV043870-00
 41
0.5
 72
     1
 11
143.55000000000001
 21
9.1078600000000005
 31
0.0
  0
TEXT
  5
1A0
  8
_________2
 62
     7
 10
136.00657499999991
 20
-0.8926299999999999
 30
0.0
 40
3.9357000000000002
  1
DV043870
 41
0.5
 72
     1
 11
143.55000000000001
 21
-0.8926299999999999
 31
0.0
  0
TEXT
  5
1A1
  8
_________2
 62
     7
 10
24.5868
 20
0.707283
 30
0.0
 40
3.9357000000000002
  1
実容量12.9L・オーバーフロー付・重量23kg
 41
0.5
  0
TEXT
  5
1A2
  8
_________2
 62
     7
 10
109.179
 20
24.2257
 30
0.0
 40
3.9357000000000002
  1
1930　壁掛式洗面器
 41
0.5
  0
TEXT
  5
1A3
  8
_________2
 62
     7
 10
39.364390666666658
 20
13.603
 30
0.0
 40
3.6545800000000002
  1
高橋
 41
0.5
 72
     1
 11
41.313499999999998
 21
13.603
 31
0.0
  0
TEXT
  5
1A4
  8
_________2
 62
     7
 10
20.790090666666661
 20
13.603
 30
0.0
 40
3.6545800000000002
  1
石原
 41
0.5
 72
     1
 11
22.73919999999999
 21
13.603
 31
0.0
  0
TEXT
  5
1A5
  8
_________2
 62
     7
 10
67.785399999999996
 20
13.2179
 30
0.0
 40
3.6545800000000002
  1
06.01.23
 41
0.5
  0
TEXT
  5
1A6
  8
_________2
 62
     7
 10
66.593100000000007
 20
19.410799999999991
 30
0.0
 40
3.0923400000000001
  1
日付
 41
0.5
  0
TEXT
  5
1A7
  8
_________2
 62
     7
 10
29.639399999999998
 20
19.410799999999991
 30
0.0
 40
3.0923400000000001
  1
検図
 41
0.5
  0
TEXT
  5
1A8
  8
_________2
 62
     7
 10
18.021100000000001
 20
5.21143
 30
0.0
 40
3.0923400000000001
  1
備考
 41
0.5
  0
TEXT
  5
1A9
  8
_________2
 62
     7
 10
18.021100000000001
 20
19.410799999999991
 30
0.0
 40
3.0923400000000001
  1
製図
 41
0.5
  0
TEXT
  5
1AA
  8
_________2
 62
     7
 10
23.788465333333338
 20
27.936800000000002
 30
0.0
 40
4.4979399999999989
  1
セラトレーディング株式会社
 41
0.5
 72
     1
 11
41.180500000000002
 21
27.936800000000002
 31
0.0
  0
LINE
  5
1AB
  8
_________2
 62
     7
 10
183.55099999999999
 20
-4.0910799999999998
 30
0.0
 11
17.049499999999998
 21
-4.0910799999999998
 31
0.0
  0
LINE
  5
1AC
  8
_________2
 62
     7
 10
17.049499999999998
 20
-4.0910799999999998
 30
0.0
 11
17.049499999999998
 21
258.911
 31
0.0
  0
LINE
  5
1AD
  8
_________2
 62
     7
 10
17.049499999999998
 20
258.911
 30
0.0
 11
183.55099999999999
 21
258.911
 31
0.0
  0
LINE
  5
1AE
  8
_________2
 62
     7
 10
183.55099999999999
 20
258.911
 30
0.0
 11
183.55099999999999
 21
-4.0910799999999998
 31
0.0
  0
LINE
  5
1AF
  8
_________2
 62
     7
 10
65.549599999999998
 20
9.4089600000000004
 30
0.0
 11
65.549599999999998
 21
35.908799999999999
 31
0.0
  0
LINE
  5
1B0
  8
_________2
 62
     7
 10
84.549700000000016
 20
9.4089600000000004
 30
0.0
 11
84.549700000000016
 21
35.908799999999999
 31
0.0
  0
LINE
  5
1B1
  8
_________2
 62
     7
 10
103.55
 20
-4.0910799999999998
 30
0.0
 11
103.55
 21
35.908799999999999
 31
0.0
  0
LINE
  5
1B2
  8
_________2
 62
     7
 10
28.549299999999992
 20
9.4089600000000004
 30
0.0
 11
28.549299999999992
 21
23.409199999999998
 31
0.0
  0
LINE
  5
1B3
  8
_________2
 62
     7
 10
17.049499999999998
 20
9.4089600000000004
 30
0.0
 11
103.55
 21
9.4089600000000004
 31
0.0
  0
LINE
  5
1B4
  8
_________2
 62
     7
 10
17.049499999999998
 20
23.409199999999998
 30
0.0
 11
103.55
 21
23.409199999999998
 31
0.0
  0
LINE
  5
1B5
  8
_________2
 62
     7
 10
103.55
 20
15.9085
 30
0.0
 11
183.55099999999999
 21
15.9085
 31
0.0
  0
LINE
  5
1B6
  8
_________2
 62
     7
 10
17.049499999999998
 20
35.908799999999999
 30
0.0
 11
183.55099999999999
 21
35.908799999999999
 31
0.0
  0
ENDSEC
  0
EOF
