  0
SECTION
  2
HEADER
  9
$ACADVER
  1
AC1009
  9
$INSBASE
 10
0.0
 20
0.0
 30
0.0
  9
$EXTMIN
 10
-4.7010300000000003
 20
-21.071000000000002
 30
0.0
  9
$EXTMAX
 10
205.30099999999999
 20
275.93099999999998
 30
0.0
  9
$LIMMIN
 10
0.0
 20
0.0
  9
$LIMMAX
 10
12.0
 20
9.0
  9
$ORTHOMODE
 70
     0
  9
$REGENMODE
 70
     1
  9
$FILLMODE
 70
     1
  9
$QTEXTMODE
 70
     0
  9
$MIRRTEXT
 70
     1
  9
$DRAGMODE
 70
     2
  9
$LTSCALE
 40
1.0
  9
$OSMODE
 70
    37
  9
$ATTMODE
 70
     1
  9
$TEXTSIZE
 40
0.0
  9
$TRACEWID
 40
0.05
  9
$TEXTSTYLE
  7
STANDARD
  9
$CLAYER
  8
0
  9
$CELTYPE
  6
CONTINUOUS
  9
$CECOLOR
 62
   256
  9
$DIMSCALE
 40
1.0
  9
$DIMASZ
 40
0.18
  9
$DIMEXO
 40
0.0625
  9
$DIMDLI
 40
0.38
  9
$DIMRND
 40
0.0
  9
$DIMDLE
 40
0.0
  9
$DIMEXE
 40
0.18
  9
$DIMTP
 40
0.0
  9
$DIMTM
 40
0.0
  9
$DIMTXT
 40
0.18
  9
$DIMCEN
 40
0.09
  9
$DIMTSZ
 40
0.0
  9
$DIMTOL
 70
     0
  9
$DIMLIM
 70
     0
  9
$DIMTIH
 70
     1
  9
$DIMTOH
 70
     1
  9
$DIMSE1
 70
     0
  9
$DIMSE2
 70
     0
  9
$DIMTAD
 70
     0
  9
$DIMZIN
 70
     0
  9
$DIMBLK
  1

  9
$DIMASO
 70
     1
  9
$DIMSHO
 70
     1
  9
$DIMPOST
  1

  9
$DIMAPOST
  1

  9
$DIMALT
 70
     0
  9
$DIMALTD
 70
     2
  9
$DIMALTF
 40
25.399999999999999
  9
$DIMLFAC
 40
1.0
  9
$DIMTOFL
 70
     0
  9
$DIMTVP
 40
0.0
  9
$DIMTIX
 70
     0
  9
$DIMSOXD
 70
     0
  9
$DIMSAH
 70
     0
  9
$DIMBLK1
  1

  9
$DIMBLK2
  1

  9
$DIMSTYLE
  2
STANDARD
  9
$DIMCLRD
 70
     0
  9
$DIMCLRE
 70
     0
  9
$DIMCLRT
 70
     0
  9
$DIMTFAC
 40
1.0
  9
$DIMGAP
 40
0.09
  9
$LUNITS
 70
     2
  9
$LUPREC
 70
     4
  9
$SKETCHINC
 40
0.1
  9
$FILLETRAD
 40
0.0
  9
$AUNITS
 70
     0
  9
$AUPREC
 70
     0
  9
$MENU
  1
.
  9
$ELEVATION
 40
0.0
  9
$PELEVATION
 40
0.0
  9
$THICKNESS
 40
0.0
  9
$LIMCHECK
 70
     0
  9
$BLIPMODE
 70
     0
  9
$CHAMFERA
 40
0.0
  9
$CHAMFERB
 40
0.0
  9
$SKPOLY
 70
     0
  9
$TDCREATE
 40
2444972.375
  9
$TDUPDATE
 40
2457436.2518386459
  9
$TDINDWG
 40
0.0000276852
  9
$TDUSRTIMER
 40
0.0000276852
  9
$USRTIMER
 70
     1
  9
$ANGBASE
 50
0.0
  9
$ANGDIR
 70
     0
  9
$PDMODE
 70
     0
  9
$PDSIZE
 40
0.0
  9
$PLINEWID
 40
0.0
  9
$COORDS
 70
     1
  9
$SPLFRAME
 70
     0
  9
$SPLINETYPE
 70
     6
  9
$SPLINESEGS
 70
     8
  9
$ATTDIA
 70
     1
  9
$ATTREQ
 70
     1
  9
$HANDLING
 70
     1
  9
$HANDSEED
  5
234
  9
$SURFTAB1
 70
     6
  9
$SURFTAB2
 70
     6
  9
$SURFTYPE
 70
     6
  9
$SURFU
 70
     6
  9
$SURFV
 70
     6
  9
$UCSNAME
  2

  9
$UCSORG
 10
0.0
 20
0.0
 30
0.0
  9
$UCSXDIR
 10
1.0
 20
0.0
 30
0.0
  9
$UCSYDIR
 10
0.0
 20
1.0
 30
0.0
  9
$PUCSNAME
  2

  9
$PUCSORG
 10
0.0
 20
0.0
 30
0.0
  9
$PUCSXDIR
 10
1.0
 20
0.0
 30
0.0
  9
$PUCSYDIR
 10
0.0
 20
1.0
 30
0.0
  9
$USERI1
 70
     0
  9
$USERI2
 70
     0
  9
$USERI3
 70
     0
  9
$USERI4
 70
     0
  9
$USERI5
 70
     0
  9
$USERR1
 40
0.0
  9
$USERR2
 40
0.0
  9
$USERR3
 40
0.0
  9
$USERR4
 40
0.0
  9
$USERR5
 40
0.0
  9
$WORLDVIEW
 70
     1
  9
$SHADEDGE
 70
     3
  9
$SHADEDIF
 70
    70
  9
$TILEMODE
 70
     1
  9
$MAXACTVP
 70
    48
  9
$PLIMCHECK
 70
     0
  9
$PEXTMIN
 10
1.0000000000000000E+020
 20
1.0000000000000000E+020
 30
1.0000000000000000E+020
  9
$PEXTMAX
 10
-1.0000000000000000E+020
 20
-1.0000000000000000E+020
 30
-1.0000000000000000E+020
  9
$PLIMMIN
 10
0.0
 20
0.0
  9
$PLIMMAX
 10
12.0
 20
9.0
  9
$UNITMODE
 70
     0
  9
$VISRETAIN
 70
     1
  9
$PLINEGEN
 70
     0
  9
$PSLTSCALE
 70
     1
  0
ENDSEC
  0
SECTION
  2
TABLES
  0
TABLE
  2
VPORT
 70
     1
  0
VPORT
  2
*ACTIVE
 70
     0
 10
0.0
 20
0.0
 11
1.0
 21
1.0
 12
165.7277138025147
 22
127.42999999999989
 13
0.0
 23
0.0
 14
1.0
 24
1.0
 15
0.0
 25
0.0
 16
0.0
 26
0.0
 36
1.0
 17
0.0
 27
0.0
 37
0.0
 40
283.528435666853
 41
2.1001926782273599
 42
50.0
 43
0.0
 44
0.0
 50
0.0
 51
0.0
 71
     0
 72
   100
 73
     1
 74
     1
 75
     0
 76
     0
 77
     0
 78
     0
  0
ENDTAB
  0
TABLE
  2
LTYPE
 70
     4
  0
LTYPE
  2
CONTINUOUS
 70
     0
  3
Solid line
 72
    65
 73
     0
 40
0.0
  0
LTYPE
  2
AIGENLINE001
 70
     0
  3
generate AI->DXF Converter
 72
    65
 73
     2
 40
1.5522299999999991
 49
0.776115
 49
-0.776115
  0
LTYPE
  2
AIGENLINE002
 70
     0
  3
generate AI->DXF Converter
 72
    65
 73
     4
 40
5.8561449999999988
 49
3.5278
 49
-0.776115
 49
0.776115
 49
-0.776115
  0
LTYPE
  2
AIGENLINE003
 70
     0
  3
generate AI->DXF Converter
 72
    65
 73
     6
 40
7.4083750000000004
 49
3.5278
 49
-0.776115
 49
0.776115
 49
-0.776115
 49
0.776115
 49
-0.776115
  0
ENDTAB
  0
TABLE
  2
LAYER
 70
     2
  0
LAYER
  2
0
 70
     0
 62
     7
  6
CONTINUOUS
  0
LAYER
  2
_________2
 70
     0
 62
     7
  6
CONTINUOUS
  0
ENDTAB
  0
TABLE
  2
STYLE
 70
     1
  0
STYLE
  2
STANDARD
 70
     0
 40
0.0
 41
0.0
 50
0.0
 71
     0
 42
0.0
  3
TXT
  4
EXTFONT.SHX
  0
ENDTAB
  0
TABLE
  2
VIEW
 70
     0
  0
ENDTAB
  0
TABLE
  2
UCS
 70
     0
  0
ENDTAB
  0
TABLE
  2
APPID
 70
     3
  0
APPID
  2
ACAD
 70
     0
  0
APPID
  2
ACAD_NAV_VCDISPLAY
 70
     0
  0
APPID
  2
ACAD_MLEADERVER
 70
     0
  0
ENDTAB
  0
TABLE
  2
DIMSTYLE
 70
     1
  0
DIMSTYLE
  2
STANDARD
 70
     0
  3

  4

  5

  6

  7

 40
1.0
 41
0.18
 42
0.0625
 43
0.38
 44
0.18
 45
0.0
 46
0.0
 47
0.0
 48
0.0
140
0.18
141
0.09
142
0.0
143
25.399999999999999
144
1.0
145
0.0
146
1.0
147
0.09
 71
     0
 72
     0
 73
     1
 74
     1
 75
     0
 76
     0
 77
     0
 78
     0
170
     0
171
     2
172
     0
173
     0
174
     0
175
     0
176
     0
177
     0
178
     0
  0
ENDTAB
  0
ENDSEC
  0
SECTION
  2
BLOCKS
  0
BLOCK
  8
0
  2
$MODEL_SPACE
 70
     0
 10
0.0
 20
0.0
 30
0.0
  3
$MODEL_SPACE
  1

  0
ENDBLK
  5
1A
  8
0
  0
BLOCK
 67
     1
  8
0
  2
$PAPER_SPACE
 70
     0
 10
0.0
 20
0.0
 30
0.0
  3
$PAPER_SPACE
  1

  0
ENDBLK
  5
17
 67
     1
  8
0
  0
ENDSEC
  0
SECTION
  2
ENTITIES
  0
TEXT
  5
24
  8
0
 62
     7
 10
36.311900000000001
 20
99.040524999999974
 30
0.0
 40
3.0923400000000001
  1
55
 50
90.0
 41
0.5
 72
     1
 11
36.311900000000001
 21
100.32899999999999
 31
0.0
  0
TEXT
  5
25
  8
0
 62
     7
 10
97.116
 20
163.833
 30
0.0
 40
3.0923400000000001
  1
15
 50
90.0
 41
0.5
  0
TEXT
  5
26
  8
0
 62
     7
 10
80.523199999999989
 20
191.92737249999999
 30
0.0
 40
3.0923400000000001
  1
50
 50
90.0
 41
0.5
 72
     1
 11
80.523199999999989
 21
193.08699999999999
 31
0.0
  0
TEXT
  5
27
  8
0
 62
     7
 10
80.523199999999989
 20
197.42737249999999
 30
0.0
 40
3.0923400000000001
  1
60
 50
90.0
 41
0.5
 72
     1
 11
80.523199999999989
 21
198.58699999999999
 31
0.0
  0
TEXT
  5
28
  8
0
 62
     7
 10
105.22
 20
183.65428750000001
 30
0.0
 40
3.0923400000000001
  1
320
 50
90.0
 41
0.5
 72
     1
 11
105.22
 21
185.58699999999999
 31
0.0
  0
TEXT
  5
29
  8
0
 62
     7
 10
97.116
 20
194.66967750000001
 30
0.0
 40
3.0923400000000001
  1
110
 50
90.0
 41
0.5
 72
     1
 11
97.116
 21
196.08699999999999
 31
0.0
  0
TEXT
  5
2A
  8
0
 62
     7
 10
144.20400000000001
 20
106.11044
 30
0.0
 40
3.0923400000000001
  1
15
 50
90.0
 41
0.5
 72
     2
 11
144.20400000000001
 21
108.172
 31
0.0
  0
TEXT
  5
2B
  8
0
 62
     7
 10
144.20400000000001
 20
96.040925000000001
 30
0.0
 40
3.0923400000000001
  1
85
 50
90.0
 41
0.5
 72
     1
 11
144.20400000000001
 21
97.329400000000007
 31
0.0
  0
TEXT
  5
2C
  8
0
 62
     7
 10
97.116
 20
94.025535000000005
 30
0.0
 40
3.0923400000000001
  1
145
 50
90.0
 41
0.5
 72
     1
 11
97.116
 21
95.829400000000007
 31
0.0
  0
TEXT
  5
2D
  8
0
 62
     7
 10
97.116
 20
179.03213500000001
 30
0.0
 40
3.0923400000000001
  1
195
 50
90.0
 41
0.5
 72
     1
 11
97.116
 21
180.83600000000001
 31
0.0
  0
TEXT
  5
2E
  8
0
 62
     7
 10
50.644300000000001
 20
205.72200000000001
 30
0.0
 40
3.0923400000000001
  1
%%c35
 41
0.5
  0
TEXT
  5
2F
  8
0
 62
     7
 10
73.171180000000007
 20
179.88
 30
0.0
 40
3.0923400000000001
  1
%%c46
 41
0.5
 72
     2
 11
77.294300000000007
 21
179.88
 31
0.0
  0
TEXT
  5
30
  8
0
 62
     7
 10
64.120887500000009
 20
119.491
 30
0.0
 40
3.0923400000000001
  1
450
 41
0.5
 72
     1
 11
66.053600000000003
 21
119.491
 31
0.0
  0
TEXT
  5
31
  8
0
 62
     7
 10
64.249735000000001
 20
113.05800000000001
 30
0.0
 40
3.0923400000000001
  1
200
 41
0.5
 72
     1
 11
66.053600000000003
 21
113.05800000000001
 31
0.0
  0
TEXT
  5
32
  8
0
 62
     7
 10
153.39298249999999
 20
81.138000000000005
 30
0.0
 40
3.0923400000000001
  1
170
 41
0.5
 72
     1
 11
155.06800000000001
 21
81.138000000000005
 31
0.0
  0
TEXT
  5
33
  8
0
 62
     7
 10
64.120887500000009
 20
152.5
 30
0.0
 40
3.0923400000000001
  1
450
 41
0.5
 72
     1
 11
66.053600000000003
 21
152.5
 31
0.0
  0
TEXT
  5
34
  8
0
 62
     7
 10
64.120887500000009
 20
160.96100000000001
 30
0.0
 40
3.0923400000000001
  1
420
 41
0.5
 72
     1
 11
66.053600000000003
 21
160.96100000000001
 31
0.0
  0
ARC
  5
35
  8
0
 62
     7
 10
145.22654700000001
 20
107.382423
 30
0.0
 40
16.811371000000001
 50
216.781803
 51
225.87021200000001
  0
ARC
  5
36
  8
0
 62
     7
 10
144.022042
 20
106.298428
 30
0.0
 40
15.195034
 50
226.28416200000001
 51
241.104682
  0
ARC
  5
37
  8
0
 62
     7
 10
145.436768
 20
108.659048
 30
0.0
 40
17.945644999999999
 50
240.79204500000009
 51
246.60618400000001
  0
ARC
  5
38
  8
0
 62
     7
 10
132.57679899999999
 20
97.910570000000007
 30
0.0
 40
1.0088090000000001
 50
180.17568800000001
 51
216.09219400000001
  0
ARC
  5
39
  8
0
 62
     7
 10
138.79349199999999
 20
93.057704000000001
 30
0.0
 40
0.993642
 50
240.84399199999999
 51
265.36326700000001
  0
ARC
  5
3A
  8
0
 62
     7
 10
151.26737499999999
 20
91.649564999999996
 30
0.0
 40
2.571054999999999
 50
271.13957199999999
 51
341.698984
  0
ARC
  5
3B
  8
0
  6
AIGENLINE001
 62
     7
 10
161.80823599999999
 20
121.316299
 30
0.0
 40
34.864820000000002
 50
215.09233900000001
 51
223.73616799999999
  0
ARC
  5
3C
  8
0
  6
AIGENLINE001
 62
     7
 10
153.965802
 20
113.971295
 30
0.0
 40
24.120806999999999
 50
224.00881799999999
 51
230.17298199999999
  0
ARC
  5
3D
  8
0
  6
AIGENLINE001
 62
     7
 10
148.85453100000001
 20
107.996771
 30
0.0
 40
16.259156999999998
 50
230.52130399999999
 51
236.740454
  0
ARC
  5
3E
  8
0
  6
AIGENLINE001
 62
     7
 10
146.170785
 20
104.01470999999999
 30
0.0
 40
11.457682999999999
 50
237.04170199999999
 51
243.370946
  0
ARC
  5
3F
  8
0
  6
AIGENLINE001
 62
     7
 10
144.733259
 20
101.215625
 30
0.0
 40
8.3112440000000003
 50
243.580917
 51
252.54377500000001
  0
ARC
  5
40
  8
0
  6
AIGENLINE001
 62
     7
 10
144.04521299999999
 20
99.176704999999984
 30
0.0
 40
6.1599890000000004
 50
252.959822
 51
261.81344200000001
  0
ARC
  5
41
  8
0
  6
AIGENLINE001
 62
     7
 10
132.66971899999999
 20
100.816886
 30
0.0
 40
0.7624220000000002
 50
36.712980999999999
 51
89.532147999999992
  0
ARC
  5
42
  8
0
  6
AIGENLINE001
 62
     7
 10
148.96838600000001
 20
96.127224999999996
 30
0.0
 40
3.2075930000000001
 50
288.16497399999997
 51
304.64469700000001
  0
ARC
  5
43
  8
0
  6
AIGENLINE001
 62
     7
 10
149.23793599999999
 20
95.661417000000014
 30
0.0
 40
2.6714869999999991
 50
305.56800900000002
 51
332.82734900000003
  0
ARC
  5
44
  8
0
  6
AIGENLINE001
 62
     7
 10
148.546751
 20
96.054462999999998
 30
0.0
 40
3.4660500000000001
 50
332.26494200000002
 51
343.07010100000002
  0
ARC
  5
45
  8
0
  6
AIGENLINE001
 62
     7
 10
147.234747
 20
96.483620999999985
 30
0.0
 40
4.8462500000000004
 50
342.73313100000013
 51
351.69653299999999
  0
ARC
  5
46
  8
0
  6
AIGENLINE001
 62
     7
 10
145.42492799999999
 20
96.797585999999995
 30
0.0
 40
6.68262
 50
351.27378199999998
 51
353.83130499999999
  0
ARC
  5
47
  8
0
  6
AIGENLINE001
 62
     7
 10
154.01401100000001
 20
101.52704900000001
 30
0.0
 40
1.5529989999999989
 50
91.794049999999999
 51
174.12241299999999
  0
LINE
  5
48
  8
0
  6
AIGENLINE001
 62
     7
 10
148.86799999999999
 20
88.579499999999996
 30
0.0
 11
148.86799999999999
 21
92.078999999999994
 31
0.0
  0
LINE
  5
49
  8
0
  6
AIGENLINE001
 62
     7
 10
144.268
 20
92.078999999999994
 30
0.0
 11
143.16800000000001
 21
93.079499999999996
 31
0.0
  0
LINE
  5
4A
  8
0
  6
AIGENLINE001
 62
     7
 10
144.268
 20
88.579499999999996
 30
0.0
 11
144.268
 21
92.078999999999994
 31
0.0
  0
ARC
  5
4B
  8
0
 62
     7
 10
163.04877099999999
 20
90.599007999999984
 30
0.0
 40
0.519898
 50
272.16646700000001
 51
357.873017
  0
ARC
  5
4C
  8
0
 62
     7
 10
163.069569
 20
90.672433999999996
 30
0.0
 40
0.592954
 50
266.09144600000002
 51
269.88946600000003
  0
ARC
  5
4D
  8
0
 62
     7
 10
150.754775
 20
102.336421
 30
0.0
 40
0.7571439999999999
 50
270.217039
 51
314.79003299999999
  0
ARC
  5
4E
  8
0
 62
     7
 10
152.882014
 20
102.322148
 30
0.0
 40
0.7571439999999999
 50
90.217018999999993
 51
134.79001299999999
  0
ARC
  5
4F
  8
0
 62
     7
 10
150.129155
 20
88.768022999999985
 30
0.0
 40
0.3112
 50
92.075568999999973
 51
177.92440199999999
  0
LINE
  5
50
  8
0
 62
     7
 10
144.31200000000001
 20
105.29000000000001
 30
0.0
 11
144.904
 21
103.07899999999999
 31
0.0
  0
LINE
  5
51
  8
0
 62
     7
 10
144.904
 20
103.07899999999999
 30
0.0
 11
145.49600000000001
 21
105.29000000000001
 31
0.0
  0
LINE
  5
52
  8
0
 62
     7
 10
145.49600000000001
 20
105.29000000000001
 30
0.0
 11
144.31200000000001
 21
105.29000000000001
 31
0.0
  0
LINE
  5
53
  8
0
 62
     7
 10
144.31200000000001
 20
95.289900000000003
 30
0.0
 11
144.904
 21
93.079499999999996
 31
0.0
  0
LINE
  5
54
  8
0
 62
     7
 10
144.904
 20
93.079499999999996
 30
0.0
 11
145.49600000000001
 21
95.289900000000003
 31
0.0
  0
LINE
  5
55
  8
0
 62
     7
 10
145.49600000000001
 20
95.289900000000003
 30
0.0
 11
144.31200000000001
 21
95.289900000000003
 31
0.0
  0
LINE
  5
56
  8
0
 62
     7
 10
145.49600000000001
 20
99.368899999999996
 30
0.0
 11
144.904
 21
101.57899999999999
 31
0.0
  0
LINE
  5
57
  8
0
 62
     7
 10
144.904
 20
101.57899999999999
 30
0.0
 11
144.31200000000001
 21
99.368899999999996
 31
0.0
  0
LINE
  5
58
  8
0
 62
     7
 10
144.31200000000001
 20
99.368899999999996
 30
0.0
 11
145.49600000000001
 21
99.368899999999996
 31
0.0
  0
LINE
  5
59
  8
0
 62
     7
 10
144.904
 20
93.079499999999996
 30
0.0
 11
144.904
 21
108.172
 31
0.0
  0
LINE
  5
5A
  8
0
 62
     7
 10
97.224100000000007
 20
90.789900000000003
 30
0.0
 11
97.816000000000003
 21
88.579499999999996
 31
0.0
  0
LINE
  5
5B
  8
0
 62
     7
 10
97.816000000000003
 20
88.579499999999996
 30
0.0
 11
98.408600000000007
 21
90.789900000000003
 31
0.0
  0
LINE
  5
5C
  8
0
 62
     7
 10
98.408600000000007
 20
90.789900000000003
 30
0.0
 11
97.224100000000007
 21
90.789900000000003
 31
0.0
  0
LINE
  5
5D
  8
0
 62
     7
 10
98.408600000000007
 20
100.869
 30
0.0
 11
97.816000000000003
 21
103.07899999999999
 31
0.0
  0
LINE
  5
5E
  8
0
 62
     7
 10
97.816000000000003
 20
103.07899999999999
 30
0.0
 11
97.224100000000007
 21
100.869
 31
0.0
  0
LINE
  5
5F
  8
0
 62
     7
 10
97.224100000000007
 20
100.869
 30
0.0
 11
98.408600000000007
 21
100.869
 31
0.0
  0
LINE
  5
60
  8
0
 62
     7
 10
97.816000000000003
 20
88.579499999999996
 30
0.0
 11
97.816000000000003
 21
103.07899999999999
 31
0.0
  0
LINE
  5
61
  8
0
 62
     7
 10
36.419699999999999
 20
99.790599999999998
 30
0.0
 11
37.011899999999997
 21
97.57950000000001
 31
0.0
  0
LINE
  5
62
  8
0
 62
     7
 10
37.011899999999997
 20
97.57950000000001
 30
0.0
 11
37.604300000000002
 21
99.790599999999998
 31
0.0
  0
LINE
  5
63
  8
0
 62
     7
 10
37.604300000000002
 20
99.790599999999998
 30
0.0
 11
36.419699999999999
 21
99.790599999999998
 31
0.0
  0
LINE
  5
64
  8
0
 62
     7
 10
37.604100000000003
 20
100.87
 30
0.0
 11
37.011899999999997
 21
103.08
 31
0.0
  0
LINE
  5
65
  8
0
 62
     7
 10
37.011899999999997
 20
103.08
 30
0.0
 11
36.419499999999999
 21
100.87
 31
0.0
  0
LINE
  5
66
  8
0
 62
     7
 10
36.419499999999999
 20
100.87
 30
0.0
 11
37.604100000000003
 21
100.87
 31
0.0
  0
LINE
  5
67
  8
0
 62
     7
 10
37.011899999999997
 20
97.57950000000001
 30
0.0
 11
37.011899999999997
 21
103.08
 31
0.0
  0
LINE
  5
68
  8
0
 62
     7
 10
43.5535
 20
103.94499999999999
 30
0.0
 11
43.5535
 21
119.491
 31
0.0
  0
LINE
  5
69
  8
0
 62
     7
 10
88.553799999999995
 20
103.94499999999999
 30
0.0
 11
88.553799999999995
 21
119.491
 31
0.0
  0
LINE
  5
6A
  8
0
 62
     7
 10
45.763899999999992
 20
119.384
 30
0.0
 11
43.5535
 21
118.791
 31
0.0
  0
LINE
  5
6B
  8
0
 62
     7
 10
43.5535
 20
118.791
 30
0.0
 11
45.763899999999992
 21
118.199
 31
0.0
  0
LINE
  5
6C
  8
0
 62
     7
 10
45.763899999999992
 20
118.199
 30
0.0
 11
45.763899999999992
 21
119.384
 31
0.0
  0
LINE
  5
6D
  8
0
 62
     7
 10
86.343299999999999
 20
118.199
 30
0.0
 11
88.553799999999995
 21
118.791
 31
0.0
  0
LINE
  5
6E
  8
0
 62
     7
 10
88.553799999999995
 20
118.791
 30
0.0
 11
86.343299999999999
 21
119.384
 31
0.0
  0
LINE
  5
6F
  8
0
 62
     7
 10
86.343299999999999
 20
119.384
 30
0.0
 11
86.343299999999999
 21
118.199
 31
0.0
  0
LINE
  5
70
  8
0
 62
     7
 10
43.5535
 20
118.791
 30
0.0
 11
88.553799999999995
 21
118.791
 31
0.0
  0
LINE
  5
71
  8
0
 62
     7
 10
56.05360000000001
 20
100.139
 30
0.0
 11
56.05360000000001
 21
113.05800000000001
 31
0.0
  0
LINE
  5
72
  8
0
 62
     7
 10
76.053700000000006
 20
100.139
 30
0.0
 11
76.053700000000006
 21
113.05800000000001
 31
0.0
  0
LINE
  5
73
  8
0
 62
     7
 10
144.20400000000001
 20
103.07899999999999
 30
0.0
 11
151.69399999999999
 21
103.07899999999999
 31
0.0
  0
LINE
  5
74
  8
0
  6
AIGENLINE002
 62
     7
 10
60.553600000000003
 20
101.651
 30
0.0
 11
60.553600000000003
 21
97.219100000000012
 31
0.0
  0
LINE
  5
75
  8
0
  6
AIGENLINE002
 62
     7
 10
150.006
 20
99.578999999999994
 30
0.0
 11
155.63999999999999
 21
99.578999999999994
 31
0.0
  0
LINE
  5
76
  8
0
  6
AIGENLINE002
 62
     7
 10
57.857100000000003
 20
99.578999999999994
 30
0.0
 11
63.49199999999999
 21
99.578999999999994
 31
0.0
  0
ARC
  5
77
  8
0
  6
AIGENLINE001
 62
     7
 10
60.508065000000002
 20
99.624960999999999
 30
0.0
 40
1.2463360000000001
 50
272.09473200000002
 51
357.888825
  0
ARC
  5
78
  8
0
  6
AIGENLINE001
 62
     7
 10
60.599484999999987
 20
99.625270000000015
 30
0.0
 40
1.2466559999999991
 50
182.12487899999999
 51
267.89160299999998
  0
ARC
  5
79
  8
0
  6
AIGENLINE001
 62
     7
 10
60.553793000000013
 20
99.579219999999992
 30
0.0
 40
1.200107
 50
90.008223999999998
 51
180.00823399999999
  0
ARC
  5
7A
  8
0
  6
AIGENLINE001
 62
     7
 10
60.553448000000003
 20
99.579219999999992
 30
0.0
 40
1.200107
 50
359.99178599999999
 51
89.991755999999995
  0
ARC
  5
7B
  8
0
  6
AIGENLINE003
 62
     7
 10
55.592170000000003
 20
97.618301000000002
 30
0.0
 40
1.03929
 50
182.13950199999999
 51
267.87039900000002
  0
ARC
  5
7C
  8
0
  6
AIGENLINE003
 62
     7
 10
55.591619999999992
 20
97.541252
 30
0.0
 40
1.0387200000000001
 50
92.100432999999981
 51
177.88966600000001
  0
LINE
  5
7D
  8
0
  6
AIGENLINE003
 62
     7
 10
55.5535
 20
98.579300000000003
 30
0.0
 11
56.5535
 21
98.579300000000003
 31
0.0
  0
ARC
  5
7E
  8
0
  6
AIGENLINE003
 62
     7
 10
56.514875000000004
 20
97.54070200000001
 30
0.0
 40
1.03929
 50
2.1394820000000001
 51
87.870378999999986
  0
ARC
  5
7F
  8
0
  6
AIGENLINE003
 62
     7
 10
56.515433999999999
 20
97.617741000000024
 30
0.0
 40
1.03871
 50
272.099941
 51
357.890198
  0
LINE
  5
80
  8
0
  6
AIGENLINE003
 62
     7
 10
56.5535
 20
96.579700000000003
 30
0.0
 11
55.5535
 21
96.579700000000003
 31
0.0
  0
LINE
  5
81
  8
0
  6
AIGENLINE002
 62
     7
 10
56.05360000000001
 20
99.4392
 30
0.0
 11
56.05360000000001
 21
95.463499999999996
 31
0.0
  0
LINE
  5
82
  8
0
  6
AIGENLINE002
 62
     7
 10
53.426200000000001
 20
97.57950000000001
 30
0.0
 11
59.061000000000007
 21
97.57950000000001
 31
0.0
  0
ARC
  5
83
  8
0
  6
AIGENLINE003
 62
     7
 10
75.592281
 20
97.618301000000002
 30
0.0
 40
1.03929
 50
182.13950199999999
 51
267.87039900000002
  0
ARC
  5
84
  8
0
  6
AIGENLINE003
 62
     7
 10
75.591731999999993
 20
97.541252
 30
0.0
 40
1.0387200000000001
 50
92.100432999999981
 51
177.88966600000001
  0
LINE
  5
85
  8
0
  6
AIGENLINE003
 62
     7
 10
75.553700000000006
 20
98.579300000000003
 30
0.0
 11
76.553600000000003
 21
98.579300000000003
 31
0.0
  0
ARC
  5
86
  8
0
  6
AIGENLINE003
 62
     7
 10
76.514985999999993
 20
97.54070200000001
 30
0.0
 40
1.03929
 50
2.1394820000000001
 51
87.870378999999986
  0
ARC
  5
87
  8
0
  6
AIGENLINE003
 62
     7
 10
76.515544999999989
 20
97.617741000000024
 30
0.0
 40
1.03871
 50
272.099941
 51
357.890198
  0
LINE
  5
88
  8
0
  6
AIGENLINE003
 62
     7
 10
76.553600000000003
 20
96.579700000000003
 30
0.0
 11
75.553700000000006
 21
96.579700000000003
 31
0.0
  0
ARC
  5
89
  8
0
 62
     7
 10
51.75224
 20
125.712279
 30
0.0
 40
46.647734
 50
310.65546799999998
 51
314.20329199999998
  0
ARC
  5
8A
  8
0
 62
     7
 10
61.548749999999998
 20
115.465846
 30
0.0
 40
32.472405000000002
 50
314.41687200000001
 51
320.04040499999991
  0
ARC
  5
8B
  8
0
 62
     7
 10
67.456784999999996
 20
110.388892
 30
0.0
 40
24.68344200000001
 50
320.26568800000001
 51
328.00203900000002
  0
ARC
  5
8C
  8
0
 62
     7
 10
87.548913999999996
 20
97.859526000000017
 30
0.0
 40
1.0047250000000001
 50
326.80197700000002
 51
359.94469100000009
  0
ARC
  5
8D
  8
0
 62
     7
 10
71.557586000000001
 20
71.592832999999999
 30
0.0
 40
20.924339
 50
62.38733100000001
 51
67.521690000000007
  0
ARC
  5
8E
  8
0
 62
     7
 10
73.814402000000001
 20
76.770167000000001
 30
0.0
 40
15.277866
 50
67.918785
 51
84.898142000000007
  0
ARC
  5
8F
  8
0
 62
     7
 10
73.258842000000001
 20
72.045388000000003
 30
0.0
 40
20.033773
 50
84.517190999999997
 51
90.209783000000016
  0
ARC
  5
90
  8
0
 62
     7
 10
81.553659999999994
 20
90.921396000000016
 30
0.0
 40
0.841915
 50
249.28419099999999
 51
270.00117399999999
  0
ARC
  5
91
  8
0
 62
     7
 10
81.549721000000005
 20
90.924519999999987
 30
0.0
 40
0.8450479999999998
 50
270.26822700000002
 51
314.655191
  0
LINE
  5
92
  8
0
 62
     7
 10
66.053600000000003
 20
92.078999999999994
 30
0.0
 11
73.185500000000005
 21
92.078999999999994
 31
0.0
  0
ARC
  5
93
  8
0
 62
     7
 10
80.354916000000003
 20
125.712279
 30
0.0
 40
46.647734
 50
225.796728
 51
229.344551
  0
ARC
  5
94
  8
0
 62
     7
 10
70.558405000000008
 20
115.465846
 30
0.0
 40
32.472405000000002
 50
219.95961500000001
 51
225.58314799999999
  0
ARC
  5
95
  8
0
 62
     7
 10
64.650369999999995
 20
110.388892
 30
0.0
 40
24.68344200000001
 50
211.99798100000001
 51
219.73433199999999
  0
ARC
  5
96
  8
0
 62
     7
 10
44.558241000000002
 20
97.859525000000005
 30
0.0
 40
1.0047239999999991
 50
180.05530999999999
 51
213.19806200000011
  0
ARC
  5
97
  8
0
 62
     7
 10
60.549569999999989
 20
71.592832999999999
 30
0.0
 40
20.924339
 50
112.47829
 51
117.612649
  0
ARC
  5
98
  8
0
 62
     7
 10
58.292754000000002
 20
76.770167000000001
 30
0.0
 40
15.277866
 50
95.101838999999984
 51
112.08119499999999
  0
ARC
  5
99
  8
0
 62
     7
 10
58.848312999999997
 20
72.045388000000003
 30
0.0
 40
20.033773
 50
89.790198000000004
 51
95.482788999999997
  0
ARC
  5
9A
  8
0
 62
     7
 10
50.553496000000003
 20
90.921396000000016
 30
0.0
 40
0.841915
 50
269.99884600000001
 51
290.71582899999999
  0
ARC
  5
9B
  8
0
 62
     7
 10
50.557434000000001
 20
90.924519999999987
 30
0.0
 40
0.8450479999999998
 50
225.344829
 51
269.73179299999998
  0
LINE
  5
9C
  8
0
 62
     7
 10
163.5679999999999
 20
79.737899999999996
 30
0.0
 11
163.5679999999999
 21
89.430400000000006
 31
0.0
  0
LINE
  5
9D
  8
0
 62
     7
 10
146.56800000000001
 20
79.737899999999996
 30
0.0
 11
146.56800000000001
 21
86.291899999999984
 31
0.0
  0
LINE
  5
9E
  8
0
 62
     7
 10
148.77799999999999
 20
81.029799999999994
 30
0.0
 11
146.56800000000001
 21
80.438000000000002
 31
0.0
  0
LINE
  5
9F
  8
0
 62
     7
 10
146.56800000000001
 20
80.438000000000002
 30
0.0
 11
148.77799999999999
 21
79.845399999999984
 31
0.0
  0
LINE
  5
A0
  8
0
 62
     7
 10
148.77799999999999
 20
79.845399999999984
 30
0.0
 11
148.77799999999999
 21
81.029799999999994
 31
0.0
  0
LINE
  5
A1
  8
0
 62
     7
 10
161.358
 20
79.845399999999984
 30
0.0
 11
163.5679999999999
 21
80.438000000000002
 31
0.0
  0
LINE
  5
A2
  8
0
 62
     7
 10
163.5679999999999
 20
80.438000000000002
 30
0.0
 11
161.358
 21
81.030500000000004
 31
0.0
  0
LINE
  5
A3
  8
0
 62
     7
 10
161.358
 20
81.030500000000004
 30
0.0
 11
161.358
 21
79.845399999999984
 31
0.0
  0
LINE
  5
A4
  8
0
 62
     7
 10
146.56800000000001
 20
80.438000000000002
 30
0.0
 11
163.5679999999999
 21
80.438000000000002
 31
0.0
  0
LINE
  5
A5
  8
0
 62
     7
 10
88.553600000000003
 20
151.09999999999999
 30
0.0
 11
88.553600000000003
 21
172.636
 31
0.0
  0
LINE
  5
A6
  8
0
 62
     7
 10
87.053600000000003
 20
159.56100000000001
 30
0.0
 11
87.053600000000003
 21
172.84899999999999
 31
0.0
  0
LINE
  5
A7
  8
0
 62
     7
 10
45.053499999999993
 20
159.56100000000001
 30
0.0
 11
45.053499999999993
 21
172.84899999999999
 31
0.0
  0
LINE
  5
A8
  8
0
 62
     7
 10
43.5535
 20
151.09999999999999
 30
0.0
 11
43.5535
 21
172.636
 31
0.0
  0
LINE
  5
A9
  8
0
 62
     7
 10
105.32899999999999
 20
171.797
 30
0.0
 11
105.92
 21
169.58600000000001
 31
0.0
  0
LINE
  5
AA
  8
0
 62
     7
 10
105.92
 20
169.58600000000001
 30
0.0
 11
106.51300000000001
 21
171.797
 31
0.0
  0
LINE
  5
AB
  8
0
 62
     7
 10
106.51300000000001
 20
171.797
 30
0.0
 11
105.32899999999999
 21
171.797
 31
0.0
  0
LINE
  5
AC
  8
0
 62
     7
 10
106.51300000000001
 20
199.37599999999989
 30
0.0
 11
105.92
 21
201.58699999999999
 31
0.0
  0
LINE
  5
AD
  8
0
 62
     7
 10
105.92
 20
201.58699999999999
 30
0.0
 11
105.32899999999999
 21
199.37599999999989
 31
0.0
  0
LINE
  5
AE
  8
0
 62
     7
 10
105.32899999999999
 20
199.37599999999989
 30
0.0
 11
106.51300000000001
 21
199.37599999999989
 31
0.0
  0
LINE
  5
AF
  8
0
 62
     7
 10
105.92
 20
169.58600000000001
 30
0.0
 11
105.92
 21
201.58699999999999
 31
0.0
  0
LINE
  5
B0
  8
0
 62
     7
 10
80.736000000000004
 20
197.797
 30
0.0
 11
81.328199999999995
 21
195.58699999999999
 31
0.0
  0
LINE
  5
B1
  8
0
 62
     7
 10
81.328199999999995
 20
195.58699999999999
 30
0.0
 11
81.920599999999993
 21
197.797
 31
0.0
  0
LINE
  5
B2
  8
0
 62
     7
 10
81.920599999999993
 20
197.797
 30
0.0
 11
80.736000000000004
 21
197.797
 31
0.0
  0
LINE
  5
B3
  8
0
 62
     7
 10
80.736000000000004
 20
192.797
 30
0.0
 11
81.328199999999995
 21
190.58600000000001
 31
0.0
  0
LINE
  5
B4
  8
0
 62
     7
 10
81.328199999999995
 20
190.58600000000001
 30
0.0
 11
81.920599999999993
 21
192.797
 31
0.0
  0
LINE
  5
B5
  8
0
 62
     7
 10
81.920599999999993
 20
192.797
 30
0.0
 11
80.736000000000004
 21
192.797
 31
0.0
  0
LINE
  5
B6
  8
0
 62
     7
 10
81.920400000000001
 20
193.37599999999989
 30
0.0
 11
81.328199999999995
 21
195.58699999999999
 31
0.0
  0
LINE
  5
B7
  8
0
 62
     7
 10
81.328199999999995
 20
195.58699999999999
 30
0.0
 11
80.735799999999983
 21
193.37599999999989
 31
0.0
  0
LINE
  5
B8
  8
0
 62
     7
 10
80.735799999999983
 20
193.37599999999989
 30
0.0
 11
81.920400000000001
 21
193.37599999999989
 31
0.0
  0
LINE
  5
B9
  8
0
 62
     7
 10
81.920400000000001
 20
199.37599999999989
 30
0.0
 11
81.328199999999995
 21
201.58699999999999
 31
0.0
  0
LINE
  5
BA
  8
0
 62
     7
 10
81.328199999999995
 20
201.58699999999999
 30
0.0
 11
80.735799999999983
 21
199.37599999999989
 31
0.0
  0
LINE
  5
BB
  8
0
 62
     7
 10
80.735799999999983
 20
199.37599999999989
 30
0.0
 11
81.920400000000001
 21
199.37599999999989
 31
0.0
  0
LINE
  5
BC
  8
0
 62
     7
 10
81.328199999999995
 20
190.58600000000001
 30
0.0
 11
81.328199999999995
 21
201.58699999999999
 31
0.0
  0
LINE
  5
BD
  8
0
 62
     7
 10
97.223800000000011
 20
192.797
 30
0.0
 11
97.816000000000003
 21
190.58600000000001
 31
0.0
  0
LINE
  5
BE
  8
0
 62
     7
 10
97.816000000000003
 20
190.58600000000001
 30
0.0
 11
98.408199999999994
 21
192.797
 31
0.0
  0
LINE
  5
BF
  8
0
 62
     7
 10
98.408199999999994
 20
192.797
 30
0.0
 11
97.223800000000011
 21
192.797
 31
0.0
  0
LINE
  5
C0
  8
0
 62
     7
 10
97.223800000000011
 20
173.297
 30
0.0
 11
97.816000000000003
 21
171.08600000000001
 31
0.0
  0
LINE
  5
C1
  8
0
 62
     7
 10
97.816000000000003
 20
171.08600000000001
 30
0.0
 11
98.408199999999994
 21
173.297
 31
0.0
  0
LINE
  5
C2
  8
0
 62
     7
 10
98.408199999999994
 20
173.297
 30
0.0
 11
97.223800000000011
 21
173.297
 31
0.0
  0
LINE
  5
C3
  8
0
 62
     7
 10
98.408199999999994
 20
167.37599999999989
 30
0.0
 11
97.816000000000003
 21
169.58600000000001
 31
0.0
  0
LINE
  5
C4
  8
0
 62
     7
 10
97.816000000000003
 20
169.58600000000001
 30
0.0
 11
97.223800000000011
 21
167.37599999999989
 31
0.0
  0
LINE
  5
C5
  8
0
 62
     7
 10
97.223800000000011
 20
167.37599999999989
 30
0.0
 11
98.408199999999994
 21
167.37599999999989
 31
0.0
  0
LINE
  5
C6
  8
0
 62
     7
 10
98.408199999999994
 20
188.376
 30
0.0
 11
97.816000000000003
 21
190.58600000000001
 31
0.0
  0
LINE
  5
C7
  8
0
 62
     7
 10
97.816000000000003
 20
190.58600000000001
 30
0.0
 11
97.223800000000011
 21
188.376
 31
0.0
  0
LINE
  5
C8
  8
0
 62
     7
 10
97.223800000000011
 20
188.376
 30
0.0
 11
98.408199999999994
 21
188.376
 31
0.0
  0
LINE
  5
C9
  8
0
 62
     7
 10
98.408199999999994
 20
199.37599999999989
 30
0.0
 11
97.816000000000003
 21
201.58699999999999
 31
0.0
  0
LINE
  5
CA
  8
0
 62
     7
 10
97.816000000000003
 20
201.58699999999999
 30
0.0
 11
97.223800000000011
 21
199.37599999999989
 31
0.0
  0
LINE
  5
CB
  8
0
 62
     7
 10
97.223800000000011
 20
199.37599999999989
 30
0.0
 11
98.408199999999994
 21
199.37599999999989
 31
0.0
  0
LINE
  5
CC
  8
0
 62
     7
 10
97.816000000000003
 20
163.833
 30
0.0
 11
97.816000000000003
 21
201.58699999999999
 31
0.0
  0
LINE
  5
CD
  8
0
 62
     7
 10
70.118499999999983
 20
88.579499999999996
 30
0.0
 11
98.516099999999994
 21
88.579499999999996
 31
0.0
  0
LINE
  5
CE
  8
0
 62
     7
 10
36.311900000000001
 20
103.08
 30
0.0
 11
42.842100000000002
 21
103.08
 31
0.0
  0
LINE
  5
CF
  8
0
 62
     7
 10
36.311900000000001
 20
97.57950000000001
 30
0.0
 11
52.726100000000002
 21
97.57950000000001
 31
0.0
  0
LINE
  5
D0
  8
0
 62
     7
 10
58.263999999999989
 20
112.95099999999999
 30
0.0
 11
56.05360000000001
 21
112.358
 31
0.0
  0
LINE
  5
D1
  8
0
 62
     7
 10
56.05360000000001
 20
112.358
 30
0.0
 11
58.263999999999989
 21
111.76600000000001
 31
0.0
  0
LINE
  5
D2
  8
0
 62
     7
 10
58.263999999999989
 20
111.76600000000001
 30
0.0
 11
58.263999999999989
 21
112.95099999999999
 31
0.0
  0
LINE
  5
D3
  8
0
 62
     7
 10
73.843199999999996
 20
111.76600000000001
 30
0.0
 11
76.053700000000006
 21
112.358
 31
0.0
  0
LINE
  5
D4
  8
0
 62
     7
 10
76.053700000000006
 20
112.358
 30
0.0
 11
73.843199999999996
 21
112.95099999999999
 31
0.0
  0
LINE
  5
D5
  8
0
 62
     7
 10
73.843199999999996
 20
112.95099999999999
 30
0.0
 11
73.843199999999996
 21
111.76600000000001
 31
0.0
  0
LINE
  5
D6
  8
0
 62
     7
 10
56.05360000000001
 20
112.358
 30
0.0
 11
76.053700000000006
 21
112.358
 31
0.0
  0
LINE
  5
D7
  8
0
 62
     7
 10
89.253699999999995
 20
103.07899999999999
 30
0.0
 11
98.516099999999994
 21
103.07899999999999
 31
0.0
  0
ARC
  5
D8
  8
0
 62
     7
 10
88.05340799999999
 20
101.07905100000001
 30
0.0
 40
0.5002310000000002
 50
0.00001
 51
89.999980000000008
  0
ARC
  5
D9
  8
0
 62
     7
 10
149.60961900000001
 20
88.787300000000002
 30
0.0
 40
0.208694
 50
272.39574699999997
 51
357.80149399999999
  0
ARC
  5
DA
  8
0
 62
     7
 10
143.5261129999999
 20
88.787333999999987
 30
0.0
 40
0.208012
 50
182.21512100000001
 51
267.78490900000003
  0
LINE
  5
DB
  8
0
 62
     7
 10
150.09
 20
89.078999999999994
 30
0.0
 11
151.3189999999999
 21
89.078999999999994
 31
0.0
  0
LINE
  5
DC
  8
0
  6
AIGENLINE001
 62
     7
 10
149.96799999999999
 20
93.079499999999996
 30
0.0
 11
148.86799999999999
 21
92.078999999999994
 31
0.0
  0
LINE
  5
DD
  8
0
  6
AIGENLINE001
 62
     7
 10
149.96799999999999
 20
93.079499999999996
 30
0.0
 11
143.16800000000001
 21
93.079499999999996
 31
0.0
  0
LINE
  5
DE
  8
0
  6
AIGENLINE001
 62
     7
 10
148.86799999999999
 20
92.078999999999994
 30
0.0
 11
144.268
 21
92.078999999999994
 31
0.0
  0
LINE
  5
DF
  8
0
 62
     7
 10
149.61799999999999
 20
88.579499999999996
 30
0.0
 11
143.518
 21
88.579499999999996
 31
0.0
  0
LINE
  5
E0
  8
0
 62
     7
 10
138.71299999999999
 20
92.067300000000003
 30
0.0
 11
163.029
 21
90.080900000000014
 31
0.0
  0
LINE
  5
E1
  8
0
 62
     7
 10
132.31800000000001
 20
101.57899999999999
 30
0.0
 11
150.75800000000001
 21
101.57899999999999
 31
0.0
  0
ARC
  5
E2
  8
0
 62
     7
 10
132.34727799999999
 20
100.79997299999999
 30
0.0
 40
0.7798470000000001
 50
92.126459000000011
 51
177.820874
  0
ARC
  5
E3
  8
0
 62
     7
 10
163.06808000000001
 20
102.579055
 30
0.0
 40
0.5002310000000002
 50
0.00001
 51
89.999980000000008
  0
LINE
  5
E4
  8
0
 62
     7
 10
149.81800000000001
 20
88.779300000000006
 30
0.0
 11
149.81800000000001
 21
91.159899999999993
 31
0.0
  0
LINE
  5
E5
  8
0
 62
     7
 10
143.31800000000001
 20
88.779300000000006
 30
0.0
 11
143.31800000000001
 21
91.691100000000006
 31
0.0
  0
LINE
  5
E6
  8
0
 62
     7
 10
131.56800000000001
 20
97.907499999999999
 30
0.0
 11
131.56800000000001
 21
100.83
 31
0.0
  0
LINE
  5
E7
  8
0
 62
     7
 10
151.28800000000001
 20
101.79900000000001
 30
0.0
 11
152.34899999999999
 21
102.85899999999999
 31
0.0
  0
LINE
  5
E8
  8
0
  6
AIGENLINE002
 62
     7
 10
157.56800000000001
 20
100.33799999999999
 30
0.0
 11
157.56800000000001
 21
105.349
 31
0.0
  0
LINE
  5
E9
  8
0
  6
AIGENLINE001
 62
     7
 10
152.06899999999999
 20
96.079499999999996
 30
0.0
 11
152.46899999999999
 21
101.68600000000001
 31
0.0
  0
LINE
  5
EA
  8
0
 62
     7
 10
163.5679999999999
 20
90.579700000000003
 30
0.0
 11
163.5679999999999
 21
102.57899999999999
 31
0.0
  0
LINE
  5
EB
  8
0
 62
     7
 10
152.87899999999999
 20
103.07899999999999
 30
0.0
 11
163.06800000000001
 21
103.07899999999999
 31
0.0
  0
LINE
  5
EC
  8
0
  6
AIGENLINE002
 62
     7
 10
146.56800000000001
 20
94.433400000000006
 30
0.0
 11
146.56800000000001
 21
86.992000000000004
 31
0.0
  0
LINE
  5
ED
  8
0
  6
AIGENLINE002
 62
     7
 10
160.751
 20
97.57950000000001
 30
0.0
 11
166.386
 21
97.57950000000001
 31
0.0
  0
ARC
  5
EE
  8
0
 62
     7
 10
69.095382999999998
 20
88.786906999999985
 30
0.0
 40
0.208286
 50
272.29200600000001
 51
357.905235
  0
ARC
  5
EF
  8
0
 62
     7
 10
62.32323199999999
 20
89.099020999999993
 30
0.0
 40
0.51991
 50
182.12886599999999
 51
267.85142999999999
  0
LINE
  5
F0
  8
0
 62
     7
 10
63.003399999999999
 20
88.579499999999996
 30
0.0
 11
62.303699999999999
 21
88.579499999999996
 31
0.0
  0
LINE
  5
F1
  8
0
 62
     7
 10
61.803699999999992
 20
89.079700000000003
 30
0.0
 11
61.803699999999992
 21
92.078999999999994
 31
0.0
  0
ARC
  5
F2
  8
0
 62
     7
 10
60.322470999999993
 20
89.498672999999997
 30
0.0
 40
0.5192130000000002
 50
182.13369599999999
 51
267.92557399999998
  0
LINE
  5
F3
  8
0
 62
     7
 10
61.813800000000001
 20
88.979100000000017
 30
0.0
 11
60.303699999999999
 21
88.979799999999997
 31
0.0
  0
LINE
  5
F4
  8
0
 62
     7
 10
59.80360000000001
 20
89.479299999999995
 30
0.0
 11
59.80360000000001
 21
92.078999999999994
 31
0.0
  0
ARC
  5
F5
  8
0
 62
     7
 10
63.011090000000003
 20
88.786940000000016
 30
0.0
 40
0.207604
 50
182.1107759999999
 51
267.88925399999999
  0
ARC
  5
F6
  8
0
 62
     7
 10
44.053747999999992
 20
101.07905100000001
 30
0.0
 40
0.5002310000000002
 50
90.0
 51
179.99996999999999
  0
LINE
  5
F7
  8
0
 62
     7
 10
69.103700000000003
 20
88.579499999999996
 30
0.0
 11
63.003399999999999
 21
88.579499999999996
 31
0.0
  0
LINE
  5
F8
  8
0
 62
     7
 10
66.053600000000003
 20
92.078999999999994
 30
0.0
 11
58.921700000000001
 21
92.078999999999994
 31
0.0
  0
LINE
  5
F9
  8
0
 62
     7
 10
44.053699999999999
 20
101.57899999999999
 30
0.0
 11
88.053399999999996
 21
101.57899999999999
 31
0.0
  0
ARC
  5
FA
  8
0
 62
     7
 10
88.05340799999999
 20
102.579055
 30
0.0
 40
0.5002310000000002
 50
0.00001
 51
89.999980000000008
  0
LINE
  5
FB
  8
0
 62
     7
 10
69.3035
 20
88.779300000000006
 30
0.0
 11
69.3035
 21
92.078999999999994
 31
0.0
  0
LINE
  5
FC
  8
0
 62
     7
 10
62.803600000000003
 20
88.779300000000006
 30
0.0
 11
62.803600000000003
 21
92.078999999999994
 31
0.0
  0
LINE
  5
FD
  8
0
 62
     7
 10
88.553600000000003
 20
97.858599999999996
 30
0.0
 11
88.553600000000003
 21
102.57899999999999
 31
0.0
  0
LINE
  5
FE
  8
0
 62
     7
 10
43.5535
 20
97.858599999999996
 30
0.0
 11
43.5535
 21
102.57899999999999
 31
0.0
  0
ARC
  5
FF
  8
0
 62
     7
 10
44.053747999999992
 20
102.579055
 30
0.0
 40
0.5002310000000002
 50
90.0
 51
179.99996999999999
  0
LINE
  5
100
  8
0
 62
     7
 10
44.053699999999999
 20
103.07899999999999
 30
0.0
 11
88.053399999999996
 21
103.07899999999999
 31
0.0
  0
LINE
  5
101
  8
0
 62
     7
 10
89.253699999999995
 20
201.58699999999999
 30
0.0
 11
106.621
 21
201.58699999999999
 31
0.0
  0
LINE
  5
102
  8
0
 62
     7
 10
85.860900000000001
 20
169.58600000000001
 30
0.0
 11
106.621
 21
169.58600000000001
 31
0.0
  0
LINE
  5
103
  8
0
 62
     7
 10
85.625600000000006
 20
171.08600000000001
 30
0.0
 11
98.516199999999998
 21
171.08600000000001
 31
0.0
  0
LINE
  5
104
  8
0
 62
     7
 10
47.2639
 20
160.85300000000001
 30
0.0
 11
45.053499999999993
 21
160.261
 31
0.0
  0
LINE
  5
105
  8
0
 62
     7
 10
45.053499999999993
 20
160.261
 30
0.0
 11
47.2639
 21
159.66900000000001
 31
0.0
  0
LINE
  5
106
  8
0
 62
     7
 10
47.2639
 20
159.66900000000001
 30
0.0
 11
47.2639
 21
160.85300000000001
 31
0.0
  0
LINE
  5
107
  8
0
 62
     7
 10
84.843199999999996
 20
159.66900000000001
 30
0.0
 11
87.053600000000003
 21
160.261
 31
0.0
  0
LINE
  5
108
  8
0
 62
     7
 10
87.053600000000003
 20
160.261
 30
0.0
 11
84.843199999999996
 21
160.85400000000001
 31
0.0
  0
LINE
  5
109
  8
0
 62
     7
 10
84.843199999999996
 20
160.85400000000001
 30
0.0
 11
84.843199999999996
 21
159.66900000000001
 31
0.0
  0
LINE
  5
10A
  8
0
 62
     7
 10
45.053499999999993
 20
160.261
 30
0.0
 11
87.053600000000003
 21
160.261
 31
0.0
  0
LINE
  5
10B
  8
0
 62
     7
 10
45.763899999999992
 20
152.392
 30
0.0
 11
43.5535
 21
151.79900000000001
 31
0.0
  0
LINE
  5
10C
  8
0
 62
     7
 10
43.5535
 20
151.79900000000001
 30
0.0
 11
45.763899999999992
 21
151.20699999999999
 31
0.0
  0
LINE
  5
10D
  8
0
 62
     7
 10
45.763899999999992
 20
151.20699999999999
 30
0.0
 11
45.763899999999992
 21
152.392
 31
0.0
  0
LINE
  5
10E
  8
0
 62
     7
 10
86.343299999999999
 20
151.20699999999999
 30
0.0
 11
88.553600000000003
 21
151.80000000000001
 31
0.0
  0
LINE
  5
10F
  8
0
 62
     7
 10
88.553600000000003
 20
151.80000000000001
 30
0.0
 11
86.343299999999999
 21
152.392
 31
0.0
  0
LINE
  5
110
  8
0
 62
     7
 10
86.343299999999999
 20
152.392
 30
0.0
 11
86.343299999999999
 21
151.20699999999999
 31
0.0
  0
LINE
  5
111
  8
0
 62
     7
 10
43.5535
 20
151.80000000000001
 30
0.0
 11
88.553600000000003
 21
151.80000000000001
 31
0.0
  0
LINE
  5
112
  8
0
 62
     7
 10
69.286500000000004
 20
195.58699999999999
 30
0.0
 11
82.028199999999998
 21
195.58699999999999
 31
0.0
  0
LINE
  5
113
  8
0
 62
     7
 10
89.253699999999995
 20
190.58600000000001
 30
0.0
 11
98.516199999999998
 21
190.58600000000001
 31
0.0
  0
LINE
  5
114
  8
0
  6
AIGENLINE002
 62
     7
 10
76.053700000000006
 20
204.28700000000001
 30
0.0
 11
76.053700000000006
 21
197.56599999999989
 31
0.0
  0
LINE
  5
115
  8
0
  6
AIGENLINE002
 62
     7
 10
56.053400000000003
 20
204.28700000000001
 30
0.0
 11
56.053400000000003
 21
197.56599999999989
 31
0.0
  0
LINE
  5
116
  8
0
 62
     7
 10
69.661999999999992
 20
181.81599999999989
 30
0.0
 11
67.680400000000006
 21
182.96000000000001
 31
0.0
  0
LINE
  5
117
  8
0
 62
     7
 10
67.680400000000006
 20
182.96000000000001
 30
0.0
 11
68.824100000000001
 21
180.97800000000001
 31
0.0
  0
LINE
  5
118
  8
0
 62
     7
 10
68.824100000000001
 20
180.97800000000001
 30
0.0
 11
69.661999999999992
 21
181.81599999999989
 31
0.0
  0
LINE
  5
119
  8
0
 62
     7
 10
62.450699999999998
 20
187.36199999999999
 30
0.0
 11
64.432699999999997
 21
186.21799999999999
 31
0.0
  0
LINE
  5
11A
  8
0
 62
     7
 10
64.432699999999997
 20
186.21799999999999
 30
0.0
 11
63.288499999999999
 21
188.19999999999999
 31
0.0
  0
LINE
  5
11B
  8
0
 62
     7
 10
63.288499999999999
 20
188.19999999999999
 30
0.0
 11
62.450699999999998
 21
187.36199999999999
 31
0.0
  0
LINE
  5
11C
  8
0
 62
     7
 10
50.644300000000001
 20
205.02199999999999
 30
0.0
 11
56.618099999999998
 21
205.02199999999999
 31
0.0
  0
LINE
  5
11D
  8
0
 62
     7
 10
61.366199999999999
 20
189.274
 30
0.0
 11
71.460300000000004
 21
179.18000000000001
 31
0.0
  0
LINE
  5
11E
  8
0
 62
     7
 10
71.460300000000004
 20
179.18000000000001
 30
0.0
 11
77.294300000000007
 21
179.18000000000001
 31
0.0
  0
LINE
  5
11F
  8
0
  6
AIGENLINE002
 62
     7
 10
76.053700000000006
 20
99.4392
 30
0.0
 11
76.053700000000006
 21
95.463499999999996
 31
0.0
  0
LINE
  5
120
  8
0
  6
AIGENLINE002
 62
     7
 10
66.053600000000003
 20
104.48699999999999
 30
0.0
 11
66.053600000000003
 21
86.487600000000015
 31
0.0
  0
LINE
  5
121
  8
0
  6
AIGENLINE002
 62
     7
 10
66.053600000000003
 20
203.52000000000001
 30
0.0
 11
66.053600000000003
 21
167.42699999999999
 31
0.0
  0
ARC
  5
122
  8
0
 62
     7
 10
66.053663
 20
184.58636799999999
 30
0.0
 40
3.4002449999999991
 50
0.001461
 51
90.001431000000025
  0
ARC
  5
123
  8
0
 62
     7
 10
66.053665000000009
 20
184.58654000000001
 30
0.0
 40
3.4000729999999999
 50
90.001450999999989
 51
180.00146100000001
  0
ARC
  5
124
  8
0
 62
     7
 10
66.053491000000008
 20
184.58654000000001
 30
0.0
 40
3.3999000000000001
 50
180.00146100000001
 51
270.00147099999998
  0
ARC
  5
125
  8
0
 62
     7
 10
66.053836000000004
 20
184.586714
 30
0.0
 40
3.4000729999999999
 50
269.99566600000003
 51
359.99563599999999
  0
ARC
  5
126
  8
0
 62
     7
 10
66.053577000000004
 20
184.586454
 30
0.0
 40
2.3003049999999989
 50
0.00001
 51
89.999980000000008
  0
ARC
  5
127
  8
0
 62
     7
 10
66.053749999999994
 20
184.58662699999999
 30
0.0
 40
2.3001330000000002
 50
90.004291000000009
 51
180.00430099999991
  0
ARC
  5
128
  8
0
 62
     7
 10
66.053577000000004
 20
184.586454
 30
0.0
 40
2.29996
 50
179.99996999999999
 51
270.00002000000001
  0
ARC
  5
129
  8
0
 62
     7
 10
66.053749999999994
 20
184.58662699999999
 30
0.0
 40
2.3001330000000002
 50
269.99572899999998
 51
359.995699
  0
LINE
  5
12A
  8
0
  6
AIGENLINE002
 62
     7
 10
59.980200000000004
 20
184.58600000000001
 30
0.0
 11
71.663600000000002
 21
184.58600000000001
 31
0.0
  0
LINE
  5
12B
  8
0
 62
     7
 10
87.053299999999993
 20
175.08699999999999
 30
0.0
 11
87.053299999999993
 21
190.0859999999999
 31
0.0
  0
ARC
  5
12C
  8
0
 62
     7
 10
83.053336000000002
 20
175.08637200000001
 30
0.0
 40
3.9999539999999998
 50
270.00248699999997
 51
0.002457
  0
LINE
  5
12D
  8
0
 62
     7
 10
45.053499999999993
 20
175.08699999999999
 30
0.0
 11
45.053499999999993
 21
190.0859999999999
 31
0.0
  0
LINE
  5
12E
  8
0
 62
     7
 10
88.553600000000003
 20
175.08699999999999
 30
0.0
 11
88.553600000000003
 21
201.08600000000001
 31
0.0
  0
ARC
  5
12F
  8
0
 62
     7
 10
88.05340799999999
 20
201.08632700000001
 30
0.0
 40
0.5002310000000002
 50
0.00001
 51
89.999980000000008
  0
LINE
  5
130
  8
0
 62
     7
 10
43.5535
 20
175.08699999999999
 30
0.0
 11
43.5535
 21
201.08600000000001
 31
0.0
  0
LINE
  5
131
  8
0
 62
     7
 10
49.0533
 20
169.58600000000001
 30
0.0
 11
83.0535
 21
169.58600000000001
 31
0.0
  0
ARC
  5
132
  8
0
 62
     7
 10
83.053507999999994
 20
175.086545
 30
0.0
 40
5.5001309999999988
 50
270.00002000000001
 51
359.99999000000003
  0
ARC
  5
133
  8
0
 62
     7
 10
49.053474000000001
 20
175.08637100000001
 30
0.0
 40
3.9999530000000001
 50
179.99750299999999
 51
269.99755199999998
  0
ARC
  5
134
  8
0
 62
     7
 10
44.053747999999992
 20
201.08632700000001
 30
0.0
 40
0.5002310000000002
 50
90.0
 51
179.99996999999999
  0
ARC
  5
135
  8
0
 62
     7
 10
49.05347299999999
 20
175.08637100000001
 30
0.0
 40
5.4999570000000002
 50
179.998176
 51
269.99822499999999
  0
LINE
  5
136
  8
0
 62
     7
 10
49.0533
 20
171.08600000000001
 30
0.0
 11
83.0535
 21
171.08600000000001
 31
0.0
  0
LINE
  5
137
  8
0
 62
     7
 10
43.5535
 20
190.58600000000001
 30
0.0
 11
88.553600000000003
 21
190.58600000000001
 31
0.0
  0
LINE
  5
138
  8
0
 62
     7
 10
44.053699999999999
 20
201.58699999999999
 30
0.0
 11
88.053399999999996
 21
201.58699999999999
 31
0.0
  0
ARC
  5
139
  8
0
 62
     7
 10
65.996009999999984
 20
195.52897400000001
 30
0.0
 40
1.5586349999999991
 50
2.1166839999999998
 51
87.883306000000005
  0
ARC
  5
13A
  8
0
 62
     7
 10
66.111528000000007
 20
195.528592
 30
0.0
 40
1.5590310000000001
 50
92.130187000000006
 51
177.86978300000001
  0
ARC
  5
13B
  8
0
 62
     7
 10
66.053578000000002
 20
195.58654200000001
 30
0.0
 40
1.5000039999999999
 50
179.99996999999999
 51
270.00002000000001
  0
ARC
  5
13C
  8
0
 62
     7
 10
65.995622999999995
 20
195.644497
 30
0.0
 40
1.559037
 50
272.13038900000009
 51
357.869621
  0
LINE
  5
13D
  8
0
  6
AIGENLINE002
 62
     7
 10
73.426299999999983
 20
97.57950000000001
 30
0.0
 11
79.061099999999996
 21
97.57950000000001
 31
0.0
  0
LINE
  5
13E
  8
0
  6
AIGENLINE002
 62
     7
 10
63.374299999999998
 20
195.58699999999999
 30
0.0
 11
68.586399999999998
 21
195.58699999999999
 31
0.0
  0
LINE
  5
13F
  8
0
 62
     7
 10
69.096000000000004
 20
193.381
 30
0.0
 11
67.11399999999999
 21
194.52600000000001
 31
0.0
  0
LINE
  5
140
  8
0
 62
     7
 10
67.11399999999999
 20
194.52600000000001
 30
0.0
 11
68.258499999999984
 21
192.54400000000001
 31
0.0
  0
LINE
  5
141
  8
0
 62
     7
 10
68.258499999999984
 20
192.54400000000001
 30
0.0
 11
69.096000000000004
 21
193.381
 31
0.0
  0
LINE
  5
142
  8
0
 62
     7
 10
63.010899999999999
 20
197.791
 30
0.0
 11
64.992800000000003
 21
196.64699999999999
 31
0.0
  0
LINE
  5
143
  8
0
 62
     7
 10
64.992800000000003
 20
196.64699999999999
 30
0.0
 11
63.848700000000001
 21
198.62899999999999
 31
0.0
  0
LINE
  5
144
  8
0
 62
     7
 10
63.848700000000001
 20
198.62899999999999
 30
0.0
 11
63.010899999999999
 21
197.791
 31
0.0
  0
LINE
  5
145
  8
0
 62
     7
 10
56.618099999999998
 20
205.02199999999999
 30
0.0
 11
70.091300000000004
 21
191.54900000000001
 31
0.0
  0
TEXT
  5
146
  8
_________2
 62
     7
 10
22.283000000000001
 20
41.596999999999987
 30
0.0
 40
4.2168199999999993
  1
※壁取付部には厚さ30mm以上の補強材を入れてください。
 41
0.5
  0
LINE
  5
147
  8
_________2
 62
     7
 10
205.30099999999999
 20
127.411
 30
0.0
 11
183.55099999999999
 21
127.411
 31
0.0
  0
LINE
  5
148
  8
_________2
 62
     7
 10
100.3
 20
-4.0910799999999998
 30
0.0
 11
100.3
 21
-21.071000000000002
 31
0.0
  0
LINE
  5
149
  8
_________2
 62
     7
 10
100.3
 20
275.93099999999998
 30
0.0
 11
100.3
 21
258.911
 31
0.0
  0
LINE
  5
14A
  8
_________2
 62
     7
 10
17.049399999999999
 20
127.411
 30
0.0
 11
-4.7010300000000003
 21
127.411
 31
0.0
  0
LINE
  5
14B
  8
_________2
 62
     7
 10
76.740799999999993
 20
29.8047
 30
0.0
 11
74.554599999999994
 21
29.8047
 31
0.0
  0
LINE
  5
14C
  8
_________2
 62
     7
 10
77.233500000000006
 20
29.8047
 30
0.0
 11
76.981300000000005
 21
29.8047
 31
0.0
  0
LINE
  5
14D
  8
_________2
 62
     7
 10
77.726200000000006
 20
29.8047
 30
0.0
 11
80.6511
 21
29.8047
 31
0.0
  0
LINE
  5
14E
  8
_________2
 62
     7
 10
77.233500000000006
 20
29.8047
 30
0.0
 11
77.485699999999994
 21
29.8047
 31
0.0
  0
LINE
  5
14F
  8
_________2
 62
     7
 10
70.837299999999999
 20
29.8047
 30
0.0
 11
68.650300000000001
 21
29.8047
 31
0.0
  0
LINE
  5
150
  8
_________2
 62
     7
 10
71.329300000000003
 20
29.8047
 30
0.0
 11
71.077799999999996
 21
29.8047
 31
0.0
  0
LINE
  5
151
  8
_________2
 62
     7
 10
71.329300000000003
 20
30.2974
 30
0.0
 11
71.329300000000003
 21
32.484400000000001
 31
0.0
  0
LINE
  5
152
  8
_________2
 62
     7
 10
71.329300000000003
 20
29.8047
 30
0.0
 11
71.329300000000003
 21
30.057300000000001
 31
0.0
  0
LINE
  5
153
  8
_________2
 62
     7
 10
71.821899999999999
 20
29.8047
 30
0.0
 11
74.008899999999997
 21
29.8047
 31
0.0
  0
LINE
  5
154
  8
_________2
 62
     7
 10
71.329300000000003
 20
29.8047
 30
0.0
 11
71.581400000000002
 21
29.8047
 31
0.0
  0
LINE
  5
155
  8
_________2
 62
     7
 10
71.329300000000003
 20
29.312799999999999
 30
0.0
 11
71.329300000000003
 21
27.126200000000001
 31
0.0
  0
LINE
  5
156
  8
_________2
 62
     7
 10
71.329300000000003
 20
29.8047
 30
0.0
 11
71.329300000000003
 21
29.5532
 31
0.0
  0
LINE
  5
157
  8
_________2
 62
     7
 10
75.040300000000002
 20
28.5852
 30
0.0
 11
80.218299999999985
 21
27.720400000000001
 31
0.0
  0
LINE
  5
158
  8
_________2
 62
     7
 10
75.040300000000002
 20
31.024699999999999
 30
0.0
 11
80.218299999999985
 21
31.8901
 31
0.0
  0
LINE
  5
159
  8
_________2
 62
     7
 10
80.218299999999985
 20
27.720400000000001
 30
0.0
 11
80.218299999999985
 21
31.8901
 31
0.0
  0
LINE
  5
15A
  8
_________2
 62
     7
 10
75.040300000000002
 20
28.5852
 30
0.0
 11
75.040300000000002
 21
31.024699999999999
 31
0.0
  0
ARC
  5
15B
  8
_________2
 62
     7
 10
71.282674
 20
29.757801000000001
 30
0.0
 40
1.267714
 50
2.1220840000000001
 51
87.894083999999992
  0
ARC
  5
15C
  8
_________2
 62
     7
 10
71.375812999999994
 20
29.758545999999999
 30
0.0
 40
1.2669680000000001
 50
92.105782999999988
 51
177.91037
  0
ARC
  5
15D
  8
_________2
 62
     7
 10
71.376186000000004
 20
29.851671
 30
0.0
 40
1.2673680000000001
 50
182.12203600000001
 51
267.877993
  0
ARC
  5
15E
  8
_________2
 62
     7
 10
71.282368999999989
 20
29.852347999999999
 30
0.0
 40
1.2680439999999991
 50
272.11916400000001
 51
357.84848499999998
  0
ARC
  5
15F
  8
_________2
 62
     7
 10
71.248890000000003
 20
29.724731999999999
 30
0.0
 40
2.1668310000000002
 50
2.1161439999999989
 51
87.874379000000005
  0
ARC
  5
160
  8
_________2
 62
     7
 10
71.408928000000003
 20
29.726146
 30
0.0
 40
2.165392999999999
 50
92.108508999999998
 51
177.91986499999999
  0
ARC
  5
161
  8
_________2
 62
     7
 10
71.409267
 20
29.884751999999999
 30
0.0
 40
2.1657829999999998
 50
182.117133
 51
267.88289700000001
  0
ARC
  5
162
  8
_________2
 62
     7
 10
71.249286999999995
 20
29.885429999999999
 30
0.0
 40
2.1664590000000001
 50
272.11546800000002
 51
357.86560400000002
  0
TEXT
  5
163
  8
_________2
 62
     7
 10
104.605
 20
1.6794899999999999
 30
0.0
 40
3.0923400000000001
  1
図番
 41
0.5
  0
LINE
  5
164
  8
_________2
 62
     7
 10
103.55
 20
5.9087199999999989
 30
0.0
 11
183.55099999999999
 21
5.9087199999999989
 31
0.0
  0
TEXT
  5
165
  8
_________2
 62
     7
 10
104.605
 20
11.6793
 30
0.0
 40
3.0923400000000001
  1
品番
 41
0.5
  0
TEXT
  5
166
  8
_________2
 62
     7
 10
104.605
 20
31.8184
 30
0.0
 40
3.0923400000000001
  1
名称
 41
0.5
  0
TEXT
  5
167
  8
_________2
 62
     7
 10
91.844958333333338
 20
26.822299999999998
 30
0.0
 40
3.6545800000000002
  1
mm
 41
0.5
 72
     1
 11
93.367699999999985
 21
26.822299999999998
 31
0.0
  0
TEXT
  5
168
  8
_________2
 62
     7
 10
85.642999999999986
 20
31.8184
 30
0.0
 40
3.0923400000000001
  1
単位
 41
0.5
  0
TEXT
  5
169
  8
_________2
 62
     7
 10
85.642999999999986
 20
19.410799999999998
 30
0.0
 40
3.0923400000000001
  1
尺度
 41
0.5
  0
TEXT
  5
16A
  8
_________2
 62
     7
 10
90.091736166666678
 20
13.2182
 30
0.0
 40
3.6545800000000002
  1
1 ： 10
 41
0.5
 72
     1
 11
93.959500000000006
 21
13.2182
 31
0.0
  0
TEXT
  5
16B
  8
_________2
 62
     7
 10
133.5467625
 20
9.1082000000000001
 30
0.0
 40
3.9357000000000002
  1
DV071645-00
 41
0.5
 72
     1
 11
143.55000000000001
 21
9.1082000000000001
 31
0.0
  0
TEXT
  5
16C
  8
_________2
 62
     7
 10
136.17056249999999
 20
-0.8926299999999999
 30
0.0
 40
3.9357000000000002
  1
DV071645
 41
0.5
 72
     1
 11
143.55000000000001
 21
-0.8926299999999999
 31
0.0
  0
TEXT
  5
16D
  8
_________2
 62
     7
 10
24.586600000000001
 20
0.707627
 30
0.0
 40
3.9357000000000002
  1
実容量：1.35L、重量：9.3kg、オーバーフロー付
 41
0.5
  0
TEXT
  5
16E
  8
_________2
 62
     7
 10
109.179
 20
24.226099999999999
 30
0.0
 40
3.9357000000000002
  1
ピースリーコンフォート　手洗器
 41
0.5
  0
TEXT
  5
16F
  8
_________2
 62
     7
 10
39.425100333333333
 20
13.603400000000001
 30
0.0
 40
3.6545800000000002
  1
早川
 41
0.5
 72
     1
 11
41.313299999999998
 21
13.603400000000001
 31
0.0
  0
TEXT
  5
170
  8
_________2
 62
     7
 10
20.790190666666671
 20
13.603400000000001
 30
0.0
 40
3.6545800000000002
  1
鈴木
 41
0.5
 72
     1
 11
22.7393
 21
13.603400000000001
 31
0.0
  0
TEXT
  5
171
  8
_________2
 62
     7
 10
67.785600000000002
 20
13.2182
 30
0.0
 40
3.6545800000000002
  1
15.12.15
 41
0.5
  0
TEXT
  5
172
  8
_________2
 62
     7
 10
66.5929
 20
19.410799999999998
 30
0.0
 40
3.0923400000000001
  1
日付
 41
0.5
  0
TEXT
  5
173
  8
_________2
 62
     7
 10
29.639199999999999
 20
19.410799999999998
 30
0.0
 40
3.0923400000000001
  1
検図
 41
0.5
  0
TEXT
  5
174
  8
_________2
 62
     7
 10
18.020900000000001
 20
5.21143
 30
0.0
 40
3.0923400000000001
  1
備考
 41
0.5
  0
TEXT
  5
175
  8
_________2
 62
     7
 10
18.020900000000001
 20
19.410799999999998
 30
0.0
 40
3.0923400000000001
  1
製図
 41
0.5
  0
TEXT
  5
176
  8
_________2
 62
     7
 10
23.788265333333339
 20
27.936800000000002
 30
0.0
 40
4.4979399999999989
  1
セラトレーディング株式会社
 41
0.5
 72
     1
 11
41.180300000000003
 21
27.936800000000002
 31
0.0
  0
LINE
  5
177
  8
_________2
 62
     7
 10
183.55099999999999
 20
-4.0910799999999998
 30
0.0
 11
17.049399999999999
 21
-4.0910799999999998
 31
0.0
  0
LINE
  5
178
  8
_________2
 62
     7
 10
17.049399999999999
 20
-4.0910799999999998
 30
0.0
 11
17.049399999999999
 21
258.911
 31
0.0
  0
LINE
  5
179
  8
_________2
 62
     7
 10
17.049399999999999
 20
258.911
 30
0.0
 11
183.55099999999999
 21
258.911
 31
0.0
  0
LINE
  5
17A
  8
_________2
 62
     7
 10
183.55099999999999
 20
258.911
 30
0.0
 11
183.55099999999999
 21
-4.0910799999999998
 31
0.0
  0
LINE
  5
17B
  8
_________2
 62
     7
 10
65.549700000000001
 20
9.4092999999999982
 30
0.0
 11
65.549700000000001
 21
35.909100000000002
 31
0.0
  0
LINE
  5
17C
  8
_________2
 62
     7
 10
84.549599999999984
 20
9.4092999999999982
 30
0.0
 11
84.549599999999984
 21
35.909100000000002
 31
0.0
  0
LINE
  5
17D
  8
_________2
 62
     7
 10
103.55
 20
-4.0910799999999998
 30
0.0
 11
103.55
 21
35.909100000000002
 31
0.0
  0
LINE
  5
17E
  8
_________2
 62
     7
 10
28.549199999999999
 20
9.4092999999999982
 30
0.0
 11
28.549199999999999
 21
23.409199999999998
 31
0.0
  0
LINE
  5
17F
  8
_________2
 62
     7
 10
17.049399999999999
 20
9.4092999999999982
 30
0.0
 11
103.55
 21
9.4092999999999982
 31
0.0
  0
LINE
  5
180
  8
_________2
 62
     7
 10
17.049399999999999
 20
23.409199999999998
 30
0.0
 11
103.55
 21
23.409199999999998
 31
0.0
  0
LINE
  5
181
  8
_________2
 62
     7
 10
103.55
 20
15.9085
 30
0.0
 11
183.55099999999999
 21
15.9085
 31
0.0
  0
LINE
  5
182
  8
_________2
 62
     7
 10
17.049399999999999
 20
35.909100000000002
 30
0.0
 11
183.55099999999999
 21
35.909100000000002
 31
0.0
  0
ENDSEC
  0
EOF
