  0
SECTION
  2
HEADER
  9
$ACADVER
  1
AC1009
  9
$INSBASE
 10
0.0
 20
0.0
 30
0.0
  9
$EXTMIN
 10
-4.7010300000000003
 20
-21.070999999999991
 30
0.0
  9
$EXTMAX
 10
205.30099999999999
 20
275.93099999999993
 30
0.0
  9
$LIMMIN
 10
0.0
 20
0.0
  9
$LIMMAX
 10
12.0
 20
9.0
  9
$ORTHOMODE
 70
     0
  9
$REGENMODE
 70
     1
  9
$FILLMODE
 70
     1
  9
$QTEXTMODE
 70
     0
  9
$MIRRTEXT
 70
     1
  9
$DRAGMODE
 70
     2
  9
$LTSCALE
 40
1.0
  9
$OSMODE
 70
    37
  9
$ATTMODE
 70
     1
  9
$TEXTSIZE
 40
0.0
  9
$TRACEWID
 40
0.05
  9
$TEXTSTYLE
  7
STANDARD
  9
$CLAYER
  8
0
  9
$CELTYPE
  6
CONTINUOUS
  9
$CECOLOR
 62
   256
  9
$DIMSCALE
 40
1.0
  9
$DIMASZ
 40
0.18
  9
$DIMEXO
 40
0.0625
  9
$DIMDLI
 40
0.38
  9
$DIMRND
 40
0.0
  9
$DIMDLE
 40
0.0
  9
$DIMEXE
 40
0.18
  9
$DIMTP
 40
0.0
  9
$DIMTM
 40
0.0
  9
$DIMTXT
 40
0.18
  9
$DIMCEN
 40
0.09
  9
$DIMTSZ
 40
0.0
  9
$DIMTOL
 70
     0
  9
$DIMLIM
 70
     0
  9
$DIMTIH
 70
     1
  9
$DIMTOH
 70
     1
  9
$DIMSE1
 70
     0
  9
$DIMSE2
 70
     0
  9
$DIMTAD
 70
     0
  9
$DIMZIN
 70
     0
  9
$DIMBLK
  1

  9
$DIMASO
 70
     1
  9
$DIMSHO
 70
     1
  9
$DIMPOST
  1

  9
$DIMAPOST
  1

  9
$DIMALT
 70
     0
  9
$DIMALTD
 70
     2
  9
$DIMALTF
 40
25.399999999999999
  9
$DIMLFAC
 40
1.0
  9
$DIMTOFL
 70
     0
  9
$DIMTVP
 40
0.0
  9
$DIMTIX
 70
     0
  9
$DIMSOXD
 70
     0
  9
$DIMSAH
 70
     0
  9
$DIMBLK1
  1

  9
$DIMBLK2
  1

  9
$DIMSTYLE
  2
STANDARD
  9
$DIMCLRD
 70
     0
  9
$DIMCLRE
 70
     0
  9
$DIMCLRT
 70
     0
  9
$DIMTFAC
 40
1.0
  9
$DIMGAP
 40
0.09
  9
$LUNITS
 70
     2
  9
$LUPREC
 70
     4
  9
$SKETCHINC
 40
0.1
  9
$FILLETRAD
 40
0.0
  9
$AUNITS
 70
     0
  9
$AUPREC
 70
     0
  9
$MENU
  1
.
  9
$ELEVATION
 40
0.0
  9
$PELEVATION
 40
0.0
  9
$THICKNESS
 40
0.0
  9
$LIMCHECK
 70
     0
  9
$BLIPMODE
 70
     0
  9
$CHAMFERA
 40
0.0
  9
$CHAMFERB
 40
0.0
  9
$SKPOLY
 70
     0
  9
$TDCREATE
 40
2444972.375
  9
$TDUPDATE
 40
2453620.2557600811
  9
$TDINDWG
 40
0.0000168171
  9
$TDUSRTIMER
 40
0.0000168171
  9
$USRTIMER
 70
     1
  9
$ANGBASE
 50
0.0
  9
$ANGDIR
 70
     0
  9
$PDMODE
 70
     0
  9
$PDSIZE
 40
0.0
  9
$PLINEWID
 40
0.0
  9
$COORDS
 70
     1
  9
$SPLFRAME
 70
     0
  9
$SPLINETYPE
 70
     6
  9
$SPLINESEGS
 70
     8
  9
$ATTDIA
 70
     0
  9
$ATTREQ
 70
     1
  9
$HANDLING
 70
 22529
  9
$HANDSEED
  5
238
  9
$SURFTAB1
 70
     6
  9
$SURFTAB2
 70
     6
  9
$SURFTYPE
 70
     6
  9
$SURFU
 70
     6
  9
$SURFV
 70
     6
  9
$UCSNAME
  2

  9
$UCSORG
 10
0.0
 20
0.0
 30
0.0
  9
$UCSXDIR
 10
1.0
 20
0.0
 30
0.0
  9
$UCSYDIR
 10
0.0
 20
1.0
 30
0.0
  9
$PUCSNAME
  2

  9
$PUCSORG
 10
0.0
 20
0.0
 30
0.0
  9
$PUCSXDIR
 10
1.0
 20
0.0
 30
0.0
  9
$PUCSYDIR
 10
0.0
 20
1.0
 30
0.0
  9
$USERI1
 70
     0
  9
$USERI2
 70
     0
  9
$USERI3
 70
     0
  9
$USERI4
 70
     0
  9
$USERI5
 70
     0
  9
$USERR1
 40
0.0
  9
$USERR2
 40
0.0
  9
$USERR3
 40
0.0
  9
$USERR4
 40
0.0
  9
$USERR5
 40
0.0
  9
$WORLDVIEW
 70
     1
  9
$SHADEDGE
 70
     3
  9
$SHADEDIF
 70
    70
  9
$TILEMODE
 70
     1
  9
$MAXACTVP
 70
    48
  9
$PLIMCHECK
 70
     0
  9
$PEXTMIN
 10
1.0000000000000000E+020
 20
1.0000000000000000E+020
 30
1.0000000000000000E+020
  9
$PEXTMAX
 10
-1.0000000000000000E+020
 20
-1.0000000000000000E+020
 30
-1.0000000000000000E+020
  9
$PLIMMIN
 10
0.0
 20
0.0
  9
$PLIMMAX
 10
12.0
 20
9.0
  9
$UNITMODE
 70
     0
  9
$VISRETAIN
 70
     1
  9
$PLINEGEN
 70
     0
  9
$PSLTSCALE
 70
     1
  0
ENDSEC
  0
SECTION
  2
TABLES
  0
TABLE
  2
VPORT
 70
     2
  0
VPORT
  2
*ACTIVE
 70
     0
 10
0.0
 20
0.0
 11
1.0
 21
1.0
 12
189.5604812987321
 22
127.42999999999989
 13
0.0
 23
0.0
 14
1.0
 24
1.0
 15
0.0
 25
0.0
 16
0.0
 26
0.0
 36
1.0
 17
0.0
 27
0.0
 37
0.0
 40
299.24634760705283
 41
2.1842105263157889
 42
50.0
 43
0.0
 44
0.0
 50
0.0
 51
0.0
 71
     0
 72
   100
 73
     1
 74
     1
 75
     0
 76
     0
 77
     0
 78
     0
  0
ENDTAB
  0
TABLE
  2
LTYPE
 70
     3
  0
LTYPE
  2
CONTINUOUS
 70
     0
  3
Solid line
 72
    65
 73
     0
 40
0.0
  0
LTYPE
  2
AIGENLINE001
 70
     0
  3
generate AI->DXF Converter
 72
    65
 73
     2
 40
1.5522299999999991
 49
0.776115
 49
-0.776115
  0
LTYPE
  2
AIGENLINE002
 70
     0
  3
generate AI->DXF Converter
 72
    65
 73
     4
 40
5.8561449999999988
 49
3.5278
 49
-0.776115
 49
0.776115
 49
-0.776115
  0
ENDTAB
  0
TABLE
  2
LAYER
 70
     2
  0
LAYER
  2
0
 70
     0
 62
     7
  6
CONTINUOUS
  0
LAYER
  2
_________2
 70
     0
 62
     7
  6
CONTINUOUS
  0
ENDTAB
  0
TABLE
  2
STYLE
 70
     1
  0
STYLE
  2
STANDARD
 70
     0
 40
0.0
 41
0.0
 50
0.0
 71
     0
 42
0.0
  3
TXT
  4
EXTFONT.SHX
  0
ENDTAB
  0
TABLE
  2
VIEW
 70
     0
  0
ENDTAB
  0
TABLE
  2
UCS
 70
     0
  0
ENDTAB
  0
TABLE
  2
APPID
 70
     1
  0
APPID
  2
ACAD
 70
     0
  0
ENDTAB
  0
TABLE
  2
DIMSTYLE
 70
     1
  0
DIMSTYLE
  2
STANDARD
 70
     0
  3

  4

  5

  6

  7

 40
1.0
 41
0.18
 42
0.0625
 43
0.38
 44
0.18
 45
0.0
 46
0.0
 47
0.0
 48
0.0
140
0.18
141
0.09
142
0.0
143
25.399999999999999
144
1.0
145
0.0
146
1.0
147
0.09
 71
     0
 72
     0
 73
     1
 74
     1
 75
     0
 76
     0
 77
     0
 78
     0
170
     0
171
     2
172
     0
173
     0
174
     0
175
     0
176
     0
177
     0
178
     0
  0
ENDTAB
  0
ENDSEC
  0
SECTION
  2
BLOCKS
  0
BLOCK
  8
0
  2
$MODEL_SPACE
 70
     0
 10
0.0
 20
0.0
 30
0.0
  3
$MODEL_SPACE
  1

  0
ENDBLK
  5
1A
  8
0
  0
BLOCK
 67
     1
  8
0
  2
$PAPER_SPACE
 70
     0
 10
0.0
 20
0.0
 30
0.0
  3
$PAPER_SPACE
  1

  0
ENDBLK
  5
17
 67
     1
  8
0
  0
ENDSEC
  0
SECTION
  2
ENTITIES
  0
TEXT
  5
23
  8
0
 62
     7
 10
20.322700000000001
 20
39.18889999999999
 30
0.0
 40
3.9357000000000002
  1
※ハーフペデスタル（DV086517）とセットの施工に当たっては、施工説明書を参照してください。
 41
0.5
  0
TEXT
  5
24
  8
0
 62
     7
 10
145.11000000000001
 20
96.143877500000002
 30
0.0
 40
3.0923400000000001
  1
110
 50
90.0
 41
0.5
 72
     1
 11
145.11000000000001
 21
97.561200000000014
 31
0.0
  0
TEXT
  5
25
  8
0
 62
     7
 10
149.02500000000001
 20
106.3560674999999
 30
0.0
 40
3.0923400000000001
  1
10
 50
90.0
 41
0.5
 72
     1
 11
149.02500000000001
 21
107.258
 31
0.0
  0
TEXT
  5
26
  8
0
 62
     7
 10
126.161
 20
93.000234999999989
 30
0.0
 40
3.0923400000000001
  1
155
 50
90.0
 41
0.5
 72
     1
 11
126.161
 21
94.804100000000005
 31
0.0
  0
TEXT
  5
27
  8
0
 62
     7
 10
104.8179999999999
 20
93.35513499999999
 30
0.0
 40
3.0923400000000001
  1
155
 50
90.0
 41
0.5
 72
     1
 11
104.8179999999999
 21
95.159000000000006
 31
0.0
  0
TEXT
  5
28
  8
0
 62
     7
 10
43.866500000000002
 20
98.940524999999994
 30
0.0
 40
3.0923400000000001
  1
55
 50
90.0
 41
0.5
 72
     1
 11
43.866500000000002
 21
100.2289999999999
 31
0.0
  0
TEXT
  5
29
  8
0
 62
     7
 10
44.2592
 20
109.7753725
 30
0.0
 40
3.0923400000000001
  1
30
 50
90.0
 41
0.5
 72
     1
 11
44.2592
 21
110.935
 31
0.0
  0
TEXT
  5
2A
  8
0
 62
     7
 10
44.008400000000002
 20
190.364135
 30
0.0
 40
3.0923400000000001
  1
165
 50
90.0
 41
0.5
 72
     1
 11
44.008400000000002
 21
192.16800000000001
 31
0.0
  0
TEXT
  5
2B
  8
0
 62
     7
 10
64.759399999999999
 20
183.96252499999991
 30
0.0
 40
3.0923400000000001
  1
45
 50
90.0
 41
0.5
 72
     1
 11
64.759399999999999
 21
185.25099999999989
 31
0.0
  0
TEXT
  5
2C
  8
0
 62
     7
 10
64.759399999999999
 20
194.45752499999989
 30
0.0
 40
3.0923400000000001
  1
35
 50
90.0
 41
0.5
 72
     1
 11
64.759399999999999
 21
195.7459999999999
 31
0.0
  0
TEXT
  5
2D
  8
0
 62
     7
 10
64.759399999999999
 20
204.19937250000001
 30
0.0
 40
3.0923400000000001
  1
30
 50
90.0
 41
0.5
 72
     1
 11
64.759399999999999
 21
205.35900000000001
 31
0.0
  0
TEXT
  5
2E
  8
0
 62
     7
 10
109.401
 20
193.8436774999999
 30
0.0
 40
3.0923400000000001
  1
110
 50
90.0
 41
0.5
 72
     1
 11
109.401
 21
195.26099999999991
 31
0.0
  0
TEXT
  5
2F
  8
0
 62
     7
 10
109.3369999999999
 20
162.52337249999999
 30
0.0
 40
3.0923400000000001
  1
30
 50
90.0
 41
0.5
 72
     1
 11
109.3369999999999
 21
163.68299999999991
 31
0.0
  0
TEXT
  5
30
  8
0
 62
     7
 10
109.401
 20
179.08898249999999
 30
0.0
 40
3.0923400000000001
  1
180
 50
90.0
 41
0.5
 72
     1
 11
109.401
 21
180.76400000000001
 31
0.0
  0
TEXT
  5
31
  8
0
 62
     7
 10
117.29600000000001
 20
182.2762875
 30
0.0
 40
3.0923400000000001
  1
320
 50
90.0
 41
0.5
 72
     1
 11
117.29600000000001
 21
184.20899999999989
 31
0.0
  0
TEXT
  5
32
  8
0
 62
     7
 10
80.979240000000004
 20
185.44
 30
0.0
 40
3.0923400000000001
  1
%%c35
 41
0.5
 72
     1
 11
83.040800000000004
 21
185.44
 31
0.0
  0
TEXT
  5
33
  8
0
 62
     7
 10
80.867739999999998
 20
176.7459999999999
 30
0.0
 40
3.0923400000000001
  1
%%c46
 41
0.5
 72
     1
 11
82.929299999999998
 21
176.7459999999999
 31
0.0
  0
TEXT
  5
34
  8
0
 62
     7
 10
126.81437249999991
 20
114.416
 30
0.0
 40
3.0923400000000001
  1
30
 41
0.5
 72
     1
 11
127.9739999999999
 21
114.416
 31
0.0
  0
TEXT
  5
35
  8
0
 62
     7
 10
159.9705249999999
 20
114.48699999999999
 30
0.0
 40
3.0923400000000001
  1
65
 41
0.5
 72
     1
 11
161.2589999999999
 21
114.48699999999999
 31
0.0
  0
TEXT
  5
36
  8
0
 62
     7
 10
154.18752499999991
 20
114.416
 30
0.0
 40
3.0923400000000001
  1
45
 41
0.5
 72
     1
 11
155.47599999999991
 21
114.416
 31
0.0
  0
TEXT
  5
37
  8
0
 62
     7
 10
154.02813499999991
 20
79.730699999999985
 30
0.0
 40
3.0923400000000001
  1
165
 41
0.5
 72
     1
 11
155.83199999999991
 21
79.730699999999985
 31
0.0
  0
TEXT
  5
38
  8
0
 62
     7
 10
142.94798249999999
 20
114.416
 30
0.0
 40
3.0923400000000001
  1
180
 41
0.5
 72
     1
 11
144.62299999999991
 21
114.416
 31
0.0
  0
TEXT
  5
39
  8
0
 62
     7
 10
147.04928749999991
 20
122.28100000000001
 30
0.0
 40
3.0923400000000001
  1
320
 41
0.5
 72
     1
 11
148.98199999999991
 21
122.28100000000001
 31
0.0
  0
TEXT
  5
3A
  8
0
 62
     7
 10
73.100034999999991
 20
115.261
 30
0.0
 40
3.0923400000000001
  1
200
 41
0.5
 72
     1
 11
74.903899999999993
 21
115.261
 31
0.0
  0
TEXT
  5
3B
  8
0
 62
     7
 10
72.903487500000011
 20
159.70500000000001
 30
0.0
 40
3.0923400000000001
  1
390
 41
0.5
 72
     1
 11
74.836200000000005
 21
159.70500000000001
 31
0.0
  0
TEXT
  5
3C
  8
0
 62
     7
 10
101.0923725
 20
159.70500000000001
 30
0.0
 40
3.0923400000000001
  1
30
 41
0.5
 72
     1
 11
102.252
 21
159.70500000000001
 31
0.0
  0
TEXT
  5
3D
  8
0
 62
     7
 10
46.758472500000003
 20
159.70500000000001
 30
0.0
 40
3.0923400000000001
  1
30
 41
0.5
 72
     1
 11
47.918100000000003
 21
159.70500000000001
 31
0.0
  0
TEXT
  5
3E
  8
0
 62
     7
 10
72.971187499999999
 20
152.31100000000001
 30
0.0
 40
3.0923400000000001
  1
450
 41
0.5
 72
     1
 11
74.903899999999993
 21
152.31100000000001
 31
0.0
  0
ARC
  5
3F
  8
0
  6
AIGENLINE001
 62
     7
 10
69.871887000000001
 20
100.174622
 30
0.0
 40
1.000032
 50
270.004954
 51
0.004925
  0
ARC
  5
40
  8
0
  6
AIGENLINE001
 62
     7
 10
69.872058999999993
 20
100.174622
 30
0.0
 40
1.000030999999999
 50
179.995036
 51
269.99508500000002
  0
ARC
  5
41
  8
0
  6
AIGENLINE001
 62
     7
 10
69.872060000000005
 20
100.17479400000001
 30
0.0
 40
1.000032
 50
90.004935000000003
 51
180.00494499999991
  0
ARC
  5
42
  8
0
  6
AIGENLINE001
 62
     7
 10
69.871887000000001
 20
100.17479400000001
 30
0.0
 40
1.000032
 50
359.99507499999999
 51
89.995045999999988
  0
ARC
  5
43
  8
0
 62
     7
 10
141.2647879999999
 20
92.256932999999989
 30
0.0
 40
0.505265
 50
90.214126999999991
 51
135.2453129999999
  0
ARC
  5
44
  8
0
 62
     7
 10
141.263014
 20
92.261874000000006
 30
0.0
 40
0.50032
 50
60.203065999999993
 51
90.013125000000002
  0
LINE
  5
45
  8
0
 62
     7
 10
163.9379999999999
 20
90.975899999999996
 30
0.0
 11
156.21199999999999
 21
91.570200000000014
 31
0.0
  0
LINE
  5
46
  8
0
 62
     7
 10
134.68600000000001
 20
122.01899999999991
 30
0.0
 11
132.47599999999991
 21
121.42700000000001
 31
0.0
  0
LINE
  5
47
  8
0
 62
     7
 10
132.47599999999991
 20
121.42700000000001
 30
0.0
 11
134.68600000000001
 21
120.83499999999999
 31
0.0
  0
LINE
  5
48
  8
0
 62
     7
 10
134.68600000000001
 20
120.83499999999999
 30
0.0
 11
134.68600000000001
 21
122.01899999999991
 31
0.0
  0
LINE
  5
49
  8
0
 62
     7
 10
162.2649999999999
 20
120.8489999999999
 30
0.0
 11
164.47599999999991
 21
121.4409999999999
 31
0.0
  0
LINE
  5
4A
  8
0
 62
     7
 10
164.47599999999991
 20
121.4409999999999
 30
0.0
 11
162.2649999999999
 21
122.03399999999991
 31
0.0
  0
LINE
  5
4B
  8
0
 62
     7
 10
162.2649999999999
 20
122.03399999999991
 30
0.0
 11
162.2649999999999
 21
120.8489999999999
 31
0.0
  0
LINE
  5
4C
  8
0
 62
     7
 10
132.47599999999991
 20
121.4339999999999
 30
0.0
 11
164.47599999999991
 21
121.4339999999999
 31
0.0
  0
LINE
  5
4D
  8
0
 62
     7
 10
164.47599999999991
 20
106.6929999999999
 30
0.0
 11
164.47599999999991
 21
121.876
 31
0.0
  0
LINE
  5
4E
  8
0
 62
     7
 10
135.47599999999991
 20
113.5
 30
0.0
 11
153.476
 21
113.5
 31
0.0
  0
LINE
  5
4F
  8
0
 62
     7
 10
153.476
 20
113.5
 30
0.0
 11
157.976
 21
113.5
 31
0.0
  0
LINE
  5
50
  8
0
 62
     7
 10
160.18600000000001
 20
114.08499999999989
 30
0.0
 11
157.976
 21
113.494
 31
0.0
  0
LINE
  5
51
  8
0
 62
     7
 10
157.976
 20
113.494
 30
0.0
 11
160.18600000000001
 21
112.901
 31
0.0
  0
LINE
  5
52
  8
0
 62
     7
 10
160.18600000000001
 20
112.901
 30
0.0
 11
160.18600000000001
 21
114.08499999999989
 31
0.0
  0
LINE
  5
53
  8
0
 62
     7
 10
162.2649999999999
 20
112.91500000000001
 30
0.0
 11
164.47599999999991
 21
113.508
 31
0.0
  0
LINE
  5
54
  8
0
 62
     7
 10
164.47599999999991
 20
113.508
 30
0.0
 11
162.2649999999999
 21
114.09999999999999
 31
0.0
  0
LINE
  5
55
  8
0
 62
     7
 10
162.2649999999999
 20
114.09999999999999
 30
0.0
 11
162.2649999999999
 21
112.91500000000001
 31
0.0
  0
LINE
  5
56
  8
0
 62
     7
 10
157.976
 20
113.5
 30
0.0
 11
164.47599999999991
 21
113.5
 31
0.0
  0
LINE
  5
57
  8
0
 62
     7
 10
137.68600000000001
 20
114.08499999999989
 30
0.0
 11
135.47599999999991
 21
113.494
 31
0.0
  0
LINE
  5
58
  8
0
 62
     7
 10
135.47599999999991
 20
113.494
 30
0.0
 11
137.68600000000001
 21
112.901
 31
0.0
  0
LINE
  5
59
  8
0
 62
     7
 10
137.68600000000001
 20
112.901
 30
0.0
 11
137.68600000000001
 21
114.08499999999989
 31
0.0
  0
LINE
  5
5A
  8
0
 62
     7
 10
151.2649999999999
 20
112.91500000000001
 30
0.0
 11
153.476
 21
113.508
 31
0.0
  0
LINE
  5
5B
  8
0
 62
     7
 10
153.476
 20
113.508
 30
0.0
 11
151.2649999999999
 21
114.09999999999999
 31
0.0
  0
LINE
  5
5C
  8
0
 62
     7
 10
151.2649999999999
 20
114.09999999999999
 30
0.0
 11
151.2649999999999
 21
112.91500000000001
 31
0.0
  0
LINE
  5
5D
  8
0
 62
     7
 10
130.2649999999999
 20
112.91500000000001
 30
0.0
 11
132.47599999999991
 21
113.508
 31
0.0
  0
LINE
  5
5E
  8
0
 62
     7
 10
132.47599999999991
 20
113.508
 30
0.0
 11
130.2649999999999
 21
114.09999999999999
 31
0.0
  0
LINE
  5
5F
  8
0
 62
     7
 10
130.2649999999999
 20
114.09999999999999
 30
0.0
 11
130.2649999999999
 21
112.91500000000001
 31
0.0
  0
LINE
  5
60
  8
0
 62
     7
 10
125.8779999999999
 20
113.5
 30
0.0
 11
135.47599999999991
 21
113.5
 31
0.0
  0
LINE
  5
61
  8
0
 62
     7
 10
135.47599999999991
 20
103.69799999999999
 30
0.0
 11
135.47599999999991
 21
114.012
 31
0.0
  0
LINE
  5
62
  8
0
 62
     7
 10
153.476
 20
102.922
 30
0.0
 11
153.476
 21
114.012
 31
0.0
  0
LINE
  5
63
  8
0
 62
     7
 10
157.976
 20
104.892
 30
0.0
 11
157.976
 21
114.012
 31
0.0
  0
LINE
  5
64
  8
0
 62
     7
 10
132.47599999999991
 20
103.6389999999999
 30
0.0
 11
132.47599999999991
 21
121.92399999999989
 31
0.0
  0
LINE
  5
65
  8
0
 62
     7
 10
162.2649999999999
 20
78.311599999999999
 30
0.0
 11
164.47599999999991
 21
78.903899999999993
 31
0.0
  0
LINE
  5
66
  8
0
 62
     7
 10
164.47599999999991
 20
78.903899999999993
 30
0.0
 11
162.2649999999999
 21
79.496099999999984
 31
0.0
  0
LINE
  5
67
  8
0
 62
     7
 10
162.2649999999999
 20
79.496099999999984
 30
0.0
 11
162.2649999999999
 21
78.311599999999999
 31
0.0
  0
LINE
  5
68
  8
0
 62
     7
 10
150.18600000000001
 20
79.4816
 30
0.0
 11
147.97499999999991
 21
78.889399999999995
 31
0.0
  0
LINE
  5
69
  8
0
 62
     7
 10
147.97499999999991
 20
78.889399999999995
 30
0.0
 11
150.18600000000001
 21
78.297200000000004
 31
0.0
  0
LINE
  5
6A
  8
0
 62
     7
 10
150.18600000000001
 20
78.297200000000004
 30
0.0
 11
150.18600000000001
 21
79.4816
 31
0.0
  0
LINE
  5
6B
  8
0
 62
     7
 10
164.47599999999991
 20
78.896600000000007
 30
0.0
 11
147.97599999999991
 21
78.896600000000007
 31
0.0
  0
LINE
  5
6C
  8
0
 62
     7
 10
164.47599999999991
 20
90.347200000000001
 30
0.0
 11
164.47599999999991
 21
78.408500000000004
 31
0.0
  0
LINE
  5
6D
  8
0
 62
     7
 10
147.97599999999991
 20
86.077299999999994
 30
0.0
 11
147.97599999999991
 21
78.408799999999999
 31
0.0
  0
LINE
  5
6E
  8
0
 62
     7
 10
126.37899999999991
 20
89.884799999999998
 30
0.0
 11
126.971
 21
87.674400000000006
 31
0.0
  0
LINE
  5
6F
  8
0
 62
     7
 10
126.971
 20
87.674400000000006
 30
0.0
 11
127.5629999999999
 21
89.884799999999998
 31
0.0
  0
LINE
  5
70
  8
0
 62
     7
 10
127.5629999999999
 20
89.884799999999998
 30
0.0
 11
126.37899999999991
 21
89.884799999999998
 31
0.0
  0
LINE
  5
71
  8
0
 62
     7
 10
127.54900000000001
 20
100.964
 30
0.0
 11
126.956
 21
103.1749999999999
 31
0.0
  0
LINE
  5
72
  8
0
 62
     7
 10
126.956
 20
103.1749999999999
 30
0.0
 11
126.3639999999999
 21
100.964
 31
0.0
  0
LINE
  5
73
  8
0
 62
     7
 10
126.3639999999999
 20
100.964
 30
0.0
 11
127.54900000000001
 21
100.964
 31
0.0
  0
LINE
  5
74
  8
0
 62
     7
 10
126.964
 20
87.674400000000006
 30
0.0
 11
126.964
 21
103.1749999999999
 31
0.0
  0
LINE
  5
75
  8
0
 62
     7
 10
126.41500000000001
 20
87.674400000000006
 30
0.0
 11
144.06999999999991
 21
87.674400000000006
 31
0.0
  0
LINE
  5
76
  8
0
 62
     7
 10
126.41500000000001
 20
103.1749999999999
 30
0.0
 11
132.0989999999999
 21
103.1749999999999
 31
0.0
  0
LINE
  5
77
  8
0
 62
     7
 10
149.12299999999991
 20
105.38500000000001
 30
0.0
 11
149.71499999999989
 21
103.1749999999999
 31
0.0
  0
LINE
  5
78
  8
0
 62
     7
 10
149.71499999999989
 20
103.1749999999999
 30
0.0
 11
150.30799999999991
 21
105.38500000000001
 31
0.0
  0
LINE
  5
79
  8
0
 62
     7
 10
150.30799999999991
 20
105.38500000000001
 30
0.0
 11
149.12299999999991
 21
105.38500000000001
 31
0.0
  0
LINE
  5
7A
  8
0
 62
     7
 10
150.29300000000001
 20
99.963899999999995
 30
0.0
 11
149.70099999999991
 21
102.1749999999999
 31
0.0
  0
LINE
  5
7B
  8
0
 62
     7
 10
149.70099999999991
 20
102.1749999999999
 30
0.0
 11
149.1089999999999
 21
99.963899999999995
 31
0.0
  0
LINE
  5
7C
  8
0
 62
     7
 10
149.1089999999999
 20
99.963899999999995
 30
0.0
 11
150.29300000000001
 21
99.963899999999995
 31
0.0
  0
LINE
  5
7D
  8
0
 62
     7
 10
149.70799999999991
 20
98.737399999999994
 30
0.0
 11
149.70799999999991
 21
109.261
 31
0.0
  0
LINE
  5
7E
  8
0
 62
     7
 10
149.27699999999999
 20
102.1749999999999
 30
0.0
 11
153.05299999999991
 21
102.1749999999999
 31
0.0
  0
LINE
  5
7F
  8
0
 62
     7
 10
146.46299999999991
 20
100.964
 30
0.0
 11
145.87100000000001
 21
103.1749999999999
 31
0.0
  0
LINE
  5
80
  8
0
 62
     7
 10
145.87100000000001
 20
103.1749999999999
 30
0.0
 11
145.279
 21
100.964
 31
0.0
  0
LINE
  5
81
  8
0
 62
     7
 10
145.279
 20
100.964
 30
0.0
 11
146.46299999999991
 21
100.964
 31
0.0
  0
LINE
  5
82
  8
0
 62
     7
 10
145.29300000000001
 20
94.384799999999998
 30
0.0
 11
145.886
 21
92.174499999999995
 31
0.0
  0
LINE
  5
83
  8
0
 62
     7
 10
145.886
 20
92.174499999999995
 30
0.0
 11
146.47799999999989
 21
94.384799999999998
 31
0.0
  0
LINE
  5
84
  8
0
 62
     7
 10
146.47799999999989
 20
94.384799999999998
 30
0.0
 11
145.29300000000001
 21
94.384799999999998
 31
0.0
  0
LINE
  5
85
  8
0
 62
     7
 10
145.8779999999999
 20
103.1749999999999
 30
0.0
 11
145.8779999999999
 21
92.174499999999995
 31
0.0
  0
ARC
  5
86
  8
0
 62
     7
 10
133.68885800000001
 20
100.2673069999999
 30
0.0
 40
1.029930999999999
 50
17.003247999999999
 51
42.454132999999999
  0
ARC
  5
87
  8
0
 62
     7
 10
133.228611
 20
99.859870000000015
 30
0.0
 40
1.6445590000000001
 50
42.103907
 51
79.061701999999997
  0
ARC
  5
88
  8
0
 62
     7
 10
133.25990100000001
 20
99.852671000000015
 30
0.0
 40
0.821732
 50
18.498132999999999
 51
88.895601999999997
  0
ARC
  5
89
  8
0
 62
     7
 10
139.675037
 20
92.070492999999985
 30
0.0
 40
0.496176
 50
243.61769200000001
 51
270.08043300000003
  0
ARC
  5
8A
  8
0
 62
     7
 10
139.67576999999989
 20
92.075716999999997
 30
0.0
 40
0.501399
 50
269.99583899999988
 51
306.06993599999998
  0
LINE
  5
8B
  8
0
 62
     7
 10
144.429
 20
90.979699999999994
 30
0.0
 11
141.51199999999989
 21
92.695999999999998
 31
0.0
  0
ARC
  5
8C
  8
0
 62
     7
 10
139.676805
 20
93.073848999999996
 30
0.0
 40
0.6201640000000001
 50
224.76406099999991
 51
256.35044699999997
  0
ARC
  5
8D
  8
0
 62
     7
 10
139.57169400000001
 20
92.752813000000003
 30
0.0
 40
0.284617
 50
261.66940399999999
 51
312.0180049999999
  0
ARC
  5
8E
  8
0
 62
     7
 10
140.186204
 20
93.333157999999983
 30
0.0
 40
0.256676
 50
315.59639199999998
 51
8.4271410000000007
  0
ARC
  5
8F
  8
0
 62
     7
 10
140.08198899999999
 20
93.332110999999983
 30
0.0
 40
0.3602
 50
6.161842
 51
56.190047
  0
ARC
  5
90
  8
0
 62
     7
 10
144.165817
 20
90.542806999999996
 30
0.0
 40
0.5101899999999999
 50
0.623817
 51
58.905357999999993
  0
LINE
  5
91
  8
0
 62
     7
 10
149.976
 20
89.974400000000003
 30
0.0
 11
149.976
 21
89.174400000000006
 31
0.0
  0
LINE
  5
92
  8
0
 62
     7
 10
148.97599999999991
 20
88.674199999999999
 30
0.0
 11
149.476
 21
88.674199999999999
 31
0.0
  0
ARC
  5
93
  8
0
 62
     7
 10
149.4757139999999
 20
89.174448999999996
 30
0.0
 40
0.5002310000000002
 50
270.00002000000001
 51
359.99998999999991
  0
LINE
  5
94
  8
0
 62
     7
 10
148.97599999999991
 20
90.474599999999995
 30
0.0
 11
149.476
 21
90.474599999999995
 31
0.0
  0
ARC
  5
95
  8
0
 62
     7
 10
149.4757139999999
 20
89.974405000000004
 30
0.0
 40
0.5002310000000002
 50
0.00001
 51
89.999980000000008
  0
LINE
  5
96
  8
0
 62
     7
 10
148.476
 20
89.974400000000003
 30
0.0
 11
148.476
 21
89.174400000000006
 31
0.0
  0
ARC
  5
97
  8
0
 62
     7
 10
148.99520100000001
 20
89.193464000000006
 30
0.0
 40
0.5196069999999999
 50
182.09724499999999
 51
267.86331200000001
  0
ARC
  5
98
  8
0
 62
     7
 10
148.99488899999989
 20
89.955701000000005
 30
0.0
 40
0.519285
 50
92.103645999999998
 51
177.93579800000001
  0
LINE
  5
99
  8
0
 62
     7
 10
151.27600000000001
 20
88.174700000000001
 30
0.0
 11
151.476
 21
88.174700000000001
 31
0.0
  0
LINE
  5
9A
  8
0
 62
     7
 10
133.54099999999991
 20
102.3749999999999
 30
0.0
 11
134.27600000000001
 21
102.3749999999999
 31
0.0
  0
ARC
  5
9B
  8
0
 62
     7
 10
134.2603499999999
 20
101.959288
 30
0.0
 40
0.415762
 50
2.0882309999999991
 51
87.862430000000003
  0
LINE
  5
9C
  8
0
 62
     7
 10
133.14099999999991
 20
101.9739999999999
 30
0.0
 11
133.14099999999991
 21
101.875
 31
0.0
  0
ARC
  5
9D
  8
0
 62
     7
 10
133.55584400000001
 20
101.88970399999999
 30
0.0
 40
0.41543
 50
182.09337400000001
 51
267.90665499999989
  0
ARC
  5
9E
  8
0
 62
     7
 10
133.555868
 20
101.95959599999991
 30
0.0
 40
0.415442
 50
92.096645999999993
 51
177.952653
  0
LINE
  5
9F
  8
0
 62
     7
 10
134.67599999999999
 20
103.1749999999999
 30
0.0
 11
160.47599999999991
 21
103.1749999999999
 31
0.0
  0
LINE
  5
A0
  8
0
 62
     7
 10
133.27600000000001
 20
103.1749999999999
 30
0.0
 11
134.67599999999999
 21
103.1749999999999
 31
0.0
  0
ARC
  5
A1
  8
0
 62
     7
 10
150.56703399999989
 20
107.00050299999999
 30
0.0
 40
16.867314999999991
 50
212.698937
 51
232.42957100000001
  0
ARC
  5
A2
  8
0
 62
     7
 10
148.19257400000001
 20
105.19269199999989
 30
0.0
 40
13.894581000000001
 50
193.39245099999991
 51
211.715124
  0
ARC
  5
A3
  8
0
 62
     7
 10
153.53394900000001
 20
109.98275700000001
 30
0.0
 40
20.211166999999989
 50
219.45626799999999
 51
241.77679499999999
  0
ARC
  5
A4
  8
0
 62
     7
 10
149.13799900000001
 20
106.1412659999999
 30
0.0
 40
14.37682
 50
206.91538700000001
 51
218.7688839999999
  0
ARC
  5
A5
  8
0
 62
     7
 10
144.5527219999999
 20
103.7257279999999
 30
0.0
 40
9.1951199999999993
 50
191.996836
 51
206.42784800000001
  0
ARC
  5
A6
  8
0
 62
     7
 10
141.677515
 20
103.0032089999999
 30
0.0
 40
6.2334839999999989
 50
185.78630999999999
 51
190.99392599999999
  0
ARC
  5
A7
  8
0
 62
     7
 10
145.64788899999991
 20
101.2517969999999
 30
0.0
 40
10.738647
 50
202.95907600000001
 51
233.341779
  0
ARC
  5
A8
  8
0
 62
     7
 10
150.051716
 20
103.27316500000001
 30
0.0
 40
15.582760999999991
 50
195.709216
 51
203.486446
  0
ARC
  5
A9
  8
0
 62
     7
 10
156.50533200000001
 20
105.2023129999999
 30
0.0
 40
22.31791999999999
 50
191.98340999999991
 51
195.99095399999999
  0
ARC
  5
AA
  8
0
 62
     7
 10
143.890997
 20
99.822824999999995
 30
0.0
 40
9.3204100000000007
 50
208.52284399999991
 51
241.57605899999999
  0
ARC
  5
AB
  8
0
 62
     7
 10
147.63560200000001
 20
101.96488599999989
 30
0.0
 40
13.633698000000001
 50
196.55802600000001
 51
208.917843
  0
ARC
  5
AC
  8
0
 62
     7
 10
155.617547
 20
104.630572
 30
0.0
 40
22.046111
 50
191.82350099999999
 51
197.28678500000001
  0
ARC
  5
AD
  8
0
 62
     7
 10
134.645239
 20
102.34416400000001
 30
0.0
 40
0.8311159999999999
 50
2.109726999999999
 51
87.890263000000004
  0
LINE
  5
AE
  8
0
 62
     7
 10
132.47599999999991
 20
102.3749999999999
 30
0.0
 11
132.47599999999991
 21
101.47499999999999
 31
0.0
  0
ARC
  5
AF
  8
0
 62
     7
 10
133.30633499999999
 20
102.34416400000001
 30
0.0
 40
0.8311149999999999
 50
92.109700000000004
 51
177.8902709999999
  0
ARC
  5
B0
  8
0
 62
     7
 10
133.3063249999999
 20
101.505137
 30
0.0
 40
0.8311049999999999
 50
182.10906799999989
 51
267.890962
  0
LINE
  5
B1
  8
0
 62
     7
 10
161.976
 20
99.174199999999985
 30
0.0
 11
161.976
 21
93.074299999999994
 31
0.0
  0
LINE
  5
B2
  8
0
 62
     7
 10
161.976
 20
100.675
 30
0.0
 11
161.976
 21
99.174199999999985
 31
0.0
  0
LINE
  5
B3
  8
0
 62
     7
 10
156.976
 20
99.674499999999995
 30
0.0
 11
161.47599999999991
 21
99.674499999999995
 31
0.0
  0
ARC
  5
B4
  8
0
 62
     7
 10
161.45671299999989
 20
99.155225999999999
 30
0.0
 40
0.5196130000000001
 50
2.0977749999999991
 51
87.862741999999983
  0
LINE
  5
B5
  8
0
 62
     7
 10
156.47599999999991
 20
99.174199999999985
 30
0.0
 11
156.47599999999991
 21
93.174199999999999
 31
0.0
  0
LINE
  5
B6
  8
0
 62
     7
 10
156.47599999999991
 20
100.675
 30
0.0
 11
156.47599999999991
 21
99.174199999999985
 31
0.0
  0
ARC
  5
B7
  8
0
 62
     7
 10
156.976079
 20
99.174245999999997
 30
0.0
 40
0.5002310000000002
 50
90.0
 51
179.99996999999991
  0
LINE
  5
B8
  8
0
 62
     7
 10
156.976
 20
101.17399999999989
 30
0.0
 11
161.47599999999991
 21
101.17399999999989
 31
0.0
  0
LINE
  5
B9
  8
0
 62
     7
 10
154.65999999999991
 20
101.17399999999989
 30
0.0
 11
156.976
 21
101.17399999999989
 31
0.0
  0
ARC
  5
BA
  8
0
 62
     7
 10
156.99510000000001
 20
100.65521699999999
 30
0.0
 40
0.5196130000000001
 50
92.097764999999995
 51
177.86273199999999
  0
ARC
  5
BB
  8
0
 62
     7
 10
151.47612100000001
 20
93.174402999999984
 30
0.0
 40
4.999727
 50
269.99804599999987
 51
359.99801600000001
  0
LINE
  5
BC
  8
0
 62
     7
 10
154.16199999999989
 20
100.7139999999999
 30
0.0
 11
153.54900000000001
 21
93.061199999999985
 31
0.0
  0
LINE
  5
BD
  8
0
 62
     7
 10
151.52199999999999
 20
90.979699999999994
 30
0.0
 11
152.66799999999989
 21
91.653199999999984
 31
0.0
  0
ARC
  5
BE
  8
0
 62
     7
 10
151.72628999999989
 20
93.222615000000005
 30
0.0
 40
1.8300609999999999
 50
300.95525600000002
 51
354.9407819999999
  0
LINE
  5
BF
  8
0
 62
     7
 10
151.27600000000001
 20
90.548400000000001
 30
0.0
 11
151.27600000000001
 21
87.874300000000005
 31
0.0
  0
ARC
  5
C0
  8
0
 62
     7
 10
151.7867149999999
 20
90.54236800000001
 30
0.0
 40
0.5109620000000001
 50
121.1428839999999
 51
179.327901
  0
LINE
  5
C1
  8
0
 62
     7
 10
152.05600000000001
 20
92.221699999999998
 30
0.0
 11
150.27600000000001
 21
91.174700000000001
 31
0.0
  0
LINE
  5
C2
  8
0
 62
     7
 10
145.67599999999999
 20
91.174700000000001
 30
0.0
 11
143.97599999999991
 21
92.174499999999995
 31
0.0
  0
LINE
  5
C3
  8
0
 62
     7
 10
145.67599999999999
 20
91.174700000000001
 30
0.0
 11
150.27600000000001
 21
91.174700000000001
 31
0.0
  0
LINE
  5
C4
  8
0
 62
     7
 10
150.27600000000001
 20
91.174700000000001
 30
0.0
 11
150.27600000000001
 21
87.674400000000006
 31
0.0
  0
LINE
  5
C5
  8
0
 62
     7
 10
145.67599999999999
 20
91.174700000000001
 30
0.0
 11
145.67599999999999
 21
87.674400000000006
 31
0.0
  0
LINE
  5
C6
  8
0
 62
     7
 10
144.876
 20
87.674400000000006
 30
0.0
 11
151.07599999999991
 21
87.674400000000006
 31
0.0
  0
ARC
  5
C7
  8
0
 62
     7
 10
151.06832700000001
 20
87.881906000000001
 30
0.0
 40
0.207602
 50
272.11026199999998
 51
357.889748
  0
LINE
  5
C8
  8
0
 62
     7
 10
140.37
 20
93.153599999999997
 30
0.0
 11
139.762
 21
92.541399999999996
 31
0.0
  0
LINE
  5
C9
  8
0
 62
     7
 10
140.90600000000001
 20
92.612700000000004
 30
0.0
 11
139.971
 21
91.670400000000001
 31
0.0
  0
LINE
  5
CA
  8
0
 62
     7
 10
144.67599999999999
 20
90.548400000000001
 30
0.0
 11
144.67599999999999
 21
87.874300000000005
 31
0.0
  0
ARC
  5
CB
  8
0
 62
     7
 10
144.88335299999989
 20
87.881821000000002
 30
0.0
 40
0.207514
 50
182.08772999999999
 51
267.91229900000002
  0
LINE
  5
CC
  8
0
 62
     7
 10
163.47599999999991
 20
99.674499999999995
 30
0.0
 11
162.476
 21
99.674499999999995
 31
0.0
  0
LINE
  5
CD
  8
0
  6
AIGENLINE002
 62
     7
 10
147.97599999999991
 20
93.052299999999988
 30
0.0
 11
147.97599999999991
 21
86.6905
 31
0.0
  0
ARC
  5
CE
  8
0
 62
     7
 10
154.67689399999989
 20
100.656381
 30
0.0
 40
0.5183670000000001
 50
91.837585000000004
 51
173.59432100000001
  0
LINE
  5
CF
  8
0
 62
     7
 10
153.43899999999991
 20
101.7149999999999
 30
0.0
 11
152.75
 21
93.094599999999986
 31
0.0
  0
LINE
  5
D0
  8
0
 62
     7
 10
143.97599999999991
 20
92.174499999999995
 30
0.0
 11
151.7529999999999
 21
92.174499999999995
 31
0.0
  0
ARC
  5
D1
  8
0
 62
     7
 10
151.71947800000001
 20
93.210560000000001
 30
0.0
 40
1.036632999999999
 50
271.83060699999999
 51
353.57996000000003
  0
LINE
  5
D2
  8
0
 62
     7
 10
153.9379999999999
 20
102.1749999999999
 30
0.0
 11
160.47599999999991
 21
102.1749999999999
 31
0.0
  0
ARC
  5
D3
  8
0
 62
     7
 10
153.95443
 20
101.65648
 30
0.0
 40
0.518385
 50
91.83501600000001
 51
173.55412499999991
  0
LINE
  5
D4
  8
0
 62
     7
 10
159.726
 20
102.1749999999999
 30
0.0
 11
159.726
 21
101.17399999999989
 31
0.0
  0
LINE
  5
D5
  8
0
 62
     7
 10
156.226
 20
102.1749999999999
 30
0.0
 11
156.226
 21
101.17399999999989
 31
0.0
  0
LINE
  5
D6
  8
0
  6
AIGENLINE002
 62
     7
 10
157.976
 20
104.267
 30
0.0
 11
157.976
 21
100.078
 31
0.0
  0
LINE
  5
D7
  8
0
 62
     7
 10
164.47599999999991
 20
93.074299999999994
 30
0.0
 11
164.47599999999991
 21
91.474400000000017
 31
0.0
  0
ARC
  5
D8
  8
0
 62
     7
 10
163.95842999999991
 20
91.494744999999995
 30
0.0
 40
0.5192610000000001
 50
267.70401600000002
 51
353.52280799999988
  0
ARC
  5
D9
  8
0
 62
     7
 10
163.99991799999989
 20
91.476699999999994
 30
0.0
 40
0.476187
 50
355.11729400000002
 51
359.72441099999992
  0
LINE
  5
DA
  8
0
 62
     7
 10
164.47599999999991
 20
106.1749999999999
 30
0.0
 11
162.27600000000001
 21
106.1749999999999
 31
0.0
  0
LINE
  5
DB
  8
0
 62
     7
 10
163.47599999999991
 20
104.92399999999989
 30
0.0
 11
163.47599999999991
 21
97.024500000000003
 31
0.0
  0
LINE
  5
DC
  8
0
 62
     7
 10
163.226
 20
96.7744
 30
0.0
 11
162.72599999999991
 21
96.7744
 31
0.0
  0
ARC
  5
DD
  8
0
 62
     7
 10
163.216354
 20
97.034004999999993
 30
0.0
 40
0.259802
 50
272.09822200000002
 51
357.90178800000001
  0
LINE
  5
DE
  8
0
 62
     7
 10
162.476
 20
104.92399999999989
 30
0.0
 11
162.476
 21
97.024500000000003
 31
0.0
  0
ARC
  5
DF
  8
0
 62
     7
 10
162.7354709999999
 20
97.033985000000001
 30
0.0
 40
0.259781
 50
182.09390200000001
 51
267.90612799999991
  0
LINE
  5
E0
  8
0
 62
     7
 10
163.226
 20
105.1749999999999
 30
0.0
 11
162.72599999999991
 21
105.1749999999999
 31
0.0
  0
ARC
  5
E1
  8
0
 62
     7
 10
163.22586599999991
 20
104.9244909999999
 30
0.0
 40
0.250116
 50
0.00001
 51
89.999980000000008
  0
ARC
  5
E2
  8
0
 62
     7
 10
162.72597999999999
 20
104.9244909999999
 30
0.0
 40
0.250116
 50
90.0
 51
179.99996999999991
  0
LINE
  5
E3
  8
0
 62
     7
 10
164.1759999999999
 20
95.774600000000007
 30
0.0
 11
162.27600000000001
 21
95.774600000000007
 31
0.0
  0
ARC
  5
E4
  8
0
 62
     7
 10
162.28707700000001
 20
96.085716000000005
 30
0.0
 40
0.311307
 50
182.096136
 51
267.96971300000001
  0
ARC
  5
E5
  8
0
 62
     7
 10
164.1647899999999
 20
96.085926999999998
 30
0.0
 40
0.311525
 50
272.06760800000001
 51
357.86658299999988
  0
LINE
  5
E6
  8
0
 62
     7
 10
164.1759999999999
 20
92.774600000000007
 30
0.0
 11
162.27600000000001
 21
92.774600000000007
 31
0.0
  0
ARC
  5
E7
  8
0
 62
     7
 10
162.28707700000001
 20
93.085707999999997
 30
0.0
 40
0.311307
 50
182.096136
 51
267.96971300000001
  0
LINE
  5
E8
  8
0
 62
     7
 10
164.47599999999991
 20
106.1749999999999
 30
0.0
 11
164.47599999999991
 21
93.074299999999994
 31
0.0
  0
ARC
  5
E9
  8
0
 62
     7
 10
164.1647899999999
 20
93.08591899999999
 30
0.0
 40
0.311525
 50
272.06760800000001
 51
357.86658299999988
  0
ARC
  5
EA
  8
0
 62
     7
 10
161.457054
 20
100.6555569999999
 30
0.0
 40
0.519273
 50
2.101032
 51
87.898957999999993
  0
LINE
  5
EB
  8
0
 62
     7
 10
161.47599999999991
 20
104.17399999999989
 30
0.0
 11
161.47599999999991
 21
103.1749999999999
 31
0.0
  0
ARC
  5
EC
  8
0
 62
     7
 10
160.43732900000001
 20
103.2133619999999
 30
0.0
 40
1.039480999999999
 50
272.13060899999999
 51
357.86940099999993
  0
LINE
  5
ED
  8
0
 62
     7
 10
161.47599999999991
 20
105.3749999999999
 30
0.0
 11
161.47599999999991
 21
104.17399999999989
 31
0.0
  0
ARC
  5
EE
  8
0
 62
     7
 10
160.437353
 20
104.21346799999991
 30
0.0
 40
1.0394699999999999
 50
272.12929100000002
 51
357.850979
  0
LINE
  5
EF
  8
0
 62
     7
 10
164.47599999999991
 20
106.1749999999999
 30
0.0
 11
162.27600000000001
 21
106.1749999999999
 31
0.0
  0
ARC
  5
F0
  8
0
 62
     7
 10
162.30663300000001
 20
105.3441819999999
 30
0.0
 40
0.8311049999999999
 50
92.109037999999998
 51
177.89093199999999
  0
LINE
  5
F1
  8
0
 62
     7
 10
106.14099999999991
 20
100.964
 30
0.0
 11
105.5479999999999
 21
103.1749999999999
 31
0.0
  0
LINE
  5
F2
  8
0
 62
     7
 10
105.5479999999999
 20
103.1749999999999
 30
0.0
 11
104.956
 21
100.964
 31
0.0
  0
LINE
  5
F3
  8
0
 62
     7
 10
104.956
 20
100.964
 30
0.0
 11
106.14099999999991
 21
100.964
 31
0.0
  0
LINE
  5
F4
  8
0
 62
     7
 10
104.971
 20
89.884799999999998
 30
0.0
 11
105.5629999999999
 21
87.674400000000006
 31
0.0
  0
LINE
  5
F5
  8
0
 62
     7
 10
105.5629999999999
 20
87.674400000000006
 30
0.0
 11
106.1549999999999
 21
89.884799999999998
 31
0.0
  0
LINE
  5
F6
  8
0
 62
     7
 10
106.1549999999999
 20
89.884799999999998
 30
0.0
 11
104.971
 21
89.884799999999998
 31
0.0
  0
LINE
  5
F7
  8
0
 62
     7
 10
105.556
 20
103.1749999999999
 30
0.0
 11
105.556
 21
87.674400000000006
 31
0.0
  0
LINE
  5
F8
  8
0
 62
     7
 10
44.849899999999991
 20
103.1749999999999
 30
0.0
 11
44.849899999999991
 21
112.877
 31
0.0
  0
LINE
  5
F9
  8
0
 62
     7
 10
44.272199999999998
 20
108.386
 30
0.0
 11
44.864400000000003
 21
106.1749999999999
 31
0.0
  0
LINE
  5
FA
  8
0
 62
     7
 10
44.864400000000003
 20
106.1749999999999
 30
0.0
 11
45.456799999999987
 21
108.386
 31
0.0
  0
LINE
  5
FB
  8
0
 62
     7
 10
45.456799999999987
 20
108.386
 30
0.0
 11
44.272199999999998
 21
108.386
 31
0.0
  0
LINE
  5
FC
  8
0
 62
     7
 10
44.272199999999998
 20
99.885300000000001
 30
0.0
 11
44.864400000000003
 21
97.674200000000013
 31
0.0
  0
LINE
  5
FD
  8
0
 62
     7
 10
44.864400000000003
 20
97.674200000000013
 30
0.0
 11
45.456799999999987
 21
99.885300000000001
 31
0.0
  0
LINE
  5
FE
  8
0
 62
     7
 10
45.456799999999987
 20
99.885300000000001
 30
0.0
 11
44.272199999999998
 21
99.885300000000001
 31
0.0
  0
LINE
  5
FF
  8
0
 62
     7
 10
45.442100000000003
 20
100.964
 30
0.0
 11
44.849899999999991
 21
103.1749999999999
 31
0.0
  0
LINE
  5
100
  8
0
 62
     7
 10
44.849899999999991
 20
103.1749999999999
 30
0.0
 11
44.257499999999993
 21
100.964
 31
0.0
  0
LINE
  5
101
  8
0
 62
     7
 10
44.257499999999993
 20
100.964
 30
0.0
 11
45.442100000000003
 21
100.964
 31
0.0
  0
LINE
  5
102
  8
0
 62
     7
 10
44.857100000000003
 20
97.674599999999984
 30
0.0
 11
44.857100000000003
 21
103.1749999999999
 31
0.0
  0
LINE
  5
103
  8
0
 62
     7
 10
44.287700000000001
 20
97.674200000000013
 30
0.0
 11
60.660899999999991
 21
97.674200000000013
 31
0.0
  0
LINE
  5
104
  8
0
 62
     7
 10
44.287300000000002
 20
106.1749999999999
 30
0.0
 11
51.851100000000002
 21
106.1749999999999
 31
0.0
  0
LINE
  5
105
  8
0
 62
     7
 10
51.198599999999999
 20
103.1749999999999
 30
0.0
 11
44.210799999999992
 21
103.1749999999999
 31
0.0
  0
LINE
  5
106
  8
0
 62
     7
 10
106.4829999999999
 20
103.1749999999999
 30
0.0
 11
98.510699999999986
 21
103.1749999999999
 31
0.0
  0
LINE
  5
107
  8
0
 62
     7
 10
106.4829999999999
 20
87.674400000000006
 30
0.0
 11
79.130899999999997
 21
87.674400000000006
 31
0.0
  0
LINE
  5
108
  8
0
 62
     7
 10
71.771799999999985
 20
87.674400000000006
 30
0.0
 11
77.971999999999994
 21
87.674400000000006
 31
0.0
  0
ARC
  5
109
  8
0
 62
     7
 10
77.964322999999993
 20
87.881900000000002
 30
0.0
 40
0.207595
 50
272.10857299999992
 51
357.891437
  0
LINE
  5
10A
  8
0
 62
     7
 10
78.1721
 20
91.571600000000004
 30
0.0
 11
78.1721
 21
87.874300000000005
 31
0.0
  0
ARC
  5
10B
  8
0
 62
     7
 10
77.964745999999991
 20
87.881821000000002
 30
0.0
 40
0.207514
 50
272.087738
 51
357.91227199999997
  0
ARC
  5
10C
  8
0
 62
     7
 10
85.123827000000006
 20
91.973673000000005
 30
0.0
 40
0.9991520000000002
 50
269.91253499999999
 51
286.95119299999988
  0
ARC
  5
10D
  8
0
 62
     7
 10
85.122546999999983
 20
91.979353000000003
 30
0.0
 40
1.004829999999999
 50
255.105368
 51
269.98605600000002
  0
ARC
  5
10E
  8
0
 62
     7
 10
96.403267000000014
 20
99.843716999999998
 30
0.0
 40
0.8314530000000001
 50
92.132199
 51
177.89244099999991
  0
ARC
  5
10F
  8
0
 62
     7
 10
81.830933000000016
 20
104.12164199999999
 30
0.0
 40
14.38288
 50
328.87500599999993
 51
342.82412499999992
  0
ARC
  5
110
  8
0
 62
     7
 10
84.691081000000011
 20
102.6233729999999
 30
0.0
 40
11.161726
 50
297.38741699999991
 51
327.86961500000001
  0
ARC
  5
111
  8
0
 62
     7
 10
81.530674000000005
 20
108.0855169999999
 30
0.0
 40
17.467922999999999
 50
287.36985399999998
 51
298.35037299999988
  0
ARC
  5
112
  8
0
 62
     7
 10
78.329775999999995
 20
117.23858199999999
 30
0.0
 40
27.161090999999999
 50
285.12136499999991
 51
288.04993899999999
  0
ARC
  5
113
  8
0
 62
     7
 10
83.057596000000004
 20
85.327965000000006
 30
0.0
 40
5.960710999999999
 50
72.356351000000004
 51
77.247095999999999
  0
ARC
  5
114
  8
0
 62
     7
 10
82.09469399999999
 20
81.163859000000002
 30
0.0
 40
10.234669999999991
 50
77.135491999999999
 51
81.679302000000007
  0
ARC
  5
115
  8
0
 62
     7
 10
80.951537999999999
 20
73.463315000000009
 30
0.0
 40
18.019593
 50
81.62604300000001
 51
85.000653000000014
  0
ARC
  5
116
  8
0
 62
     7
 10
79.715553999999983
 20
59.420819999999992
 30
0.0
 40
32.116377
 50
84.987167000000014
 51
87.531137999999984
  0
ARC
  5
117
  8
0
 62
     7
 10
78.339328000000009
 20
27.739967
 30
0.0
 40
63.827106000000008
 50
87.521931999999978
 51
89.331015000000008
  0
ARC
  5
118
  8
0
 62
     7
 10
76.240953000000005
 20
-176.31088899999989
 30
0.0
 40
267.88870400000002
 50
89.391793999999976
 51
90.292772000000014
  0
LINE
  5
119
  8
0
 62
     7
 10
71.572000000000003
 20
91.571600000000004
 30
0.0
 11
71.572000000000003
 21
87.874300000000005
 31
0.0
  0
ARC
  5
11A
  8
0
 62
     7
 10
71.779343000000011
 20
87.881821000000002
 30
0.0
 40
0.207514
 50
182.08772999999999
 51
267.91229900000002
  0
ARC
  5
11B
  8
0
 62
     7
 10
64.620724999999993
 20
91.976795999999979
 30
0.0
 40
1.002273999999999
 50
253.0755639999999
 51
270.06074799999988
  0
ARC
  5
11C
  8
0
 62
     7
 10
64.622703000000001
 20
91.970484999999996
 30
0.0
 40
0.9959629999999998
 50
269.94734399999987
 51
284.96127200000001
  0
ARC
  5
11D
  8
0
 62
     7
 10
53.340822000000003
 20
99.843716999999998
 30
0.0
 40
0.831454
 50
2.1075560000000002
 51
87.867763999999994
  0
LINE
  5
11E
  8
0
 62
     7
 10
97.210899999999995
 20
102.4469999999999
 30
0.0
 11
97.292900000000003
 21
101.547
 31
0.0
  0
LINE
  5
11F
  8
0
 62
     7
 10
53.247700000000002
 20
100.675
 30
0.0
 11
96.496000000000009
 21
100.675
 31
0.0
  0
ARC
  5
120
  8
0
 62
     7
 10
96.465416000000005
 20
101.50514699999989
 30
0.0
 40
0.8311159999999999
 50
272.10973699999988
 51
357.89027299999992
  0
ARC
  5
121
  8
0
 62
     7
 10
96.438877000000005
 20
101.474405
 30
0.0
 40
0.8570919999999999
 50
0.00978
 51
4.875049999999999
  0
LINE
  5
122
  8
0
 62
     7
 10
52.532899999999991
 20
102.4469999999999
 30
0.0
 11
52.4512
 21
101.547
 31
0.0
  0
ARC
  5
123
  8
0
 62
     7
 10
53.281219999999998
 20
101.502135
 30
0.0
 40
0.8312039999999999
 50
176.9128629999999
 51
262.68486599999989
  0
LINE
  5
124
  8
0
 62
     7
 10
53.17540000000001
 20
100.678
 30
0.0
 11
53.247700000000002
 21
100.675
 31
0.0
  0
LINE
  5
125
  8
0
 62
     7
 10
67.082300000000004
 20
114.806
 30
0.0
 11
64.871899999999997
 21
114.2139999999999
 31
0.0
  0
LINE
  5
126
  8
0
 62
     7
 10
64.871899999999997
 20
114.2139999999999
 30
0.0
 11
67.082300000000004
 21
113.621
 31
0.0
  0
LINE
  5
127
  8
0
 62
     7
 10
67.082300000000004
 20
113.621
 30
0.0
 11
67.082300000000004
 21
114.806
 31
0.0
  0
LINE
  5
128
  8
0
 62
     7
 10
82.661100000000005
 20
113.636
 30
0.0
 11
84.871700000000004
 21
114.22799999999989
 31
0.0
  0
LINE
  5
129
  8
0
 62
     7
 10
84.871700000000004
 20
114.22799999999989
 30
0.0
 11
82.661100000000005
 21
114.81999999999989
 31
0.0
  0
LINE
  5
12A
  8
0
 62
     7
 10
82.661100000000005
 20
114.81999999999989
 30
0.0
 11
82.661100000000005
 21
113.636
 31
0.0
  0
LINE
  5
12B
  8
0
 62
     7
 10
64.871899999999997
 20
114.221
 30
0.0
 11
84.871799999999993
 21
114.221
 31
0.0
  0
LINE
  5
12C
  8
0
 62
     7
 10
84.871799999999993
 20
115.1429999999999
 30
0.0
 11
84.871799999999993
 21
101.4699999999999
 31
0.0
  0
LINE
  5
12D
  8
0
 62
     7
 10
64.871899999999997
 20
115.1429999999999
 30
0.0
 11
64.871899999999997
 21
101.4699999999999
 31
0.0
  0
LINE
  5
12E
  8
0
  6
AIGENLINE002
 62
     7
 10
84.871799999999993
 20
95.200299999999999
 30
0.0
 11
84.871799999999993
 21
99.937700000000007
 31
0.0
  0
LINE
  5
12F
  8
0
  6
AIGENLINE001
 62
     7
 10
84.372000000000014
 20
96.674499999999995
 30
0.0
 11
85.372099999999989
 21
96.674499999999995
 31
0.0
  0
LINE
  5
130
  8
0
  6
AIGENLINE001
 62
     7
 10
84.372000000000014
 20
98.674700000000001
 30
0.0
 11
85.372099999999989
 21
98.674700000000001
 31
0.0
  0
ARC
  5
131
  8
0
  6
AIGENLINE001
 62
     7
 10
85.333448000000004
 20
97.712867000000003
 30
0.0
 40
1.039115999999999
 50
272.13022399999988
 51
357.86978599999992
  0
ARC
  5
132
  8
0
  6
AIGENLINE001
 62
     7
 10
85.333147999999994
 20
97.636032999999983
 30
0.0
 40
1.039401
 50
2.1067269999999998
 51
87.853789000000035
  0
ARC
  5
133
  8
0
  6
AIGENLINE001
 62
     7
 10
84.372128000000004
 20
97.674413999999999
 30
0.0
 40
1.000289999999999
 50
90.009867000000014
 51
180.0098769999999
  0
ARC
  5
134
  8
0
  6
AIGENLINE001
 62
     7
 10
84.409858999999983
 20
97.71250400000001
 30
0.0
 40
1.038726
 50
182.11099300000001
 51
267.90877699999987
  0
LINE
  5
135
  8
0
  6
AIGENLINE002
 62
     7
 10
81.991399999999985
 20
97.674200000000013
 30
0.0
 11
87.913499999999985
 21
97.674200000000013
 31
0.0
  0
LINE
  5
136
  8
0
  6
AIGENLINE002
 62
     7
 10
64.871899999999997
 20
95.200299999999999
 30
0.0
 11
64.871899999999997
 21
99.937700000000007
 31
0.0
  0
LINE
  5
137
  8
0
  6
AIGENLINE001
 62
     7
 10
64.371700000000004
 20
96.674499999999995
 30
0.0
 11
65.371799999999993
 21
96.674499999999995
 31
0.0
  0
LINE
  5
138
  8
0
  6
AIGENLINE001
 62
     7
 10
64.371700000000004
 20
98.674700000000001
 30
0.0
 11
65.371799999999993
 21
98.674700000000001
 31
0.0
  0
ARC
  5
139
  8
0
  6
AIGENLINE001
 62
     7
 10
65.333173000000002
 20
97.713216000000003
 30
0.0
 40
1.0394639999999991
 50
272.12901799999997
 51
357.85125199999987
  0
ARC
  5
13A
  8
0
  6
AIGENLINE001
 62
     7
 10
65.371617000000001
 20
97.674413999999999
 30
0.0
 40
1.000289999999999
 50
359.99014299999999
 51
89.990113000000008
  0
ARC
  5
13B
  8
0
  6
AIGENLINE001
 62
     7
 10
64.410344999999992
 20
97.636285000000015
 30
0.0
 40
1.0391399999999991
 50
92.132824000000014
 51
177.90662
  0
ARC
  5
13C
  8
0
  6
AIGENLINE001
 62
     7
 10
64.409908999999999
 20
97.712479000000002
 30
0.0
 40
1.038713999999999
 50
182.10967400000001
 51
267.890356
  0
LINE
  5
13D
  8
0
  6
AIGENLINE002
 62
     7
 10
160.535
 20
97.674200000000013
 30
0.0
 11
166.179
 21
97.674200000000013
 31
0.0
  0
LINE
  5
13E
  8
0
  6
AIGENLINE002
 62
     7
 10
61.991399999999992
 20
97.674200000000013
 30
0.0
 11
67.913600000000002
 21
97.674200000000013
 31
0.0
  0
LINE
  5
13F
  8
0
 62
     7
 10
52.788800000000002
 20
105.265
 30
0.0
 11
52.532899999999991
 21
102.4469999999999
 31
0.0
  0
ARC
  5
140
  8
0
 62
     7
 10
53.355233999999989
 20
102.346631
 30
0.0
 40
0.828479
 50
91.764308999999983
 51
173.03406100000001
  0
ARC
  5
141
  8
0
 62
     7
 10
53.817689000000001
 20
105.138631
 30
0.0
 40
1.0366040000000001
 50
91.797650000000004
 51
172.98592099999999
  0
LINE
  5
142
  8
0
 62
     7
 10
96.954599999999999
 20
105.265
 30
0.0
 11
97.210899999999995
 21
102.4469999999999
 31
0.0
  0
LINE
  5
143
  8
0
 62
     7
 10
53.329700000000003
 20
103.1749999999999
 30
0.0
 11
96.414000000000001
 21
103.1749999999999
 31
0.0
  0
ARC
  5
144
  8
0
 62
     7
 10
96.388075000000001
 20
102.346153
 30
0.0
 40
0.828969
 50
6.995012
 51
88.206578000000022
  0
LINE
  5
145
  8
0
 62
     7
 10
95.9589
 20
106.1749999999999
 30
0.0
 11
53.785200000000003
 21
106.1749999999999
 31
0.0
  0
ARC
  5
146
  8
0
 62
     7
 10
95.925881999999987
 20
105.13884299999999
 30
0.0
 40
1.036408999999999
 50
7.0035899999999991
 51
88.173323999999994
  0
LINE
  5
147
  8
0
  6
AIGENLINE002
 62
     7
 10
74.872
 20
109.17700000000001
 30
0.0
 11
74.872
 21
86.3977
 31
0.0
  0
LINE
  5
148
  8
0
 62
     7
 10
78.091200000000001
 20
191.65599999999989
 30
0.0
 11
76.109399999999994
 21
192.80000000000001
 31
0.0
  0
LINE
  5
149
  8
0
 62
     7
 10
76.109399999999994
 20
192.80000000000001
 30
0.0
 11
77.253500000000003
 21
190.8179999999999
 31
0.0
  0
LINE
  5
14A
  8
0
 62
     7
 10
77.253500000000003
 20
190.8179999999999
 30
0.0
 11
78.091200000000001
 21
191.65599999999989
 31
0.0
  0
LINE
  5
14B
  8
0
 62
     7
 10
71.657899999999998
 20
196.42400000000001
 30
0.0
 11
73.639700000000005
 21
195.28
 31
0.0
  0
LINE
  5
14C
  8
0
 62
     7
 10
73.639700000000005
 20
195.28
 30
0.0
 11
72.495599999999996
 21
197.262
 31
0.0
  0
LINE
  5
14D
  8
0
 62
     7
 10
72.495599999999996
 20
197.262
 30
0.0
 11
71.657899999999998
 21
196.42400000000001
 31
0.0
  0
LINE
  5
14E
  8
0
 62
     7
 10
70.857100000000003
 20
198.05199999999999
 30
0.0
 11
80.520300000000006
 21
188.38900000000001
 31
0.0
  0
LINE
  5
14F
  8
0
 62
     7
 10
99.582499999999996
 20
159.42599999999999
 30
0.0
 11
97.372100000000003
 21
158.833
 31
0.0
  0
LINE
  5
150
  8
0
 62
     7
 10
97.372100000000003
 20
158.833
 30
0.0
 11
99.582499999999996
 21
158.24100000000001
 31
0.0
  0
LINE
  5
151
  8
0
 62
     7
 10
99.582499999999996
 20
158.24100000000001
 30
0.0
 11
99.582499999999996
 21
159.42599999999999
 31
0.0
  0
LINE
  5
152
  8
0
 62
     7
 10
57.5824
 20
159.42599999999999
 30
0.0
 11
55.372
 21
158.833
 31
0.0
  0
LINE
  5
153
  8
0
 62
     7
 10
55.372
 20
158.833
 30
0.0
 11
57.5824
 21
158.24100000000001
 31
0.0
  0
LINE
  5
154
  8
0
 62
     7
 10
57.5824
 20
158.24100000000001
 30
0.0
 11
57.5824
 21
159.42599999999999
 31
0.0
  0
LINE
  5
155
  8
0
 62
     7
 10
50.161299999999997
 20
158.25599999999989
 30
0.0
 11
52.372
 21
158.8479999999999
 31
0.0
  0
LINE
  5
156
  8
0
 62
     7
 10
52.372
 20
158.8479999999999
 30
0.0
 11
50.161299999999997
 21
159.44
 31
0.0
  0
LINE
  5
157
  8
0
 62
     7
 10
50.161299999999997
 20
159.44
 30
0.0
 11
50.161299999999997
 21
158.25599999999989
 31
0.0
  0
LINE
  5
158
  8
0
 62
     7
 10
92.161500000000004
 20
158.25599999999989
 30
0.0
 11
94.372299999999996
 21
158.8479999999999
 31
0.0
  0
LINE
  5
159
  8
0
 62
     7
 10
94.372299999999996
 20
158.8479999999999
 30
0.0
 11
92.161500000000004
 21
159.44
 31
0.0
  0
LINE
  5
15A
  8
0
 62
     7
 10
92.161500000000004
 20
159.44
 30
0.0
 11
92.161500000000004
 21
158.25599999999989
 31
0.0
  0
LINE
  5
15B
  8
0
 62
     7
 10
54.582399999999993
 20
152.08199999999999
 30
0.0
 11
52.372
 21
151.49000000000001
 31
0.0
  0
LINE
  5
15C
  8
0
 62
     7
 10
52.372
 20
151.49000000000001
 30
0.0
 11
54.582399999999993
 21
150.89699999999999
 31
0.0
  0
LINE
  5
15D
  8
0
 62
     7
 10
54.582399999999993
 20
150.89699999999999
 30
0.0
 11
54.582399999999993
 21
152.08199999999999
 31
0.0
  0
LINE
  5
15E
  8
0
 62
     7
 10
95.1614
 20
150.91200000000001
 30
0.0
 11
97.372100000000003
 21
151.50399999999991
 31
0.0
  0
LINE
  5
15F
  8
0
 62
     7
 10
97.372100000000003
 20
151.50399999999991
 30
0.0
 11
95.1614
 21
152.09700000000001
 31
0.0
  0
LINE
  5
160
  8
0
 62
     7
 10
95.1614
 20
152.09700000000001
 30
0.0
 11
95.1614
 21
150.91200000000001
 31
0.0
  0
LINE
  5
161
  8
0
 62
     7
 10
52.372
 20
151.49700000000001
 30
0.0
 11
97.372100000000003
 21
151.49700000000001
 31
0.0
  0
LINE
  5
162
  8
0
 62
     7
 10
97.372100000000003
 20
169.64099999999999
 30
0.0
 11
97.372100000000003
 21
150.75599999999989
 31
0.0
  0
LINE
  5
163
  8
0
 62
     7
 10
94.372299999999996
 20
170.673
 30
0.0
 11
94.372299999999996
 21
158.185
 31
0.0
  0
LINE
  5
164
  8
0
 62
     7
 10
55.372
 20
170.673
 30
0.0
 11
55.372
 21
158.185
 31
0.0
  0
LINE
  5
165
  8
0
 62
     7
 10
52.372
 20
169.64099999999999
 30
0.0
 11
52.372
 21
150.75599999999989
 31
0.0
  0
LINE
  5
166
  8
0
 62
     7
 10
44.272199999999998
 20
186.24799999999991
 30
0.0
 11
44.864400000000003
 21
184.03700000000001
 31
0.0
  0
LINE
  5
167
  8
0
 62
     7
 10
44.864400000000003
 20
184.03700000000001
 30
0.0
 11
45.456799999999987
 21
186.24799999999991
 31
0.0
  0
LINE
  5
168
  8
0
 62
     7
 10
45.456799999999987
 20
186.24799999999991
 30
0.0
 11
44.272199999999998
 21
186.24799999999991
 31
0.0
  0
LINE
  5
169
  8
0
 62
     7
 10
45.442100000000003
 20
198.327
 30
0.0
 11
44.849899999999991
 21
200.53700000000001
 31
0.0
  0
LINE
  5
16A
  8
0
 62
     7
 10
44.849899999999991
 20
200.53700000000001
 30
0.0
 11
44.257499999999993
 21
198.327
 31
0.0
  0
LINE
  5
16B
  8
0
 62
     7
 10
44.257499999999993
 20
198.327
 30
0.0
 11
45.442100000000003
 21
198.327
 31
0.0
  0
LINE
  5
16C
  8
0
 62
     7
 10
44.857100000000003
 20
184.03700000000001
 30
0.0
 11
44.857100000000003
 21
200.53700000000001
 31
0.0
  0
LINE
  5
16D
  8
0
 62
     7
 10
64.975399999999993
 20
202.74799999999991
 30
0.0
 11
65.567599999999999
 21
200.53700000000001
 31
0.0
  0
LINE
  5
16E
  8
0
 62
     7
 10
65.567599999999999
 20
200.53700000000001
 30
0.0
 11
66.160200000000003
 21
202.74799999999991
 31
0.0
  0
LINE
  5
16F
  8
0
 62
     7
 10
66.160200000000003
 20
202.74799999999991
 30
0.0
 11
64.975399999999993
 21
202.74799999999991
 31
0.0
  0
LINE
  5
170
  8
0
 62
     7
 10
66.145399999999995
 20
187.32699999999991
 30
0.0
 11
65.553200000000004
 21
189.53699999999989
 31
0.0
  0
LINE
  5
171
  8
0
 62
     7
 10
65.553200000000004
 20
189.53699999999989
 30
0.0
 11
64.960599999999985
 21
187.32699999999991
 31
0.0
  0
LINE
  5
172
  8
0
 62
     7
 10
64.960599999999985
 20
187.32699999999991
 30
0.0
 11
66.145399999999995
 21
187.32699999999991
 31
0.0
  0
LINE
  5
173
  8
0
 62
     7
 10
65.560400000000001
 20
183.04900000000001
 30
0.0
 11
65.560400000000001
 21
207.37200000000001
 31
0.0
  0
LINE
  5
174
  8
0
 62
     7
 10
109.617
 20
191.74799999999991
 30
0.0
 11
110.209
 21
189.53699999999989
 31
0.0
  0
LINE
  5
175
  8
0
 62
     7
 10
110.209
 20
189.53699999999989
 30
0.0
 11
110.80200000000001
 21
191.74799999999991
 31
0.0
  0
LINE
  5
176
  8
0
 62
     7
 10
110.80200000000001
 20
191.74799999999991
 30
0.0
 11
109.617
 21
191.74799999999991
 31
0.0
  0
LINE
  5
177
  8
0
 62
     7
 10
109.617
 20
173.74799999999991
 30
0.0
 11
110.209
 21
171.53700000000001
 31
0.0
  0
LINE
  5
178
  8
0
 62
     7
 10
110.209
 20
171.53700000000001
 30
0.0
 11
110.80200000000001
 21
173.74799999999991
 31
0.0
  0
LINE
  5
179
  8
0
 62
     7
 10
110.80200000000001
 20
173.74799999999991
 30
0.0
 11
109.617
 21
173.74799999999991
 31
0.0
  0
LINE
  5
17A
  8
0
 62
     7
 10
110.78700000000001
 20
166.32699999999991
 30
0.0
 11
110.194
 21
168.53699999999989
 31
0.0
  0
LINE
  5
17B
  8
0
 62
     7
 10
110.194
 20
168.53699999999989
 30
0.0
 11
109.602
 21
166.32699999999991
 31
0.0
  0
LINE
  5
17C
  8
0
 62
     7
 10
109.602
 20
166.32699999999991
 30
0.0
 11
110.78700000000001
 21
166.32699999999991
 31
0.0
  0
LINE
  5
17D
  8
0
 62
     7
 10
110.78700000000001
 20
187.32699999999991
 30
0.0
 11
110.194
 21
189.53699999999989
 31
0.0
  0
LINE
  5
17E
  8
0
 62
     7
 10
110.194
 20
189.53699999999989
 30
0.0
 11
109.602
 21
187.32699999999991
 31
0.0
  0
LINE
  5
17F
  8
0
 62
     7
 10
109.602
 20
187.32699999999991
 30
0.0
 11
110.78700000000001
 21
187.32699999999991
 31
0.0
  0
LINE
  5
180
  8
0
 62
     7
 10
110.78700000000001
 20
198.327
 30
0.0
 11
110.194
 21
200.53700000000001
 31
0.0
  0
LINE
  5
181
  8
0
 62
     7
 10
110.194
 20
200.53700000000001
 30
0.0
 11
109.602
 21
198.327
 31
0.0
  0
LINE
  5
182
  8
0
 62
     7
 10
109.602
 20
198.327
 30
0.0
 11
110.78700000000001
 21
198.327
 31
0.0
  0
LINE
  5
183
  8
0
 62
     7
 10
110.202
 20
161.48599999999999
 30
0.0
 11
110.202
 21
200.53700000000001
 31
0.0
  0
LINE
  5
184
  8
0
 62
     7
 10
117.5119999999999
 20
170.74799999999991
 30
0.0
 11
118.104
 21
168.53699999999989
 31
0.0
  0
LINE
  5
185
  8
0
 62
     7
 10
118.104
 20
168.53699999999989
 30
0.0
 11
118.696
 21
170.74799999999991
 31
0.0
  0
LINE
  5
186
  8
0
 62
     7
 10
118.696
 20
170.74799999999991
 30
0.0
 11
117.5119999999999
 21
170.74799999999991
 31
0.0
  0
LINE
  5
187
  8
0
 62
     7
 10
118.6819999999999
 20
198.327
 30
0.0
 11
118.0889999999999
 21
200.53700000000001
 31
0.0
  0
LINE
  5
188
  8
0
 62
     7
 10
118.0889999999999
 20
200.53700000000001
 30
0.0
 11
117.497
 21
198.327
 31
0.0
  0
LINE
  5
189
  8
0
 62
     7
 10
117.497
 20
198.327
 30
0.0
 11
118.6819999999999
 21
198.327
 31
0.0
  0
LINE
  5
18A
  8
0
 62
     7
 10
118.09699999999999
 20
168.53699999999989
 30
0.0
 11
118.09699999999999
 21
200.53700000000001
 31
0.0
  0
LINE
  5
18B
  8
0
 62
     7
 10
44.210799999999992
 20
184.03700000000001
 30
0.0
 11
50.95259999999999
 21
184.03700000000001
 31
0.0
  0
LINE
  5
18C
  8
0
 62
     7
 10
98.295199999999994
 20
168.53699999999989
 30
0.0
 11
118.911
 21
168.53699999999989
 31
0.0
  0
LINE
  5
18D
  8
0
 62
     7
 10
45.608400000000003
 20
158.833
 30
0.0
 11
104.392
 21
158.833
 31
0.0
  0
LINE
  5
18E
  8
0
 62
     7
 10
98.295199999999994
 20
171.53700000000001
 30
0.0
 11
110.9829999999999
 21
171.53700000000001
 31
0.0
  0
LINE
  5
18F
  8
0
 62
     7
 10
98.295199999999994
 20
189.53699999999989
 30
0.0
 11
110.9829999999999
 21
189.53699999999989
 31
0.0
  0
LINE
  5
190
  8
0
 62
     7
 10
98.295199999999994
 20
200.53700000000001
 30
0.0
 11
118.911
 21
200.53700000000001
 31
0.0
  0
LINE
  5
191
  8
0
 62
     7
 10
44.029299999999999
 20
200.53700000000001
 30
0.0
 11
50.95259999999999
 21
200.53700000000001
 31
0.0
  0
ARC
  5
192
  8
0
 62
     7
 10
93.336517999999998
 20
172.86972099999991
 30
0.0
 40
1.036089
 50
277.02728999999999
 51
358.2027589999999
  0
LINE
  5
193
  8
0
 62
     7
 10
97.372100000000003
 20
198.03700000000001
 30
0.0
 11
97.372100000000003
 21
172.53700000000001
 31
0.0
  0
ARC
  5
194
  8
0
 62
     7
 10
93.230818999999997
 20
172.96643899999989
 30
0.0
 40
4.1433010000000001
 50
276.9955359999999
 51
358.21288799999991
  0
LINE
  5
195
  8
0
 62
     7
 10
94.372100000000003
 20
188.53699999999989
 30
0.0
 11
94.372100000000003
 21
172.83699999999999
 31
0.0
  0
ARC
  5
196
  8
0
 62
     7
 10
87.772272000000001
 20
238.184844
 30
0.0
 40
69.586836000000005
 50
271.70696499999991
 51
274.91593799999998
  0
ARC
  5
197
  8
0
 62
     7
 10
84.874528999999995
 20
314.23859800000002
 30
0.0
 40
145.694524
 50
270.75340299999999
 51
271.95511199999987
  0
ARC
  5
198
  8
0
 62
     7
 10
82.464021000000002
 20
503.92991599999988
 30
0.0
 40
335.40114999999992
 50
269.94433199999992
 51
270.73906799999997
  0
LINE
  5
199
  8
0
 62
     7
 10
82.138099999999994
 20
168.529
 30
0.0
 11
74.872
 21
168.53699999999989
 31
0.0
  0
ARC
  5
19A
  8
0
 62
     7
 10
89.062066999999999
 20
222.997299
 30
0.0
 40
51.344862999999997
 50
273.351224
 51
274.91735599999998
  0
ARC
  5
19B
  8
0
 62
     7
 10
86.744177000000008
 20
261.73238599999991
 30
0.0
 40
90.149221999999995
 50
271.88593399999991
 51
273.38275699999991
  0
ARC
  5
19C
  8
0
 62
     7
 10
84.307923000000002
 20
334.18525599999992
 30
0.0
 40
162.64303000000001
 50
270.78178799999989
 51
271.90373699999998
  0
ARC
  5
19D
  8
0
 62
     7
 10
82.003985999999983
 20
501.30907599999989
 30
0.0
 40
329.7827299999999
 50
270.00669900000003
 51
270.78586300000001
  0
ARC
  5
19E
  8
0
 62
     7
 10
86.253387000000004
 20
5317.6450000000004
 30
0.0
 40
5146.119999999999
 50
269.87329199999988
 51
269.95312699999999
  0
ARC
  5
19F
  8
0
 62
     7
 10
56.407106999999989
 20
172.8692979999999
 30
0.0
 40
1.0356119999999991
 50
181.77467499999989
 51
262.99531499999989
  0
LINE
  5
1A0
  8
0
 62
     7
 10
78.480099999999993
 20
181.26699999999991
 30
0.0
 11
76.4983
 21
182.41099999999989
 31
0.0
  0
LINE
  5
1A1
  8
0
 62
     7
 10
76.4983
 20
182.41099999999989
 30
0.0
 11
77.642399999999995
 21
180.42899999999989
 31
0.0
  0
LINE
  5
1A2
  8
0
 62
     7
 10
77.642399999999995
 20
180.42899999999989
 30
0.0
 11
78.480099999999993
 21
181.26699999999991
 31
0.0
  0
LINE
  5
1A3
  8
0
 62
     7
 10
71.263599999999997
 20
186.80799999999991
 30
0.0
 11
73.245400000000004
 21
185.66399999999999
 31
0.0
  0
LINE
  5
1A4
  8
0
 62
     7
 10
73.245400000000004
 20
185.66399999999999
 30
0.0
 11
72.101299999999995
 21
187.6459999999999
 31
0.0
  0
LINE
  5
1A5
  8
0
 62
     7
 10
72.101299999999995
 20
187.6459999999999
 30
0.0
 11
71.263599999999997
 21
186.80799999999991
 31
0.0
  0
LINE
  5
1A6
  8
0
 62
     7
 10
69.977199999999996
 20
188.93199999999999
 30
0.0
 11
79.975300000000004
 21
178.934
 31
0.0
  0
LINE
  5
1A7
  8
0
 62
     7
 10
52.372
 20
198.03700000000001
 30
0.0
 11
52.372
 21
172.53700000000001
 31
0.0
  0
ARC
  5
1A8
  8
0
 62
     7
 10
67.913156000000001
 20
104.12164199999999
 30
0.0
 40
14.38288
 50
197.175895
 51
211.12501399999999
  0
ARC
  5
1A9
  8
0
 62
     7
 10
65.053007999999991
 20
102.6233729999999
 30
0.0
 40
11.161726
 50
212.13040499999991
 51
242.61260299999989
  0
ARC
  5
1AA
  8
0
 62
     7
 10
68.213414999999983
 20
108.0855169999999
 30
0.0
 40
17.467922999999999
 50
241.64964599999999
 51
252.630166
  0
ARC
  5
1AB
  8
0
 62
     7
 10
71.414313000000007
 20
117.23858199999999
 30
0.0
 40
27.161090999999999
 50
251.9500809999999
 51
254.87865400000001
  0
ARC
  5
1AC
  8
0
 62
     7
 10
74.619404000000003
 20
91.526635999999996
 30
0.0
 40
5.5475589999999988
 50
180.01993899999999
 51
196.747961
  0
ARC
  5
1AD
  8
0
 62
     7
 10
72.205819999999989
 20
90.844337999999993
 30
0.0
 40
3.040035
 50
197.5423209999999
 51
221.85431
  0
ARC
  5
1AE
  8
0
 62
     7
 10
71.472969999999989
 20
90.316546000000017
 30
0.0
 40
2.144156999999999
 50
224.41681700000001
 51
272.64632899999992
  0
ARC
  5
1AF
  8
0
 62
     7
 10
66.686492999999999
 20
85.327965000000006
 30
0.0
 40
5.960710999999999
 50
102.7528839999999
 51
107.6436289999999
  0
ARC
  5
1B0
  8
0
 62
     7
 10
67.649394999999998
 20
81.163859000000002
 30
0.0
 40
10.234669999999991
 50
98.320677999999987
 51
102.86448799999989
  0
ARC
  5
1B1
  8
0
 62
     7
 10
68.792551000000003
 20
73.463315000000009
 30
0.0
 40
18.019593
 50
94.999327000000022
 51
98.373936999999984
  0
ARC
  5
1B2
  8
0
 62
     7
 10
70.028534999999991
 20
59.420819999999992
 30
0.0
 40
32.116377
 50
92.468841999999995
 51
95.012812999999994
  0
ARC
  5
1B3
  8
0
 62
     7
 10
71.404760999999993
 20
27.739967
 30
0.0
 40
63.827106000000008
 50
90.668965000000014
 51
92.478048000000001
  0
ARC
  5
1B4
  8
0
 62
     7
 10
73.503135999999984
 20
-176.31088899999989
 30
0.0
 40
267.88870400000002
 50
89.707207999999994
 51
90.608186000000003
  0
ARC
  5
1B5
  8
0
 62
     7
 10
56.513267999999997
 20
172.9664379999999
 30
0.0
 40
4.1432999999999991
 50
181.787114
 51
263.004502
  0
LINE
  5
1B6
  8
0
  6
AIGENLINE002
 62
     7
 10
69.391900000000007
 20
184.03700000000001
 30
0.0
 11
80.844499999999996
 21
184.03700000000001
 31
0.0
  0
LINE
  5
1B7
  8
0
 62
     7
 10
94.372100000000003
 20
197.03700000000001
 30
0.0
 11
94.372100000000003
 21
188.53699999999989
 31
0.0
  0
LINE
  5
1B8
  8
0
 62
     7
 10
93.871899999999997
 20
197.53700000000001
 30
0.0
 11
96.871900000000011
 21
197.53700000000001
 31
0.0
  0
LINE
  5
1B9
  8
0
 62
     7
 10
55.871899999999989
 20
197.53700000000001
 30
0.0
 11
93.871899999999997
 21
197.53700000000001
 31
0.0
  0
ARC
  5
1BA
  8
0
 62
     7
 10
93.853161999999998
 20
197.01839099999989
 30
0.0
 40
0.519285
 50
2.1036730000000001
 51
87.935790999999995
  0
LINE
  5
1BB
  8
0
 62
     7
 10
52.871499999999997
 20
197.53700000000001
 30
0.0
 11
55.871899999999989
 21
197.53700000000001
 31
0.0
  0
LINE
  5
1BC
  8
0
 62
     7
 10
55.372
 20
197.03700000000001
 30
0.0
 11
55.372
 21
188.53699999999989
 31
0.0
  0
ARC
  5
1BD
  8
0
 62
     7
 10
55.89129599999999
 20
197.018036
 30
0.0
 40
0.5196670000000001
 50
92.141334999999998
 51
177.85863499999999
  0
LINE
  5
1BE
  8
0
 62
     7
 10
56.3718
 20
189.53699999999989
 30
0.0
 11
93.372000000000014
 21
189.53699999999989
 31
0.0
  0
ARC
  5
1BF
  8
0
 62
     7
 10
93.372066000000004
 20
188.537229
 30
0.0
 40
1.000032
 50
0.004945
 51
90.004914999999997
  0
LINE
  5
1C0
  8
0
 62
     7
 10
55.372
 20
188.53699999999989
 30
0.0
 11
55.372
 21
172.83699999999999
 31
0.0
  0
ARC
  5
1C1
  8
0
 62
     7
 10
56.410401999999998
 20
188.49885699999999
 30
0.0
 40
1.039121999999999
 50
92.130863000000005
 51
177.8789779999999
  0
ARC
  5
1C2
  8
0
 62
     7
 10
74.871957999999992
 20
184.03738799999991
 30
0.0
 40
3.9998680000000002
 50
359.99877600000002
 51
89.998745999999997
  0
ARC
  5
1C3
  8
0
 62
     7
 10
74.87195899999999
 20
184.037216
 30
0.0
 40
4.0000400000000003
 50
89.998766000000003
 51
179.99873700000001
  0
ARC
  5
1C4
  8
0
 62
     7
 10
74.871957999999992
 20
184.03738799999991
 30
0.0
 40
4.0000390000000001
 50
180.0012439999999
 51
270.00125400000002
  0
ARC
  5
1C5
  8
0
 62
     7
 10
74.871957999999992
 20
184.03721799999991
 30
0.0
 40
3.9998680000000002
 50
270.00125400000002
 51
0.001224
  0
ARC
  5
1C6
  8
0
 62
     7
 10
61.971817000000001
 20
238.184844
 30
0.0
 40
69.586836000000005
 50
265.08408199999991
 51
268.29305499999998
  0
ARC
  5
1C7
  8
0
 62
     7
 10
64.869559999999993
 20
314.23859800000002
 30
0.0
 40
145.694524
 50
268.04490800000002
 51
269.24661700000001
  0
ARC
  5
1C8
  8
0
 62
     7
 10
67.280068
 20
503.92991599999988
 30
0.0
 40
335.40114999999992
 50
269.26095199999992
 51
270.05568699999998
  0
LINE
  5
1C9
  8
0
 62
     7
 10
67.606000000000009
 20
168.529
 30
0.0
 11
74.872
 21
168.53699999999989
 31
0.0
  0
ARC
  5
1CA
  8
0
 62
     7
 10
60.682021999999989
 20
222.997299
 30
0.0
 40
51.344862999999997
 50
265.08266400000002
 51
266.64879599999989
  0
ARC
  5
1CB
  8
0
 62
     7
 10
62.999769999999998
 20
261.72931499999999
 30
0.0
 40
90.146146999999999
 50
266.61723799999987
 51
268.11411199999998
  0
ARC
  5
1CC
  8
0
 62
     7
 10
65.436166
 20
334.18525599999992
 30
0.0
 40
162.64303000000001
 50
268.09628300000003
 51
269.218232
  0
ARC
  5
1CD
  8
0
 62
     7
 10
67.740103000000005
 20
501.30907599999989
 30
0.0
 40
329.7827299999999
 50
269.21415699999989
 51
269.99332099999992
  0
ARC
  5
1CE
  8
0
 62
     7
 10
63.490701999999992
 20
5317.6450000000004
 30
0.0
 40
5146.119999999999
 50
270.0468929999999
 51
270.12672700000002
  0
ARC
  5
1CF
  8
0
 62
     7
 10
74.872043999999988
 20
184.03730300000001
 30
0.0
 40
2.2999610000000001
 50
0.00001
 51
89.999980000000008
  0
ARC
  5
1D0
  8
0
 62
     7
 10
74.871872999999994
 20
184.03712999999991
 30
0.0
 40
2.3001330000000002
 50
89.995709000000005
 51
179.99567899999991
  0
ARC
  5
1D1
  8
0
 62
     7
 10
74.871871999999996
 20
184.037475
 30
0.0
 40
2.3001320000000001
 50
180.00430099999991
 51
270.00431099999992
  0
ARC
  5
1D2
  8
0
 62
     7
 10
74.872043999999988
 20
184.03730300000001
 30
0.0
 40
2.2999610000000001
 50
270.00002000000001
 51
359.99998999999991
  0
ARC
  5
1D3
  8
0
 62
     7
 10
65.545998999999995
 20
197.52310800000001
 30
0.0
 40
0.387778
 50
2.103221
 51
87.870322999999985
  0
ARC
  5
1D4
  8
0
 62
     7
 10
65.574793
 20
197.52313499999991
 30
0.0
 40
0.38775
 50
92.125881000000007
 51
177.90053599999999
  0
ARC
  5
1D5
  8
0
 62
     7
 10
65.574643000000009
 20
197.55157299999991
 30
0.0
 40
0.387601
 50
182.1045389999999
 51
267.89549099999988
  0
ARC
  5
1D6
  8
0
 62
     7
 10
65.546417000000005
 20
197.551331
 30
0.0
 40
0.387351
 50
272.07010700000001
 51
357.92990299999991
  0
ARC
  5
1D7
  8
0
 62
     7
 10
65.545998999999995
 20
194.02304099999989
 30
0.0
 40
0.387778
 50
2.103221
 51
87.870322999999985
  0
ARC
  5
1D8
  8
0
 62
     7
 10
65.574793
 20
194.02306799999991
 30
0.0
 40
0.38775
 50
92.125881000000007
 51
177.90053599999999
  0
ARC
  5
1D9
  8
0
 62
     7
 10
65.574643000000009
 20
194.05150599999999
 30
0.0
 40
0.387601
 50
182.1045389999999
 51
267.89549099999988
  0
ARC
  5
1DA
  8
0
 62
     7
 10
65.546417000000005
 20
194.051265
 30
0.0
 40
0.387351
 50
272.07010700000001
 51
357.92990299999991
  0
ARC
  5
1DB
  8
0
 62
     7
 10
74.871871999999996
 20
194.03744499999999
 30
0.0
 40
1.7499480000000001
 50
359.99437
 51
89.994339999999994
  0
ARC
  5
1DC
  8
0
 62
     7
 10
74.872045
 20
194.037272
 30
0.0
 40
1.7501199999999999
 50
90.0
 51
179.99996999999991
  0
ARC
  5
1DD
  8
0
 62
     7
 10
74.871957999999992
 20
194.03735800000001
 30
0.0
 40
1.7500329999999999
 50
180.00282999999999
 51
270.00283999999988
  0
ARC
  5
1DE
  8
0
 62
     7
 10
74.871957999999992
 20
194.03718699999999
 30
0.0
 40
1.7498610000000001
 50
270.00283999999988
 51
0.00281
  0
LINE
  5
1DF
  8
0
 62
     7
 10
64.699299999999994
 20
194.03700000000001
 30
0.0
 11
70.582899999999995
 21
194.03700000000001
 31
0.0
  0
LINE
  5
1E0
  8
0
  6
AIGENLINE002
 62
     7
 10
71.371099999999984
 20
194.03700000000001
 30
0.0
 11
78.2286
 21
194.03700000000001
 31
0.0
  0
LINE
  5
1E1
  8
0
  6
AIGENLINE002
 62
     7
 10
74.872
 20
203.2179999999999
 30
0.0
 11
74.872
 21
166.244
 31
0.0
  0
LINE
  5
1E2
  8
0
 62
     7
 10
97.372100000000003
 20
200.53700000000001
 30
0.0
 11
97.372100000000003
 21
198.03700000000001
 31
0.0
  0
ARC
  5
1E3
  8
0
 62
     7
 10
96.871960000000001
 20
198.03748399999989
 30
0.0
 40
0.500145
 50
269.99015299999991
 51
359.99012299999993
  0
LINE
  5
1E4
  8
0
 62
     7
 10
52.372
 20
200.53700000000001
 30
0.0
 11
52.372
 21
198.03700000000001
 31
0.0
  0
ARC
  5
1E5
  8
0
 62
     7
 10
52.891072000000001
 20
198.056408
 30
0.0
 40
0.519436
 50
182.09729999999999
 51
267.84348899999998
  0
LINE
  5
1E6
  8
0
 62
     7
 10
52.372
 20
200.53700000000001
 30
0.0
 11
97.372100000000003
 21
200.53700000000001
 31
0.0
  0
TEXT
  5
1E7
  8
_________2
 62
     7
 10
20.322700000000001
 20
45.716700000000003
 30
0.0
 40
3.9357000000000002
  1
※壁取付部には厚さ20mm以上の補強木を入れてください。
 41
0.5
  0
LINE
  5
1E8
  8
_________2
 62
     7
 10
205.30099999999999
 20
127.411
 30
0.0
 11
183.55099999999999
 21
127.411
 31
0.0
  0
LINE
  5
1E9
  8
_________2
 62
     7
 10
100.2999999999999
 20
-4.0910799999999998
 30
0.0
 11
100.2999999999999
 21
-21.070999999999991
 31
0.0
  0
LINE
  5
1EA
  8
_________2
 62
     7
 10
100.2999999999999
 20
275.93099999999993
 30
0.0
 11
100.2999999999999
 21
258.911
 31
0.0
  0
LINE
  5
1EB
  8
_________2
 62
     7
 10
17.049399999999991
 20
127.411
 30
0.0
 11
-4.7010300000000003
 21
127.411
 31
0.0
  0
LINE
  5
1EC
  8
_________2
 62
     7
 10
76.740799999999993
 20
29.8047
 30
0.0
 11
74.554599999999994
 21
29.8047
 31
0.0
  0
LINE
  5
1ED
  8
_________2
 62
     7
 10
77.233500000000006
 20
29.8047
 30
0.0
 11
76.981300000000005
 21
29.8047
 31
0.0
  0
LINE
  5
1EE
  8
_________2
 62
     7
 10
77.726200000000006
 20
29.8047
 30
0.0
 11
80.6511
 21
29.8047
 31
0.0
  0
LINE
  5
1EF
  8
_________2
 62
     7
 10
77.233500000000006
 20
29.8047
 30
0.0
 11
77.485699999999994
 21
29.8047
 31
0.0
  0
LINE
  5
1F0
  8
_________2
 62
     7
 10
70.837299999999999
 20
29.8047
 30
0.0
 11
68.650300000000001
 21
29.8047
 31
0.0
  0
LINE
  5
1F1
  8
_________2
 62
     7
 10
71.329300000000003
 20
29.8047
 30
0.0
 11
71.077799999999996
 21
29.8047
 31
0.0
  0
LINE
  5
1F2
  8
_________2
 62
     7
 10
71.329300000000003
 20
30.2974
 30
0.0
 11
71.329300000000003
 21
32.484400000000001
 31
0.0
  0
LINE
  5
1F3
  8
_________2
 62
     7
 10
71.329300000000003
 20
29.8047
 30
0.0
 11
71.329300000000003
 21
30.057300000000001
 31
0.0
  0
LINE
  5
1F4
  8
_________2
 62
     7
 10
71.821899999999999
 20
29.8047
 30
0.0
 11
74.008899999999997
 21
29.8047
 31
0.0
  0
LINE
  5
1F5
  8
_________2
 62
     7
 10
71.329300000000003
 20
29.8047
 30
0.0
 11
71.581400000000002
 21
29.8047
 31
0.0
  0
LINE
  5
1F6
  8
_________2
 62
     7
 10
71.329300000000003
 20
29.312799999999999
 30
0.0
 11
71.329300000000003
 21
27.126200000000001
 31
0.0
  0
LINE
  5
1F7
  8
_________2
 62
     7
 10
71.329300000000003
 20
29.8047
 30
0.0
 11
71.329300000000003
 21
29.5532
 31
0.0
  0
LINE
  5
1F8
  8
_________2
 62
     7
 10
75.040300000000002
 20
28.5852
 30
0.0
 11
80.218299999999985
 21
27.720400000000001
 31
0.0
  0
LINE
  5
1F9
  8
_________2
 62
     7
 10
75.040300000000002
 20
31.024699999999999
 30
0.0
 11
80.218299999999985
 21
31.8901
 31
0.0
  0
LINE
  5
1FA
  8
_________2
 62
     7
 10
80.218299999999985
 20
27.720400000000001
 30
0.0
 11
80.218299999999985
 21
31.8901
 31
0.0
  0
LINE
  5
1FB
  8
_________2
 62
     7
 10
75.040300000000002
 20
28.5852
 30
0.0
 11
75.040300000000002
 21
31.024699999999999
 31
0.0
  0
ARC
  5
1FC
  8
_________2
 62
     7
 10
71.282674
 20
29.757801000000001
 30
0.0
 40
1.267714
 50
2.1220840000000001
 51
87.894083999999992
  0
ARC
  5
1FD
  8
_________2
 62
     7
 10
71.375812999999994
 20
29.758545999999999
 30
0.0
 40
1.2669680000000001
 50
92.105782999999988
 51
177.91037
  0
ARC
  5
1FE
  8
_________2
 62
     7
 10
71.376186000000004
 20
29.851671
 30
0.0
 40
1.2673680000000001
 50
182.12203600000001
 51
267.877993
  0
ARC
  5
1FF
  8
_________2
 62
     7
 10
71.282368999999989
 20
29.852347999999999
 30
0.0
 40
1.2680439999999991
 50
272.11916400000001
 51
357.84848499999993
  0
ARC
  5
200
  8
_________2
 62
     7
 10
71.248890000000003
 20
29.724731999999989
 30
0.0
 40
2.1668310000000002
 50
2.1161439999999989
 51
87.874379000000005
  0
ARC
  5
201
  8
_________2
 62
     7
 10
71.408928000000003
 20
29.726146
 30
0.0
 40
2.165392999999999
 50
92.108508999999998
 51
177.91986499999999
  0
ARC
  5
202
  8
_________2
 62
     7
 10
71.409267
 20
29.884751999999999
 30
0.0
 40
2.1657829999999998
 50
182.117133
 51
267.88289700000001
  0
ARC
  5
203
  8
_________2
 62
     7
 10
71.249286999999995
 20
29.885429999999989
 30
0.0
 40
2.1664590000000001
 50
272.11546800000002
 51
357.86560400000002
  0
TEXT
  5
204
  8
_________2
 62
     7
 10
104.605
 20
1.6794899999999999
 30
0.0
 40
3.0923400000000001
  1
図番
 41
0.5
  0
LINE
  5
205
  8
_________2
 62
     7
 10
103.55
 20
5.9087199999999989
 30
0.0
 11
183.55099999999999
 21
5.9087199999999989
 31
0.0
  0
TEXT
  5
206
  8
_________2
 62
     7
 10
104.605
 20
11.679299999999991
 30
0.0
 40
3.0923400000000001
  1
品番
 41
0.5
  0
TEXT
  5
207
  8
_________2
 62
     7
 10
104.605
 20
31.8184
 30
0.0
 40
3.0923400000000001
  1
名称
 41
0.5
  0
TEXT
  5
208
  8
_________2
 62
     7
 10
91.844958333333338
 20
26.822299999999998
 30
0.0
 40
3.6545800000000002
  1
mm
 41
0.5
 72
     1
 11
93.367699999999985
 21
26.822299999999998
 31
0.0
  0
TEXT
  5
209
  8
_________2
 62
     7
 10
85.642999999999986
 20
31.8184
 30
0.0
 40
3.0923400000000001
  1
単位
 41
0.5
  0
TEXT
  5
20A
  8
_________2
 62
     7
 10
85.642999999999986
 20
19.410799999999991
 30
0.0
 40
3.0923400000000001
  1
尺度
 41
0.5
  0
TEXT
  5
20B
  8
_________2
 62
     7
 10
90.091736166666678
 20
13.218199999999991
 30
0.0
 40
3.6545800000000002
  1
1 ： 10
 41
0.5
 72
     1
 11
93.959500000000006
 21
13.218199999999991
 31
0.0
  0
TEXT
  5
20C
  8
_________2
 62
     7
 10
133.38277500000001
 20
9.1082000000000001
 30
0.0
 40
3.9357000000000002
  1
DV075045-00
 41
0.5
 72
     1
 11
143.55000000000001
 21
9.1082000000000001
 31
0.0
  0
TEXT
  5
20D
  8
_________2
 62
     7
 10
136.00657499999991
 20
-0.8926299999999999
 30
0.0
 40
3.9357000000000002
  1
DV075045
 41
0.5
 72
     1
 11
143.55000000000001
 21
-0.8926299999999999
 31
0.0
  0
TEXT
  5
20E
  8
_________2
 62
     7
 10
24.586600000000001
 20
0.707627
 30
0.0
 40
3.9357000000000002
  1
重量：10kg、オーバーフロー付
 41
0.5
  0
TEXT
  5
20F
  8
_________2
 62
     7
 10
109.179
 20
24.226099999999999
 30
0.0
 40
3.9357000000000002
  1
スタルク3　手洗器
 41
0.5
  0
TEXT
  5
210
  8
_________2
 62
     7
 10
39.425100333333333
 20
13.603400000000001
 30
0.0
 40
3.6545800000000002
  1
福田
 41
0.5
 72
     1
 11
41.313299999999998
 21
13.603400000000001
 31
0.0
  0
TEXT
  5
211
  8
_________2
 62
     7
 10
20.790190666666671
 20
13.603400000000001
 30
0.0
 40
3.6545800000000002
  1
石原
 41
0.5
 72
     1
 11
22.7393
 21
13.603400000000001
 31
0.0
  0
TEXT
  5
212
  8
_________2
 62
     7
 10
67.785600000000002
 20
13.218199999999991
 30
0.0
 40
3.6545800000000002
  1
05.09.01
 41
0.5
  0
TEXT
  5
213
  8
_________2
 62
     7
 10
66.5929
 20
19.410799999999991
 30
0.0
 40
3.0923400000000001
  1
日付
 41
0.5
  0
TEXT
  5
214
  8
_________2
 62
     7
 10
29.639199999999992
 20
19.410799999999991
 30
0.0
 40
3.0923400000000001
  1
検図
 41
0.5
  0
TEXT
  5
215
  8
_________2
 62
     7
 10
18.020900000000001
 20
5.21143
 30
0.0
 40
3.0923400000000001
  1
備考
 41
0.5
  0
TEXT
  5
216
  8
_________2
 62
     7
 10
18.020900000000001
 20
19.410799999999991
 30
0.0
 40
3.0923400000000001
  1
製図
 41
0.5
  0
TEXT
  5
217
  8
_________2
 62
     7
 10
23.788265333333339
 20
27.936800000000002
 30
0.0
 40
4.4979399999999989
  1
セラトレーディング株式会社
 41
0.5
 72
     1
 11
41.180300000000003
 21
27.936800000000002
 31
0.0
  0
LINE
  5
218
  8
_________2
 62
     7
 10
183.55099999999999
 20
-4.0910799999999998
 30
0.0
 11
17.049399999999991
 21
-4.0910799999999998
 31
0.0
  0
LINE
  5
219
  8
_________2
 62
     7
 10
17.049399999999991
 20
-4.0910799999999998
 30
0.0
 11
17.049399999999991
 21
258.911
 31
0.0
  0
LINE
  5
21A
  8
_________2
 62
     7
 10
17.049399999999991
 20
258.911
 30
0.0
 11
183.55099999999999
 21
258.911
 31
0.0
  0
LINE
  5
21B
  8
_________2
 62
     7
 10
183.55099999999999
 20
258.911
 30
0.0
 11
183.55099999999999
 21
-4.0910799999999998
 31
0.0
  0
LINE
  5
21C
  8
_________2
 62
     7
 10
65.549700000000001
 20
9.4092999999999982
 30
0.0
 11
65.549700000000001
 21
35.909100000000002
 31
0.0
  0
LINE
  5
21D
  8
_________2
 62
     7
 10
84.549599999999984
 20
9.4092999999999982
 30
0.0
 11
84.549599999999984
 21
35.909100000000002
 31
0.0
  0
LINE
  5
21E
  8
_________2
 62
     7
 10
103.55
 20
-4.0910799999999998
 30
0.0
 11
103.55
 21
35.909100000000002
 31
0.0
  0
LINE
  5
21F
  8
_________2
 62
     7
 10
28.549199999999988
 20
9.4092999999999982
 30
0.0
 11
28.549199999999988
 21
23.409199999999998
 31
0.0
  0
LINE
  5
220
  8
_________2
 62
     7
 10
17.049399999999991
 20
9.4092999999999982
 30
0.0
 11
103.55
 21
9.4092999999999982
 31
0.0
  0
LINE
  5
221
  8
_________2
 62
     7
 10
17.049399999999991
 20
23.409199999999998
 30
0.0
 11
103.55
 21
23.409199999999998
 31
0.0
  0
LINE
  5
222
  8
_________2
 62
     7
 10
103.55
 20
15.9085
 30
0.0
 11
183.55099999999999
 21
15.9085
 31
0.0
  0
LINE
  5
223
  8
_________2
 62
     7
 10
17.049399999999991
 20
35.909100000000002
 30
0.0
 11
183.55099999999999
 21
35.909100000000002
 31
0.0
  0
ENDSEC
  0
EOF
