  0
SECTION
  2
HEADER
  9
$ACADVER
  1
AC1009
  9
$INSBASE
 10
0.0
 20
0.0
 30
0.0
  9
$EXTMIN
 10
0.238402
 20
0.4485540000000001
 30
0.0
  9
$EXTMAX
 10
210.24000000000001
 20
297.45100000000002
 30
0.0
  9
$LIMMIN
 10
0.0
 20
0.0
  9
$LIMMAX
 10
12.0
 20
9.0
  9
$ORTHOMODE
 70
     0
  9
$REGENMODE
 70
     1
  9
$FILLMODE
 70
     1
  9
$QTEXTMODE
 70
     0
  9
$MIRRTEXT
 70
     1
  9
$DRAGMODE
 70
     2
  9
$LTSCALE
 40
1.0
  9
$OSMODE
 70
    37
  9
$ATTMODE
 70
     1
  9
$TEXTSIZE
 40
0.0
  9
$TRACEWID
 40
0.05
  9
$TEXTSTYLE
  7
STANDARD
  9
$CLAYER
  8
0
  9
$CELTYPE
  6
CONTINUOUS
  9
$CECOLOR
 62
   256
  9
$DIMSCALE
 40
1.0
  9
$DIMASZ
 40
0.18
  9
$DIMEXO
 40
0.0625
  9
$DIMDLI
 40
0.38
  9
$DIMRND
 40
0.0
  9
$DIMDLE
 40
0.0
  9
$DIMEXE
 40
0.18
  9
$DIMTP
 40
0.0
  9
$DIMTM
 40
0.0
  9
$DIMTXT
 40
0.18
  9
$DIMCEN
 40
0.09
  9
$DIMTSZ
 40
0.0
  9
$DIMTOL
 70
     0
  9
$DIMLIM
 70
     0
  9
$DIMTIH
 70
     1
  9
$DIMTOH
 70
     1
  9
$DIMSE1
 70
     0
  9
$DIMSE2
 70
     0
  9
$DIMTAD
 70
     0
  9
$DIMZIN
 70
     0
  9
$DIMBLK
  1

  9
$DIMASO
 70
     1
  9
$DIMSHO
 70
     1
  9
$DIMPOST
  1

  9
$DIMAPOST
  1

  9
$DIMALT
 70
     0
  9
$DIMALTD
 70
     2
  9
$DIMALTF
 40
25.399999999999999
  9
$DIMLFAC
 40
1.0
  9
$DIMTOFL
 70
     0
  9
$DIMTVP
 40
0.0
  9
$DIMTIX
 70
     0
  9
$DIMSOXD
 70
     0
  9
$DIMSAH
 70
     0
  9
$DIMBLK1
  1

  9
$DIMBLK2
  1

  9
$DIMSTYLE
  2
STANDARD
  9
$DIMCLRD
 70
     0
  9
$DIMCLRE
 70
     0
  9
$DIMCLRT
 70
     0
  9
$DIMTFAC
 40
1.0
  9
$DIMGAP
 40
0.09
  9
$LUNITS
 70
     2
  9
$LUPREC
 70
     4
  9
$SKETCHINC
 40
0.1
  9
$FILLETRAD
 40
0.0
  9
$AUNITS
 70
     0
  9
$AUPREC
 70
     0
  9
$MENU
  1
.
  9
$ELEVATION
 40
0.0
  9
$PELEVATION
 40
0.0
  9
$THICKNESS
 40
0.0
  9
$LIMCHECK
 70
     0
  9
$BLIPMODE
 70
     0
  9
$CHAMFERA
 40
0.0
  9
$CHAMFERB
 40
0.0
  9
$SKPOLY
 70
     0
  9
$TDCREATE
 40
2444972.375
  9
$TDUPDATE
 40
2457436.2530043991
  9
$TDINDWG
 40
0.0000263657
  9
$TDUSRTIMER
 40
0.0000263657
  9
$USRTIMER
 70
     1
  9
$ANGBASE
 50
0.0
  9
$ANGDIR
 70
     0
  9
$PDMODE
 70
     0
  9
$PDSIZE
 40
0.0
  9
$PLINEWID
 40
0.0
  9
$COORDS
 70
     1
  9
$SPLFRAME
 70
     0
  9
$SPLINETYPE
 70
     6
  9
$SPLINESEGS
 70
     8
  9
$ATTDIA
 70
     1
  9
$ATTREQ
 70
     1
  9
$HANDLING
 70
     1
  9
$HANDSEED
  5
24F
  9
$SURFTAB1
 70
     6
  9
$SURFTAB2
 70
     6
  9
$SURFTYPE
 70
     6
  9
$SURFU
 70
     6
  9
$SURFV
 70
     6
  9
$UCSNAME
  2

  9
$UCSORG
 10
0.0
 20
0.0
 30
0.0
  9
$UCSXDIR
 10
1.0
 20
0.0
 30
0.0
  9
$UCSYDIR
 10
0.0
 20
1.0
 30
0.0
  9
$PUCSNAME
  2

  9
$PUCSORG
 10
0.0
 20
0.0
 30
0.0
  9
$PUCSXDIR
 10
1.0
 20
0.0
 30
0.0
  9
$PUCSYDIR
 10
0.0
 20
1.0
 30
0.0
  9
$USERI1
 70
     0
  9
$USERI2
 70
     0
  9
$USERI3
 70
     0
  9
$USERI4
 70
     0
  9
$USERI5
 70
     0
  9
$USERR1
 40
0.0
  9
$USERR2
 40
0.0
  9
$USERR3
 40
0.0
  9
$USERR4
 40
0.0
  9
$USERR5
 40
0.0
  9
$WORLDVIEW
 70
     1
  9
$SHADEDGE
 70
     3
  9
$SHADEDIF
 70
    70
  9
$TILEMODE
 70
     1
  9
$MAXACTVP
 70
    48
  9
$PLIMCHECK
 70
     0
  9
$PEXTMIN
 10
1.0000000000000000E+020
 20
1.0000000000000000E+020
 30
1.0000000000000000E+020
  9
$PEXTMAX
 10
-1.0000000000000000E+020
 20
-1.0000000000000000E+020
 30
-1.0000000000000000E+020
  9
$PLIMMIN
 10
0.0
 20
0.0
  9
$PLIMMAX
 10
12.0
 20
9.0
  9
$UNITMODE
 70
     0
  9
$VISRETAIN
 70
     1
  9
$PLINEGEN
 70
     0
  9
$PSLTSCALE
 70
     1
  0
ENDSEC
  0
SECTION
  2
TABLES
  0
TABLE
  2
VPORT
 70
     1
  0
VPORT
  2
*ACTIVE
 70
     0
 10
0.0
 20
0.0
 11
1.0
 21
1.0
 12
170.64664076348581
 22
148.72550000000001
 13
0.0
 23
0.0
 14
1.0
 24
1.0
 15
0.0
 25
0.0
 16
0.0
 26
0.0
 36
1.0
 17
0.0
 27
0.0
 37
0.0
 40
283.95706667814062
 41
2.1001926782273599
 42
50.0
 43
0.0
 44
0.0
 50
0.0
 51
0.0
 71
     0
 72
   100
 73
     1
 74
     1
 75
     0
 76
     0
 77
     0
 78
     0
  0
ENDTAB
  0
TABLE
  2
LTYPE
 70
     3
  0
LTYPE
  2
CONTINUOUS
 70
     0
  3
Solid line
 72
    65
 73
     0
 40
0.0
  0
LTYPE
  2
AIGENLINE001
 70
     0
  3
generate AI->DXF Converter
 72
    65
 73
     4
 40
5.8561449999999988
 49
3.5278
 49
-0.776115
 49
0.776115
 49
-0.776115
  0
LTYPE
  2
AIGENLINE002
 70
     0
  3
generate AI->DXF Converter
 72
    65
 73
     2
 40
1.5522299999999991
 49
0.776115
 49
-0.776115
  0
ENDTAB
  0
TABLE
  2
LAYER
 70
     2
  0
LAYER
  2
0
 70
     0
 62
     7
  6
CONTINUOUS
  0
LAYER
  2
_________2
 70
     0
 62
     7
  6
CONTINUOUS
  0
ENDTAB
  0
TABLE
  2
STYLE
 70
     1
  0
STYLE
  2
STANDARD
 70
     0
 40
0.0
 41
0.0
 50
0.0
 71
     0
 42
0.0
  3
TXT
  4
EXTFONT.SHX
  0
ENDTAB
  0
TABLE
  2
VIEW
 70
     0
  0
ENDTAB
  0
TABLE
  2
UCS
 70
     0
  0
ENDTAB
  0
TABLE
  2
APPID
 70
     3
  0
APPID
  2
ACAD
 70
     0
  0
APPID
  2
ACAD_NAV_VCDISPLAY
 70
     0
  0
APPID
  2
ACAD_MLEADERVER
 70
     0
  0
ENDTAB
  0
TABLE
  2
DIMSTYLE
 70
     1
  0
DIMSTYLE
  2
STANDARD
 70
     0
  3

  4

  5

  6

  7

 40
1.0
 41
0.18
 42
0.0625
 43
0.38
 44
0.18
 45
0.0
 46
0.0
 47
0.0
 48
0.0
140
0.18
141
0.09
142
0.0
143
25.399999999999999
144
1.0
145
0.0
146
1.0
147
0.09
 71
     0
 72
     0
 73
     1
 74
     1
 75
     0
 76
     0
 77
     0
 78
     0
170
     0
171
     2
172
     0
173
     0
174
     0
175
     0
176
     0
177
     0
178
     0
  0
ENDTAB
  0
ENDSEC
  0
SECTION
  2
BLOCKS
  0
BLOCK
  8
0
  2
$MODEL_SPACE
 70
     0
 10
0.0
 20
0.0
 30
0.0
  3
$MODEL_SPACE
  1

  0
ENDBLK
  5
1A
  8
0
  0
BLOCK
 67
     1
  8
0
  2
$PAPER_SPACE
 70
     0
 10
0.0
 20
0.0
 30
0.0
  3
$PAPER_SPACE
  1

  0
ENDBLK
  5
17
 67
     1
  8
0
  0
ENDSEC
  0
SECTION
  2
ENTITIES
  0
TEXT
  5
23
  8
0
 62
     7
 10
152.34200000000001
 20
118.3249825
 30
0.0
 40
3.0923400000000001
  1
130
 50
90.0
 41
0.5
 72
     1
 11
152.34200000000001
 21
120.0
 31
0.0
  0
TEXT
  5
24
  8
0
 62
     7
 10
165.3012875
 20
102.04900000000001
 30
0.0
 40
3.0923400000000001
  1
230
 41
0.5
 72
     1
 11
167.23400000000001
 21
102.04900000000001
 31
0.0
  0
TEXT
  5
25
  8
0
 62
     7
 10
76.545680000000004
 20
218.946
 30
0.0
 40
3.0923400000000001
  1
%%c35
 41
0.5
 72
     2
 11
80.668800000000005
 21
218.946
 31
0.0
  0
TEXT
  5
26
  8
0
 62
     7
 10
76.267979999999994
 20
203.39500000000001
 30
0.0
 40
3.0923400000000001
  1
%%c46
 41
0.5
 72
     2
 11
80.391099999999994
 21
203.39500000000001
 31
0.0
  0
TEXT
  5
27
  8
0
 62
     7
 10
47.602600000000002
 20
122.4053725
 30
0.0
 40
3.0923400000000001
  1
60
 50
90.0
 41
0.5
 72
     1
 11
47.602600000000002
 21
123.565
 31
0.0
  0
LINE
  5
28
  8
0
 62
     7
 10
48.8934
 20
124.404
 30
0.0
 11
48.300899999999999
 21
126.616
 31
0.0
  0
LINE
  5
29
  8
0
 62
     7
 10
48.300899999999999
 20
126.616
 30
0.0
 11
47.708300000000001
 21
124.404
 31
0.0
  0
LINE
  5
2A
  8
0
 62
     7
 10
47.708300000000001
 20
124.404
 30
0.0
 11
48.8934
 21
124.404
 31
0.0
  0
LINE
  5
2B
  8
0
 62
     7
 10
47.722799999999999
 20
122.825
 30
0.0
 11
48.315399999999997
 21
120.614
 31
0.0
  0
LINE
  5
2C
  8
0
 62
     7
 10
48.315399999999997
 20
120.614
 30
0.0
 11
48.907899999999991
 21
122.825
 31
0.0
  0
LINE
  5
2D
  8
0
 62
     7
 10
48.907899999999991
 20
122.825
 30
0.0
 11
47.722799999999999
 21
122.825
 31
0.0
  0
LINE
  5
2E
  8
0
 62
     7
 10
48.308100000000003
 20
124.80800000000001
 30
0.0
 11
48.308100000000003
 21
122.42100000000001
 31
0.0
  0
LINE
  5
2F
  8
0
 62
     7
 10
53.030700000000003
 20
126.61499999999999
 30
0.0
 11
47.602600000000002
 21
126.61499999999999
 31
0.0
  0
LINE
  5
30
  8
0
 62
     7
 10
52.325099999999999
 20
120.61499999999999
 30
0.0
 11
47.602600000000002
 21
120.61499999999999
 31
0.0
  0
TEXT
  5
31
  8
0
 62
     7
 10
108.27500000000001
 20
115.9319825
 30
0.0
 40
3.0923400000000001
  1
180
 50
90.0
 41
0.5
 72
     1
 11
108.27500000000001
 21
117.607
 31
0.0
  0
TEXT
  5
32
  8
0
 62
     7
 10
67.3761875
 20
166.40899999999999
 30
0.0
 40
3.0923400000000001
  1
650
 41
0.5
 72
     1
 11
69.308899999999994
 21
166.40899999999999
 31
0.0
  0
TEXT
  5
33
  8
0
 62
     7
 10
117.55800000000001
 20
176.255
 30
0.0
 40
3.0923400000000001
  1
15
 50
90.0
 41
0.5
  0
TEXT
  5
34
  8
0
 62
     7
 10
117.55800000000001
 20
198.37028749999999
 30
0.0
 40
3.0923400000000001
  1
340
 50
90.0
 41
0.5
 72
     1
 11
117.55800000000001
 21
200.303
 31
0.0
  0
TEXT
  5
35
  8
0
 62
     7
 10
126.039
 20
204.37028749999999
 30
0.0
 40
3.0923400000000001
  1
490
 50
90.0
 41
0.5
 72
     1
 11
126.039
 21
206.303
 31
0.0
  0
TEXT
  5
36
  8
0
 62
     7
 10
117.55800000000001
 20
222.250135
 30
0.0
 40
3.0923400000000001
  1
135
 50
90.0
 41
0.5
 72
     1
 11
117.55800000000001
 21
224.054
 31
0.0
  0
TEXT
  5
37
  8
0
 62
     7
 10
109.504
 20
225.98637249999999
 30
0.0
 40
3.0923400000000001
  1
70
 50
90.0
 41
0.5
 72
     1
 11
109.504
 21
227.14599999999999
 31
0.0
  0
TEXT
  5
38
  8
0
 62
     7
 10
109.504
 20
219.390525
 30
0.0
 40
3.0923400000000001
  1
65
 50
90.0
 41
0.5
 72
     1
 11
109.504
 21
220.679
 31
0.0
  0
TEXT
  5
39
  8
0
 62
     7
 10
67.3761875
 20
173.40899999999999
 30
0.0
 40
3.0923400000000001
  1
620
 41
0.5
 72
     1
 11
69.308899999999994
 21
173.40899999999999
 31
0.0
  0
TEXT
  5
3A
  8
0
 62
     7
 10
67.290587500000001
 20
133.749
 30
0.0
 40
3.0923400000000001
  1
280
 41
0.5
 72
     1
 11
69.223299999999995
 21
133.749
 31
0.0
  0
LINE
  5
3B
  8
0
  6
AIGENLINE001
 62
     7
 10
155.733
 20
127.849
 30
0.0
 11
155.733
 21
107.167
 31
0.0
  0
LINE
  5
3C
  8
0
  6
AIGENLINE001
 62
     7
 10
69.308899999999994
 20
127.974
 30
0.0
 11
69.308899999999994
 21
106.59399999999999
 31
0.0
  0
LINE
  5
3D
  8
0
 62
     7
 10
155.57599999999999
 20
113.61499999999999
 30
0.0
 11
152.29400000000001
 21
113.61499999999999
 31
0.0
  0
LINE
  5
3E
  8
0
  6
AIGENLINE002
 62
     7
 10
158.03299999999999
 20
112.114
 30
0.0
 11
159.73400000000001
 21
113.614
 31
0.0
  0
LINE
  5
3F
  8
0
  6
AIGENLINE002
 62
     7
 10
153.43299999999999
 20
112.114
 30
0.0
 11
151.73400000000001
 21
113.614
 31
0.0
  0
ARC
  5
40
  8
0
  6
AIGENLINE002
 62
     7
 10
142.08102099999999
 20
128.85084499999999
 30
0.0
 40
10.801321
 50
195.66020900000001
 51
203.409796
  0
ARC
  5
41
  8
0
  6
AIGENLINE002
 62
     7
 10
-12.762447
 20
62.095307999999989
 30
0.0
 40
157.81898000000001
 50
22.894829999999999
 51
23.315626000000002
  0
ARC
  5
42
  8
0
  6
AIGENLINE002
 62
     7
 10
117.490256
 20
117.368185
 30
0.0
 40
16.325949000000001
 50
20.983972000000001
 51
22.035378000000001
  0
ARC
  5
43
  8
0
  6
AIGENLINE002
 62
     7
 10
138.07894899999999
 20
125.264489
 30
0.0
 40
5.7250350000000001
 50
200.98073099999999
 51
205.76715100000001
  0
ARC
  5
44
  8
0
  6
AIGENLINE002
 62
     7
 10
140.55947900000001
 20
126.431566
 30
0.0
 40
8.4663109999999993
 50
205.58246500000001
 51
212.43992600000001
  0
ARC
  5
45
  8
0
  6
AIGENLINE002
 62
     7
 10
143.29413099999999
 20
128.110884
 30
0.0
 40
11.675148999999999
 50
212.19631799999999
 51
229.64028999999999
  0
ARC
  5
46
  8
0
  6
AIGENLINE002
 62
     7
 10
229.42427699999999
 20
228.16257899999999
 30
0.0
 40
143.69290000000001
 50
229.30586299999999
 51
229.70451800000001
  0
ARC
  5
47
  8
0
  6
AIGENLINE002
 62
     7
 10
151.89993100000001
 20
136.75496799999999
 30
0.0
 40
23.837260000000001
 50
229.73642699999999
 51
232.40075400000001
  0
ARC
  5
48
  8
0
  6
AIGENLINE002
 62
     7
 10
147.512595
 20
131.238247
 30
0.0
 40
16.789870000000001
 50
232.77658
 51
236.08898500000001
  0
ARC
  5
49
  8
0
  6
AIGENLINE002
 62
     7
 10
159.334609
 20
148.63825800000001
 30
0.0
 40
37.825926000000003
 50
235.93206499999999
 51
237.000665
  0
ARC
  5
4A
  8
0
  6
AIGENLINE002
 62
     7
 10
177.43137400000001
 20
176.29575199999999
 30
0.0
 40
70.877747999999997
 50
236.908309
 51
237.49083300000001
  0
ARC
  5
4B
  8
0
  6
AIGENLINE002
 62
     7
 10
147.13482400000001
 20
128.80605299999999
 30
0.0
 40
14.547037
 50
237.59571600000001
 51
241.09043600000001
  0
ARC
  5
4C
  8
0
  6
AIGENLINE002
 62
     7
 10
145.713448
 20
126.391689
 30
0.0
 40
11.74666
 50
241.46638799999999
 51
245.30537799999999
  0
ARC
  5
4D
  8
0
  6
AIGENLINE002
 62
     7
 10
150.78818799999999
 20
137.33542499999999
 30
0.0
 40
23.809729000000001
 50
245.21262200000001
 51
247.64814799999999
  0
ARC
  5
4E
  8
0
  6
AIGENLINE002
 62
     7
 10
144.793204
 20
122.64737700000001
 30
0.0
 40
7.9455080000000002
 50
247.350945
 51
253.78764899999999
  0
ARC
  5
4F
  8
0
  6
AIGENLINE002
 62
     7
 10
144.42180300000001
 20
121.585847
 30
0.0
 40
6.8227619999999991
 50
254.293655
 51
259.39752199999998
  0
ARC
  5
50
  8
0
  6
AIGENLINE002
 62
     7
 10
145.77976000000001
 20
128.685483
 30
0.0
 40
14.051074
 50
259.28138100000001
 51
261.04837099999997
  0
ARC
  5
51
  8
0
  6
AIGENLINE002
 62
     7
 10
137.91991899999999
 20
77.437138000000004
 30
0.0
 40
37.796649000000002
 50
79.614519999999999
 51
81.366951999999998
  0
ARC
  5
52
  8
0
  6
AIGENLINE002
 62
     7
 10
155.170345
 20
169.335227
 30
0.0
 40
55.707068999999997
 50
259.20171699999997
 51
260.76774699999999
  0
ARC
  5
53
  8
0
  6
AIGENLINE002
 62
     7
 10
164.87974299999999
 20
228.46789799999999
 30
0.0
 40
115.63152700000001
 50
260.71990499999998
 51
261.47255699999999
  0
ARC
  5
54
  8
0
  6
AIGENLINE002
 62
     7
 10
154.870452
 20
161.234859
 30
0.0
 40
47.657596999999988
 50
261.38731899999999
 51
263.09099700000002
  0
ARC
  5
55
  8
0
  6
AIGENLINE002
 62
     7
 10
133.854893
 20
-14.797727999999999
 30
0.0
 40
129.62512000000001
 50
82.662046000000004
 51
83.229123000000001
  0
ARC
  5
56
  8
0
  6
AIGENLINE002
 62
     7
 10
149.36329699999999
 20
106.10012500000001
 30
0.0
 40
7.7368860000000002
 50
79.798896999999997
 51
82.218731999999989
  0
LINE
  5
57
  8
0
  6
AIGENLINE002
 62
     7
 10
150.73400000000001
 20
113.715
 30
0.0
 11
151.73400000000001
 21
113.614
 31
0.0
  0
LINE
  5
58
  8
0
 62
     7
 10
153.6329999999999
 20
124.404
 30
0.0
 11
153.03999999999999
 21
126.61499999999999
 31
0.0
  0
LINE
  5
59
  8
0
 62
     7
 10
153.03999999999999
 20
126.61499999999999
 30
0.0
 11
152.44800000000001
 21
124.404
 31
0.0
  0
LINE
  5
5A
  8
0
 62
     7
 10
152.44800000000001
 20
124.404
 30
0.0
 11
153.6329999999999
 21
124.404
 31
0.0
  0
LINE
  5
5B
  8
0
 62
     7
 10
152.46199999999999
 20
115.825
 30
0.0
 11
153.05500000000001
 21
113.614
 31
0.0
  0
LINE
  5
5C
  8
0
 62
     7
 10
153.05500000000001
 20
113.614
 30
0.0
 11
153.64699999999999
 21
115.825
 31
0.0
  0
LINE
  5
5D
  8
0
 62
     7
 10
153.64699999999999
 20
115.825
 30
0.0
 11
152.46199999999999
 21
115.825
 31
0.0
  0
LINE
  5
5E
  8
0
 62
     7
 10
153.048
 20
126.61499999999999
 30
0.0
 11
153.048
 21
113.614
 31
0.0
  0
ARC
  5
5F
  8
0
 62
     7
 10
160.102947
 20
93.666599000000005
 30
0.0
 40
15.648011
 50
88.704431000000014
 51
89.949821999999998
  0
ARC
  5
60
  8
0
 62
     7
 10
160.813264
 20
122.497941
 30
0.0
 40
13.192149000000001
 50
268.45139999999998
 51
273.026028
  0
ARC
  5
61
  8
0
 62
     7
 10
161.17834400000001
 20
114.857731
 30
0.0
 40
5.5434549999999998
 50
273.42656499999998
 51
279.08581600000002
  0
ARC
  5
62
  8
0
 62
     7
 10
161.56134399999999
 20
112.372316
 30
0.0
 40
3.0287779999999991
 50
279.35605900000002
 51
286.85926000000001
  0
ARC
  5
63
  8
0
 62
     7
 10
161.933978
 20
111.10548
 30
0.0
 40
1.7083529999999989
 50
287.22120999999999
 51
297.17104999999998
  0
ARC
  5
64
  8
0
 62
     7
 10
162.20692299999999
 20
110.54961
 30
0.0
 40
1.0892399999999991
 50
297.75030299999997
 51
304.43059699999998
  0
ARC
  5
65
  8
0
 62
     7
 10
160.003638
 20
108.549188
 30
0.0
 40
0.884703
 50
170.522683
 51
175.762655
  0
ARC
  5
66
  8
0
 62
     7
 10
160.37696199999999
 20
108.506733
 30
0.0
 40
1.260073999999999
 50
154.26204199999989
 51
171.41371599999999
  0
ARC
  5
67
  8
0
 62
     7
 10
159.75096199999999
 20
108.79345000000001
 30
0.0
 40
0.571833
 50
127.022981
 51
152.90200999999999
  0
ARC
  5
68
  8
0
 62
     7
 10
159.616319
 20
108.94219200000001
 30
0.0
 40
0.3724369999999999
 50
89.348906999999997
 51
124.26267199999999
  0
ARC
  5
69
  8
0
 62
     7
 10
152.640445
 20
109.133769
 30
0.0
 40
0.5195720000000001
 50
182.09365299999999
 51
267.86690299999998
  0
LINE
  5
6A
  8
0
 62
     7
 10
152.12100000000001
 20
109.11499999999999
 30
0.0
 11
152.12100000000001
 21
110.05800000000001
 31
0.0
  0
LINE
  5
6B
  8
0
  6
AIGENLINE002
 62
     7
 10
153.43299999999999
 20
108.61499999999999
 30
0.0
 11
153.43299999999999
 21
112.114
 31
0.0
  0
LINE
  5
6C
  8
0
  6
AIGENLINE002
 62
     7
 10
158.03299999999999
 20
112.114
 30
0.0
 11
158.03299999999999
 21
108.63800000000001
 31
0.0
  0
LINE
  5
6D
  8
0
  6
AIGENLINE002
 62
     7
 10
159.63200000000001
 20
113.614
 30
0.0
 11
151.73400000000001
 21
113.614
 31
0.0
  0
ARC
  5
6E
  8
0
  6
AIGENLINE002
 62
     7
 10
160.480796
 20
118.114468
 30
0.0
 40
4.500013
 50
270.00002000000001
 51
359.99999000000003
  0
ARC
  5
6F
  8
0
  6
AIGENLINE002
 62
     7
 10
166.064233
 20
125.784053
 30
0.0
 40
0.8311149999999999
 50
92.109700000000004
 51
177.89027100000001
  0
LINE
  5
70
  8
0
  6
AIGENLINE002
 62
     7
 10
164.98099999999999
 20
118.114
 30
0.0
 11
165.23400000000001
 21
125.815
 31
0.0
  0
LINE
  5
71
  8
0
  6
AIGENLINE001
 62
     7
 10
171.73400000000001
 20
121.98399999999999
 30
0.0
 11
171.73400000000001
 21
128.393
 31
0.0
  0
LINE
  5
72
  8
0
  6
AIGENLINE001
 62
     7
 10
174.36000000000001
 20
120.614
 30
0.0
 11
180.76900000000001
 21
120.614
 31
0.0
  0
LINE
  5
73
  8
0
 62
     7
 10
157.94399999999999
 20
101.928
 30
0.0
 11
155.732
 21
101.336
 31
0.0
  0
LINE
  5
74
  8
0
 62
     7
 10
155.732
 20
101.336
 30
0.0
 11
157.94399999999999
 21
100.74299999999999
 31
0.0
  0
LINE
  5
75
  8
0
 62
     7
 10
157.94399999999999
 20
100.74299999999999
 30
0.0
 11
157.94399999999999
 21
101.928
 31
0.0
  0
LINE
  5
76
  8
0
 62
     7
 10
176.523
 20
100.758
 30
0.0
 11
178.73500000000001
 21
101.34999999999999
 31
0.0
  0
LINE
  5
77
  8
0
 62
     7
 10
178.73500000000001
 20
101.34999999999999
 30
0.0
 11
176.523
 21
101.943
 31
0.0
  0
LINE
  5
78
  8
0
 62
     7
 10
176.523
 20
101.943
 30
0.0
 11
176.523
 21
100.758
 31
0.0
  0
LINE
  5
79
  8
0
 62
     7
 10
155.733
 20
101.343
 30
0.0
 11
178.73400000000001
 21
101.343
 31
0.0
  0
LINE
  5
7A
  8
0
 62
     7
 10
155.733
 20
106.461
 30
0.0
 11
155.733
 21
100.601
 31
0.0
  0
LINE
  5
7B
  8
0
 62
     7
 10
178.73400000000001
 20
108.90900000000001
 30
0.0
 11
178.73400000000001
 21
100.601
 31
0.0
  0
ARC
  5
7C
  8
0
  6
AIGENLINE002
 62
     7
 10
130.71401399999999
 20
125.58752
 30
0.0
 40
1.0272709999999989
 50
19.784116000000001
 51
88.908208000000002
  0
ARC
  5
7D
  8
0
 62
     7
 10
130.722264
 20
125.613066
 30
0.0
 40
0.988795
 50
179.917586
 51
194.54638
  0
ARC
  5
7E
  8
0
 62
     7
 10
130.733588
 20
125.614487
 30
0.0
 40
1.0001180000000001
 50
90.0
 51
179.99996999999999
  0
ARC
  5
7F
  8
0
 62
     7
 10
133.320177
 20
125.848038
 30
0.0
 40
3.585105
 50
188.04247499999991
 51
190.61928499999999
  0
ARC
  5
80
  8
0
 62
     7
 10
141.24826999999999
 20
127.245114
 30
0.0
 40
11.635204
 50
190.18665100000001
 51
194.04077799999999
  0
ARC
  5
81
  8
0
 62
     7
 10
146.191698
 20
128.435562
 30
0.0
 40
16.719815000000001
 50
193.888442
 51
216.39687499999999
  0
ARC
  5
82
  8
0
 62
     7
 10
147.607122
 20
129.699825
 30
0.0
 40
18.610158999999999
 50
216.944165
 51
221.124698
  0
ARC
  5
83
  8
0
 62
     7
 10
144.28704400000001
 20
126.884018
 30
0.0
 40
14.257391
 50
221.37595899999999
 51
228.71536599999999
  0
ARC
  5
84
  8
0
 62
     7
 10
-73.968008999999995
 20
-120.49556800000001
 30
0.0
 40
315.63949500000001
 50
48.365963000000001
 51
48.572915000000002
  0
ARC
  5
85
  8
0
 62
     7
 10
141.27388300000001
 20
121.48432099999999
 30
0.0
 40
8.2181740000000012
 50
227.61074600000001
 51
231.70091500000001
  0
ARC
  5
86
  8
0
 62
     7
 10
143.91162299999999
 20
124.780781
 30
0.0
 40
12.440002
 50
231.57644199999999
 51
237.47724199999999
  0
ARC
  5
87
  8
0
 62
     7
 10
147.322317
 20
129.93505500000001
 30
0.0
 40
18.619973999999999
 50
237.1550529999999
 51
242.530968
  0
ARC
  5
88
  8
0
 62
     7
 10
145.56951900000001
 20
126.469521
 30
0.0
 40
14.736696
 50
242.36239900000001
 51
245.39308
  0
ARC
  5
89
  8
0
 62
     7
 10
149.88815399999999
 20
135.79076499999999
 30
0.0
 40
25.009717999999999
 50
245.28961799999999
 51
248.01804000000001
  0
ARC
  5
8A
  8
0
 62
     7
 10
212.82584800000001
 20
290.85028199999999
 30
0.0
 40
192.35544999999999
 50
247.922381
 51
248.30977599999991
  0
ARC
  5
8B
  8
0
 62
     7
 10
135.197598
 20
96.031778000000003
 30
0.0
 40
17.360023999999999
 50
66.672911999999997
 51
67.88345600000001
  0
ARC
  5
8C
  8
0
 62
     7
 10
150.758669
 20
131.373806
 30
0.0
 40
21.257027000000001
 50
245.879448
 51
250.57640699999999
  0
ARC
  5
8D
  8
0
 62
     7
 10
147.84844000000001
 20
123.331298
 30
0.0
 40
12.704651
 50
250.89237700000001
 51
255.80752699999999
  0
ARC
  5
8E
  8
0
 62
     7
 10
149.04225400000001
 20
128.26592099999999
 30
0.0
 40
17.781434000000001
 50
255.97667999999999
 51
259.36201899999998
  0
ARC
  5
8F
  8
0
 62
     7
 10
151.49858599999999
 20
140.831084
 30
0.0
 40
30.584233000000001
 50
259.1848950000001
 51
262.63351399999999
  0
ARC
  5
90
  8
0
 62
     7
 10
154.74603400000001
 20
164.13908499999999
 30
0.0
 40
54.116729999999997
 50
262.38768099999999
 51
264.36944999999997
  0
ARC
  5
91
  8
0
 62
     7
 10
158.07972000000001
 20
196.884062
 30
0.0
 40
87.030862999999997
 50
264.30041
 51
266.37314800000001
  0
ARC
  5
92
  8
0
 62
     7
 10
162.17167499999999
 20
256.47595200000001
 30
0.0
 40
146.762587
 50
266.25053500000001
 51
267.832201
  0
ARC
  5
93
  8
0
 62
     7
 10
166.21746400000001
 20
353.89467500000001
 30
0.0
 40
244.26489000000001
 50
267.74825099999998
 51
269.04261400000001
  0
ARC
  5
94
  8
0
 62
     7
 10
169.153593
 20
500.06529699999987
 30
0.0
 40
390.46447699999999
 50
268.97021899999999
 51
269.64457700000003
  0
ARC
  5
95
  8
0
 62
     7
 10
170.69870700000001
 20
718.74066200000004
 30
0.0
 40
609.14524900000004
 50
269.62684200000001
 51
270.16232599999989
  0
LINE
  5
96
  8
0
 62
     7
 10
172.42400000000001
 20
109.598
 30
0.0
 11
178.233
 21
109.614
 31
0.0
  0
LINE
  5
97
  8
0
 62
     7
 10
178.73400000000001
 20
126.11499999999999
 30
0.0
 11
178.73400000000001
 21
110.11499999999999
 31
0.0
  0
LINE
  5
98
  8
0
  6
AIGENLINE002
 62
     7
 10
153.44300000000001
 20
112.114
 30
0.0
 11
158.03299999999999
 21
112.114
 31
0.0
  0
LINE
  5
99
  8
0
 62
     7
 10
159.62100000000001
 20
109.315
 30
0.0
 11
160.11699999999999
 21
109.315
 31
0.0
  0
LINE
  5
9A
  8
0
 62
     7
 10
152.62100000000001
 20
108.61499999999999
 30
0.0
 11
159.12100000000001
 21
108.61499999999999
 31
0.0
  0
LINE
  5
9B
  8
0
 62
     7
 10
130.73400000000001
 20
126.61499999999999
 30
0.0
 11
178.233
 21
126.61499999999999
 31
0.0
  0
ARC
  5
9C
  8
0
 62
     7
 10
178.233486
 20
110.11456099999999
 30
0.0
 40
0.5002310000000002
 50
270.00002000000001
 51
359.99999000000003
  0
ARC
  5
9D
  8
0
 62
     7
 10
178.214191
 20
126.09506500000001
 30
0.0
 40
0.519898
 50
2.166456999999999
 51
87.873007000000015
  0
LINE
  5
9E
  8
0
 62
     7
 10
66.071100000000001
 20
226.167
 30
0.0
 11
68.054199999999994
 21
225.02199999999999
 31
0.0
  0
LINE
  5
9F
  8
0
 62
     7
 10
68.054199999999994
 20
225.02199999999999
 30
0.0
 11
66.909300000000002
 21
227.005
 31
0.0
  0
LINE
  5
A0
  8
0
 62
     7
 10
66.909300000000002
 20
227.005
 30
0.0
 11
66.071100000000001
 21
226.167
 31
0.0
  0
LINE
  5
A1
  8
0
 62
     7
 10
72.510599999999997
 20
221.404
 30
0.0
 11
70.527900000000002
 21
222.548
 31
0.0
  0
LINE
  5
A2
  8
0
 62
     7
 10
70.527900000000002
 20
222.548
 30
0.0
 11
71.672700000000006
 21
220.566
 31
0.0
  0
LINE
  5
A3
  8
0
 62
     7
 10
71.672700000000006
 20
220.566
 30
0.0
 11
72.510599999999997
 21
221.404
 31
0.0
  0
LINE
  5
A4
  8
0
 62
     7
 10
65.180199999999985
 20
227.89599999999999
 30
0.0
 11
74.835499999999996
 21
218.24100000000001
 31
0.0
  0
LINE
  5
A5
  8
0
 62
     7
 10
74.835499999999996
 20
218.24100000000001
 30
0.0
 11
80.845200000000006
 21
218.24100000000001
 31
0.0
  0
LINE
  5
A6
  8
0
 62
     7
 10
65.681200000000004
 20
210.55699999999999
 30
0.0
 11
67.664199999999994
 21
209.41200000000001
 31
0.0
  0
LINE
  5
A7
  8
0
 62
     7
 10
67.664199999999994
 20
209.41200000000001
 30
0.0
 11
66.519400000000005
 21
211.39500000000001
 31
0.0
  0
LINE
  5
A8
  8
0
 62
     7
 10
66.519400000000005
 20
211.39500000000001
 30
0.0
 11
65.681200000000004
 21
210.55699999999999
 31
0.0
  0
LINE
  5
A9
  8
0
 62
     7
 10
72.8994
 20
205.01499999999999
 30
0.0
 11
70.916700000000006
 21
206.15899999999999
 31
0.0
  0
LINE
  5
AA
  8
0
 62
     7
 10
70.916700000000006
 20
206.15899999999999
 30
0.0
 11
72.061499999999995
 21
204.17699999999999
 31
0.0
  0
LINE
  5
AB
  8
0
 62
     7
 10
72.061499999999995
 20
204.17699999999999
 30
0.0
 11
72.8994
 21
205.01499999999999
 31
0.0
  0
LINE
  5
AC
  8
0
 62
     7
 10
64.790300000000002
 20
212.286
 30
0.0
 11
74.381500000000003
 21
202.69499999999999
 31
0.0
  0
LINE
  5
AD
  8
0
 62
     7
 10
74.381500000000003
 20
202.69499999999999
 30
0.0
 11
80.391099999999994
 21
202.69499999999999
 31
0.0
  0
LINE
  5
AE
  8
0
  6
AIGENLINE001
 62
     7
 10
74.912499999999994
 20
207.803
 30
0.0
 11
63.447200000000002
 21
207.803
 31
0.0
  0
LINE
  5
AF
  8
0
 62
     7
 10
118.84999999999999
 20
179.59299999999999
 30
0.0
 11
118.25700000000001
 21
181.804
 31
0.0
  0
LINE
  5
B0
  8
0
 62
     7
 10
118.25700000000001
 20
181.804
 30
0.0
 11
117.66500000000001
 21
179.59299999999999
 31
0.0
  0
LINE
  5
B1
  8
0
 62
     7
 10
117.66500000000001
 20
179.59299999999999
 30
0.0
 11
118.84999999999999
 21
179.59299999999999
 31
0.0
  0
LINE
  5
B2
  8
0
 62
     7
 10
118.264
 20
181.803
 30
0.0
 11
118.264
 21
176.33099999999999
 31
0.0
  0
LINE
  5
B3
  8
0
 62
     7
 10
39.0197
 20
166.28800000000001
 30
0.0
 11
36.80810000000001
 21
165.696
 31
0.0
  0
LINE
  5
B4
  8
0
 62
     7
 10
36.80810000000001
 20
165.696
 30
0.0
 11
39.0197
 21
165.10299999999989
 31
0.0
  0
LINE
  5
B5
  8
0
 62
     7
 10
39.0197
 20
165.10299999999989
 30
0.0
 11
39.0197
 21
166.28800000000001
 31
0.0
  0
LINE
  5
B6
  8
0
 62
     7
 10
99.598299999999995
 20
165.11799999999999
 30
0.0
 11
101.81
 21
165.71000000000001
 31
0.0
  0
LINE
  5
B7
  8
0
 62
     7
 10
101.81
 20
165.71000000000001
 30
0.0
 11
99.598299999999995
 21
166.303
 31
0.0
  0
LINE
  5
B8
  8
0
 62
     7
 10
99.598299999999995
 20
166.303
 30
0.0
 11
99.598299999999995
 21
165.11799999999999
 31
0.0
  0
LINE
  5
B9
  8
0
 62
     7
 10
36.808999999999997
 20
165.703
 30
0.0
 11
101.809
 21
165.703
 31
0.0
  0
LINE
  5
BA
  8
0
 62
     7
 10
101.809
 20
184.98099999999999
 30
0.0
 11
101.809
 21
164.64500000000001
 31
0.0
  0
LINE
  5
BB
  8
0
 62
     7
 10
36.808700000000002
 20
184.98099999999999
 30
0.0
 11
36.808700000000002
 21
164.64500000000001
 31
0.0
  0
LINE
  5
BC
  8
0
 62
     7
 10
40.519100000000002
 20
173.2879999999999
 30
0.0
 11
38.307499999999997
 21
172.696
 31
0.0
  0
LINE
  5
BD
  8
0
 62
     7
 10
38.307499999999997
 20
172.696
 30
0.0
 11
40.519100000000002
 21
172.10300000000001
 31
0.0
  0
LINE
  5
BE
  8
0
 62
     7
 10
40.519100000000002
 20
172.10300000000001
 30
0.0
 11
40.519100000000002
 21
173.2879999999999
 31
0.0
  0
LINE
  5
BF
  8
0
 62
     7
 10
98.0976
 20
172.11799999999999
 30
0.0
 11
100.309
 21
172.71000000000001
 31
0.0
  0
LINE
  5
C0
  8
0
 62
     7
 10
100.309
 20
172.71000000000001
 30
0.0
 11
98.0976
 21
173.303
 31
0.0
  0
LINE
  5
C1
  8
0
 62
     7
 10
98.0976
 20
173.303
 30
0.0
 11
98.0976
 21
172.11799999999999
 31
0.0
  0
LINE
  5
C2
  8
0
 62
     7
 10
38.308300000000003
 20
172.703
 30
0.0
 11
100.30800000000001
 21
172.703
 31
0.0
  0
LINE
  5
C3
  8
0
 62
     7
 10
100.309
 20
184.98099999999999
 30
0.0
 11
100.309
 21
171.64500000000001
 31
0.0
  0
LINE
  5
C4
  8
0
 62
     7
 10
38.308700000000002
 20
184.98099999999999
 30
0.0
 11
38.308700000000002
 21
171.64500000000001
 31
0.0
  0
LINE
  5
C5
  8
0
 62
     7
 10
118.84999999999999
 20
215.09299999999999
 30
0.0
 11
118.25700000000001
 21
217.304
 31
0.0
  0
LINE
  5
C6
  8
0
 62
     7
 10
118.25700000000001
 20
217.304
 30
0.0
 11
117.66500000000001
 21
215.09299999999999
 31
0.0
  0
LINE
  5
C7
  8
0
 62
     7
 10
117.66500000000001
 20
215.09299999999999
 30
0.0
 11
118.84999999999999
 21
215.09299999999999
 31
0.0
  0
LINE
  5
C8
  8
0
 62
     7
 10
117.679
 20
185.51400000000001
 30
0.0
 11
118.27200000000001
 21
183.30199999999999
 31
0.0
  0
LINE
  5
C9
  8
0
 62
     7
 10
118.27200000000001
 20
183.30199999999999
 30
0.0
 11
118.864
 21
185.51400000000001
 31
0.0
  0
LINE
  5
CA
  8
0
 62
     7
 10
118.864
 20
185.51400000000001
 30
0.0
 11
117.679
 21
185.51400000000001
 31
0.0
  0
LINE
  5
CB
  8
0
 62
     7
 10
118.264
 20
217.303
 30
0.0
 11
118.264
 21
183.303
 31
0.0
  0
LINE
  5
CC
  8
0
 62
     7
 10
118.264
 20
183.303
 30
0.0
 11
118.264
 21
181.803
 31
0.0
  0
LINE
  5
CD
  8
0
 62
     7
 10
98.321100000000001
 20
181.803
 30
0.0
 11
127.438
 21
181.803
 31
0.0
  0
LINE
  5
CE
  8
0
 62
     7
 10
98.321100000000001
 20
183.303
 30
0.0
 11
119.322
 21
183.303
 31
0.0
  0
LINE
  5
CF
  8
0
 62
     7
 10
126.16
 20
228.59299999999999
 30
0.0
 11
126.752
 21
230.804
 31
0.0
  0
LINE
  5
D0
  8
0
 62
     7
 10
126.752
 20
230.804
 30
0.0
 11
127.345
 21
228.59299999999999
 31
0.0
  0
LINE
  5
D1
  8
0
 62
     7
 10
127.345
 20
228.59299999999999
 30
0.0
 11
126.16
 21
228.59299999999999
 31
0.0
  0
LINE
  5
D2
  8
0
 62
     7
 10
127.33
 20
184.01400000000001
 30
0.0
 11
126.738
 21
181.80199999999999
 31
0.0
  0
LINE
  5
D3
  8
0
 62
     7
 10
126.738
 20
181.80199999999999
 30
0.0
 11
126.145
 21
184.01400000000001
 31
0.0
  0
LINE
  5
D4
  8
0
 62
     7
 10
126.145
 20
184.01400000000001
 30
0.0
 11
127.33
 21
184.01400000000001
 31
0.0
  0
LINE
  5
D5
  8
0
 62
     7
 10
126.745
 20
230.804
 30
0.0
 11
126.745
 21
181.803
 31
0.0
  0
LINE
  5
D6
  8
0
 62
     7
 10
98.901600000000016
 20
217.303
 30
0.0
 11
119.322
 21
217.303
 31
0.0
  0
LINE
  5
D7
  8
0
 62
     7
 10
118.84999999999999
 20
228.59299999999999
 30
0.0
 11
118.25700000000001
 21
230.804
 31
0.0
  0
LINE
  5
D8
  8
0
 62
     7
 10
118.25700000000001
 20
230.804
 30
0.0
 11
117.66500000000001
 21
228.59299999999999
 31
0.0
  0
LINE
  5
D9
  8
0
 62
     7
 10
117.66500000000001
 20
228.59299999999999
 30
0.0
 11
118.84999999999999
 21
228.59299999999999
 31
0.0
  0
LINE
  5
DA
  8
0
 62
     7
 10
117.679
 20
219.51400000000001
 30
0.0
 11
118.27200000000001
 21
217.30199999999999
 31
0.0
  0
LINE
  5
DB
  8
0
 62
     7
 10
118.27200000000001
 20
217.30199999999999
 30
0.0
 11
118.864
 21
219.51400000000001
 31
0.0
  0
LINE
  5
DC
  8
0
 62
     7
 10
118.864
 20
219.51400000000001
 30
0.0
 11
117.679
 21
219.51400000000001
 31
0.0
  0
LINE
  5
DD
  8
0
 62
     7
 10
118.264
 20
230.804
 30
0.0
 11
118.264
 21
217.303
 31
0.0
  0
LINE
  5
DE
  8
0
 62
     7
 10
110.794
 20
221.59299999999999
 30
0.0
 11
110.202
 21
223.804
 31
0.0
  0
LINE
  5
DF
  8
0
 62
     7
 10
110.202
 20
223.804
 30
0.0
 11
109.60899999999999
 21
221.59299999999999
 31
0.0
  0
LINE
  5
E0
  8
0
 62
     7
 10
109.60899999999999
 20
221.59299999999999
 30
0.0
 11
110.794
 21
221.59299999999999
 31
0.0
  0
LINE
  5
E1
  8
0
 62
     7
 10
109.624
 20
219.51400000000001
 30
0.0
 11
110.21599999999999
 21
217.30199999999999
 31
0.0
  0
LINE
  5
E2
  8
0
 62
     7
 10
110.21599999999999
 20
217.30199999999999
 30
0.0
 11
110.809
 21
219.51400000000001
 31
0.0
  0
LINE
  5
E3
  8
0
 62
     7
 10
110.809
 20
219.51400000000001
 30
0.0
 11
109.624
 21
219.51400000000001
 31
0.0
  0
LINE
  5
E4
  8
0
 62
     7
 10
110.209
 20
223.803
 30
0.0
 11
110.209
 21
217.303
 31
0.0
  0
LINE
  5
E5
  8
0
 62
     7
 10
110.794
 20
228.59299999999999
 30
0.0
 11
110.202
 21
230.804
 31
0.0
  0
LINE
  5
E6
  8
0
 62
     7
 10
110.202
 20
230.804
 30
0.0
 11
109.60899999999999
 21
228.59299999999999
 31
0.0
  0
LINE
  5
E7
  8
0
 62
     7
 10
109.60899999999999
 20
228.59299999999999
 30
0.0
 11
110.794
 21
228.59299999999999
 31
0.0
  0
LINE
  5
E8
  8
0
 62
     7
 10
109.624
 20
226.01400000000001
 30
0.0
 11
110.21599999999999
 21
223.803
 31
0.0
  0
LINE
  5
E9
  8
0
 62
     7
 10
110.21599999999999
 20
223.803
 30
0.0
 11
110.809
 21
226.01400000000001
 31
0.0
  0
LINE
  5
EA
  8
0
 62
     7
 10
110.809
 20
226.01400000000001
 30
0.0
 11
109.624
 21
226.01400000000001
 31
0.0
  0
LINE
  5
EB
  8
0
 62
     7
 10
110.209
 20
230.804
 30
0.0
 11
110.209
 21
223.803
 31
0.0
  0
LINE
  5
EC
  8
0
 62
     7
 10
102.87
 20
230.804
 30
0.0
 11
127.452
 21
230.804
 31
0.0
  0
LINE
  5
ED
  8
0
 62
     7
 10
73.677800000000005
 20
223.803
 30
0.0
 11
111.268
 21
223.803
 31
0.0
  0
LINE
  5
EE
  8
0
 62
     7
 10
101.809
 20
187.803
 30
0.0
 11
101.809
 21
230.304
 31
0.0
  0
LINE
  5
EF
  8
0
 62
     7
 10
101.309
 20
230.804
 30
0.0
 11
69.308899999999994
 21
230.804
 31
0.0
  0
ARC
  5
F0
  8
0
 62
     7
 10
101.308927
 20
230.30341899999999
 30
0.0
 40
0.500145
 50
0.009877
 51
90.009846999999993
  0
LINE
  5
F1
  8
0
 62
     7
 10
69.308899999999994
 20
230.804
 30
0.0
 11
37.308599999999998
 21
230.804
 31
0.0
  0
LINE
  5
F2
  8
0
 62
     7
 10
36.808700000000002
 20
187.803
 30
0.0
 11
36.808700000000002
 21
230.304
 31
0.0
  0
ARC
  5
F3
  8
0
 62
     7
 10
37.327885000000002
 20
230.28435200000001
 30
0.0
 40
0.5195720000000001
 50
92.132325000000009
 51
177.88738499999999
  0
ARC
  5
F4
  8
0
 62
     7
 10
69.308868000000004
 20
207.803271
 30
0.0
 40
4.000125999999999
 50
0.00001
 51
89.999980000000008
  0
ARC
  5
F5
  8
0
 62
     7
 10
69.308869999999999
 20
207.803271
 30
0.0
 40
4.000125999999999
 50
90.0
 51
179.99996999999999
  0
ARC
  5
F6
  8
0
 62
     7
 10
69.308781999999994
 20
207.803358
 30
0.0
 40
4.0000390000000001
 50
180.00124400000001
 51
270.00125400000002
  0
ARC
  5
F7
  8
0
 62
     7
 10
69.308955000000012
 20
207.803359
 30
0.0
 40
4.0000400000000003
 50
269.998786
 51
359.99875600000001
  0
ARC
  5
F8
  8
0
 62
     7
 10
69.308869000000001
 20
207.80327199999999
 30
0.0
 40
2.2999610000000001
 50
0.00001
 51
89.999980000000008
  0
ARC
  5
F9
  8
0
 62
     7
 10
69.308869999999999
 20
207.80327199999999
 30
0.0
 40
2.2999610000000001
 50
90.0
 51
179.99996999999999
  0
ARC
  5
FA
  8
0
 62
     7
 10
69.308869000000001
 20
207.80327199999999
 30
0.0
 40
2.29996
 50
179.99996999999999
 51
270.00002000000001
  0
ARC
  5
FB
  8
0
 62
     7
 10
69.308869000000001
 20
207.80327299999999
 30
0.0
 40
2.2999610000000001
 50
270.00002000000001
 51
359.99999000000003
  0
LINE
  5
FC
  8
0
  6
AIGENLINE001
 62
     7
 10
69.308899999999994
 20
233.97900000000001
 30
0.0
 11
69.308899999999994
 21
180.392
 31
0.0
  0
LINE
  5
FD
  8
0
  6
AIGENLINE001
 62
     7
 10
72.619500000000002
 20
223.803
 30
0.0
 11
65.709400000000002
 21
223.803
 31
0.0
  0
LINE
  5
FE
  8
0
  6
AIGENLINE001
 62
     7
 10
83.309100000000015
 20
227.39400000000001
 30
0.0
 11
83.309100000000015
 21
234.304
 31
0.0
  0
LINE
  5
FF
  8
0
  6
AIGENLINE001
 62
     7
 10
55.308900000000001
 20
227.39400000000001
 30
0.0
 11
55.308900000000001
 21
234.18700000000001
 31
0.0
  0
ARC
  5
100
  8
0
 62
     7
 10
69.241635999999986
 20
223.736197
 30
0.0
 40
1.818595999999999
 50
2.1186869999999991
 51
87.881303000000003
  0
ARC
  5
101
  8
0
 62
     7
 10
69.308869000000001
 20
223.80342999999999
 30
0.0
 40
1.7501199999999999
 50
90.0
 51
179.99996999999999
  0
ARC
  5
102
  8
0
 62
     7
 10
69.308782999999991
 20
223.803516
 30
0.0
 40
1.7500329999999999
 50
180.00282999999999
 51
270.00283999999999
  0
ARC
  5
103
  8
0
 62
     7
 10
69.241260999999994
 20
223.871217
 30
0.0
 40
1.818991
 50
272.13006000000001
 51
357.86430999999999
  0
LINE
  5
104
  8
0
 62
     7
 10
42.808700000000002
 20
183.303
 30
0.0
 11
95.809100000000015
 21
183.303
 31
0.0
  0
ARC
  5
105
  8
0
 62
     7
 10
95.808968999999991
 20
187.80307500000001
 30
0.0
 40
4.5000989999999987
 50
270.00111600000002
 51
0.001087
  0
LINE
  5
106
  8
0
 62
     7
 10
100.309
 20
212.803
 30
0.0
 11
100.309
 21
187.803
 31
0.0
  0
LINE
  5
107
  8
0
 62
     7
 10
42.808700000000002
 20
217.303
 30
0.0
 11
95.809100000000015
 21
217.303
 31
0.0
  0
LINE
  5
108
  8
0
 62
     7
 10
38.308700000000002
 20
187.803
 30
0.0
 11
38.308700000000002
 21
212.803
 31
0.0
  0
LINE
  5
109
  8
0
 62
     7
 10
42.808700000000002
 20
181.803
 30
0.0
 11
95.809100000000015
 21
181.803
 31
0.0
  0
ARC
  5
10A
  8
0
 62
     7
 10
95.809055000000001
 20
212.80334199999999
 30
0.0
 40
4.500013
 50
0.00001
 51
89.999980000000008
  0
ARC
  5
10B
  8
0
 62
     7
 10
42.808683000000002
 20
212.80334199999999
 30
0.0
 40
4.500013
 50
90.0
 51
179.99996999999999
  0
ARC
  5
10C
  8
0
 62
     7
 10
95.809140999999997
 20
187.803248
 30
0.0
 40
5.9999310000000001
 50
269.99919700000009
 51
359.999168
  0
ARC
  5
10D
  8
0
 62
     7
 10
42.808594999999997
 20
187.803246
 30
0.0
 40
5.999928999999999
 50
180.000832
 51
270.00084199999998
  0
ARC
  5
10E
  8
0
 62
     7
 10
42.808768000000001
 20
187.80307400000001
 30
0.0
 40
4.5000980000000004
 50
179.998874
 51
269.99892299999999
  0
LINE
  5
10F
  8
0
 62
     7
 10
108.395
 20
110.81
 30
0.0
 11
108.988
 21
108.598
 31
0.0
  0
LINE
  5
110
  8
0
 62
     7
 10
108.988
 20
108.598
 30
0.0
 11
109.58
 21
110.81
 31
0.0
  0
LINE
  5
111
  8
0
 62
     7
 10
109.58
 20
110.81
 30
0.0
 11
108.395
 21
110.81
 31
0.0
  0
LINE
  5
112
  8
0
 62
     7
 10
109.566
 20
124.354
 30
0.0
 11
108.973
 21
126.566
 31
0.0
  0
LINE
  5
113
  8
0
 62
     7
 10
108.973
 20
126.566
 30
0.0
 11
108.381
 21
124.354
 31
0.0
  0
LINE
  5
114
  8
0
 62
     7
 10
108.381
 20
124.354
 30
0.0
 11
109.566
 21
124.354
 31
0.0
  0
LINE
  5
115
  8
0
 62
     7
 10
108.98099999999999
 20
108.599
 30
0.0
 11
108.98099999999999
 21
126.565
 31
0.0
  0
LINE
  5
116
  8
0
 62
     7
 10
109.673
 20
126.599
 30
0.0
 11
102.43899999999999
 21
126.599
 31
0.0
  0
LINE
  5
117
  8
0
 62
     7
 10
109.62
 20
108.61499999999999
 30
0.0
 11
73.723399999999998
 21
108.61499999999999
 31
0.0
  0
LINE
  5
118
  8
0
 62
     7
 10
57.520400000000002
 20
132.458
 30
0.0
 11
55.308599999999998
 21
133.05000000000001
 31
0.0
  0
LINE
  5
119
  8
0
 62
     7
 10
55.308599999999998
 20
133.05000000000001
 30
0.0
 11
57.520400000000002
 21
133.643
 31
0.0
  0
LINE
  5
11A
  8
0
 62
     7
 10
57.520400000000002
 20
133.643
 30
0.0
 11
57.520400000000002
 21
132.458
 31
0.0
  0
LINE
  5
11B
  8
0
 62
     7
 10
81.096999999999994
 20
133.62799999999999
 30
0.0
 11
83.308800000000005
 21
133.036
 31
0.0
  0
LINE
  5
11C
  8
0
 62
     7
 10
83.308800000000005
 20
133.036
 30
0.0
 11
81.096999999999994
 21
132.4429999999999
 31
0.0
  0
LINE
  5
11D
  8
0
 62
     7
 10
81.096999999999994
 20
132.4429999999999
 30
0.0
 11
81.096999999999994
 21
133.62799999999999
 31
0.0
  0
LINE
  5
11E
  8
0
 62
     7
 10
55.309600000000003
 20
133.04300000000001
 30
0.0
 11
83.307400000000001
 21
133.04300000000001
 31
0.0
  0
LINE
  5
11F
  8
0
 62
     7
 10
83.308800000000005
 20
133.75
 30
0.0
 11
83.308800000000005
 21
123.626
 31
0.0
  0
LINE
  5
120
  8
0
 62
     7
 10
55.308599999999998
 20
133.75
 30
0.0
 11
55.308599999999998
 21
123.626
 31
0.0
  0
LINE
  5
121
  8
0
 62
     7
 10
72.808800000000005
 20
110.548
 30
0.0
 11
72.808800000000005
 21
109.11499999999999
 31
0.0
  0
ARC
  5
122
  8
0
 62
     7
 10
72.289224000000004
 20
109.134428
 30
0.0
 40
0.519898
 50
272.16646700000001
 51
357.873017
  0
LINE
  5
123
  8
0
 62
     7
 10
72.308899999999994
 20
108.61499999999999
 30
0.0
 11
66.308899999999994
 21
108.61499999999999
 31
0.0
  0
ARC
  5
124
  8
0
 62
     7
 10
66.308860999999993
 20
109.115132
 30
0.0
 40
0.5002310000000002
 50
179.99996999999999
 51
270.00002000000001
  0
LINE
  5
125
  8
0
 62
     7
 10
65.808599999999998
 20
109.11499999999999
 30
0.0
 11
65.808599999999998
 21
110.548
 31
0.0
  0
LINE
  5
126
  8
0
  6
AIGENLINE001
 62
     7
 10
66.226900000000001
 20
123.11499999999999
 30
0.0
 11
72.312299999999993
 21
123.11499999999999
 31
0.0
  0
ARC
  5
127
  8
0
  6
AIGENLINE002
 62
     7
 10
69.308869000000001
 20
123.114711
 30
0.0
 40
1.249889
 50
270.00002000000001
 51
359.99999000000003
  0
ARC
  5
128
  8
0
  6
AIGENLINE002
 62
     7
 10
69.308869000000001
 20
123.11471
 30
0.0
 40
1.249887999999999
 50
179.99996999999999
 51
270.00002000000001
  0
ARC
  5
129
  8
0
  6
AIGENLINE002
 62
     7
 10
69.308869000000001
 20
123.11471
 30
0.0
 40
1.249889
 50
90.0
 51
179.99996999999999
  0
ARC
  5
12A
  8
0
  6
AIGENLINE002
 62
     7
 10
69.308869000000001
 20
123.11471
 30
0.0
 40
1.249889
 50
0.00001
 51
89.999980000000008
  0
ARC
  5
12B
  8
0
 62
     7
 10
37.638874000000001
 20
125.790254
 30
0.0
 40
0.8311149999999999
 50
92.109700000000004
 51
177.89027100000001
  0
ARC
  5
12C
  8
0
 62
     7
 10
37.617722999999998
 20
125.820837
 30
0.0
 40
0.809401
 50
179.99904699999999
 51
193.612953
  0
ARC
  5
12D
  8
0
 62
     7
 10
49.603893999999997
 20
110.622625
 30
0.0
 40
1.002095
 50
241.852462
 51
270.01616799999999
  0
ARC
  5
12E
  8
0
 62
     7
 10
49.605566000000003
 20
110.612041
 30
0.0
 40
0.991511
 50
269.9196950000001
 51
281.42243999999999
  0
ARC
  5
12F
  8
0
 62
     7
 10
69.265377999999998
 20
-394.23899899999998
 30
0.0
 40
504.7976359999999
 50
89.996227000000005
 51
90.499954000000002
  0
ARC
  5
130
  8
0
 62
     7
 10
67.083264999999997
 20
-125.037243
 30
0.0
 40
235.58714699999999
 50
90.540569000000005
 51
91.803590999999997
  0
ARC
  5
131
  8
0
 62
     7
 10
64.076639999999998
 20
-22.015698
 30
0.0
 40
132.52222499999999
 50
91.906196999999963
 51
93.575077000000022
  0
ARC
  5
132
  8
0
 62
     7
 10
61.505972999999997
 20
21.192243000000001
 30
0.0
 40
89.238163999999983
 50
93.657667000000004
 51
95.785133999999999
  0
ARC
  5
133
  8
0
 62
     7
 10
59.215055000000007
 20
44.784787999999999
 30
0.0
 40
65.534931999999998
 50
95.871546999999993
 51
98.258249000000006
  0
LINE
  5
134
  8
0
 62
     7
 10
69.308899999999994
 20
126.61499999999999
 30
0.0
 11
37.511800000000001
 21
126.61499999999999
 31
0.0
  0
ARC
  5
135
  8
0
 62
     7
 10
100.978194
 20
125.78991499999999
 30
0.0
 40
0.831454
 50
2.1322259999999988
 51
87.892433999999994
  0
ARC
  5
136
  8
0
 62
     7
 10
100.987483
 20
125.822292
 30
0.0
 40
0.8215899999999999
 50
346.48852099999999
 51
359.89947899999999
  0
ARC
  5
137
  8
0
 62
     7
 10
89.014173
 20
110.61994300000001
 30
0.0
 40
0.999412
 50
269.96499399999999
 51
298.186104
  0
ARC
  5
138
  8
0
 62
     7
 10
89.012054000000006
 20
110.610851
 30
0.0
 40
0.9903209999999999
 50
258.570649
 51
270.08725500000003
  0
LINE
  5
139
  8
0
  6
AIGENLINE001
 62
     7
 10
55.308599999999998
 20
118.43600000000001
 30
0.0
 11
55.308599999999998
 21
122.92100000000001
 31
0.0
  0
LINE
  5
13A
  8
0
  6
AIGENLINE001
 62
     7
 10
53.030700000000003
 20
120.61499999999999
 30
0.0
 11
57.591000000000001
 21
120.61499999999999
 31
0.0
  0
LINE
  5
13B
  8
0
  6
AIGENLINE002
 62
     7
 10
54.808399999999999
 20
119.36499999999999
 30
0.0
 11
55.808799999999998
 21
119.36499999999999
 31
0.0
  0
LINE
  5
13C
  8
0
  6
AIGENLINE002
 62
     7
 10
54.808399999999999
 20
121.864
 30
0.0
 11
55.808799999999998
 21
121.864
 31
0.0
  0
ARC
  5
13D
  8
0
  6
AIGENLINE002
 62
     7
 10
55.803306999999997
 20
120.628129
 30
0.0
 40
1.263441
 50
270.25059700000003
 51
314.73196000000002
  0
ARC
  5
13E
  8
0
  6
AIGENLINE002
 62
     7
 10
55.79313599999999
 20
120.621011
 30
0.0
 40
1.2656019999999999
 50
315.28587499999998
 51
359.70925099999999
  0
ARC
  5
13F
  8
0
  6
AIGENLINE002
 62
     7
 10
55.79412099999999
 20
120.608228
 30
0.0
 40
1.2646159999999991
 50
0.288193
 51
44.732475999999991
  0
ARC
  5
140
  8
0
  6
AIGENLINE002
 62
     7
 10
55.802655999999999
 20
120.600323
 30
0.0
 40
1.2641690000000001
 50
45.259248000000007
 51
89.720062999999996
  0
ARC
  5
141
  8
0
  6
AIGENLINE002
 62
     7
 10
54.813915000000001
 20
120.60184700000001
 30
0.0
 40
1.2626429999999991
 50
90.251605000000012
 51
134.76904400000001
  0
ARC
  5
142
  8
0
  6
AIGENLINE002
 62
     7
 10
54.822668999999991
 20
120.60839900000001
 30
0.0
 40
1.2642029999999991
 50
135.25985299999999
 51
179.719437
  0
ARC
  5
143
  8
0
  6
AIGENLINE002
 62
     7
 10
54.823919999999987
 20
120.62094999999999
 30
0.0
 40
1.2654540000000001
 50
180.28804
 51
224.71687399999999
  0
ARC
  5
144
  8
0
  6
AIGENLINE002
 62
     7
 10
54.81488800000001
 20
120.63052500000001
 30
0.0
 40
1.2658409999999991
 50
225.31247999999999
 51
269.70500299999998
  0
LINE
  5
145
  8
0
  6
AIGENLINE001
 62
     7
 10
83.308800000000005
 20
118.43600000000001
 30
0.0
 11
83.308800000000005
 21
122.92100000000001
 31
0.0
  0
LINE
  5
146
  8
0
  6
AIGENLINE001
 62
     7
 10
81.031199999999998
 20
120.61499999999999
 30
0.0
 11
85.591200000000001
 21
120.61499999999999
 31
0.0
  0
LINE
  5
147
  8
0
  6
AIGENLINE002
 62
     7
 10
82.808899999999994
 20
119.36499999999999
 30
0.0
 11
83.808699999999988
 21
119.36499999999999
 31
0.0
  0
LINE
  5
148
  8
0
  6
AIGENLINE002
 62
     7
 10
82.808899999999994
 20
121.864
 30
0.0
 11
83.808699999999988
 21
121.864
 31
0.0
  0
ARC
  5
149
  8
0
  6
AIGENLINE002
 62
     7
 10
83.803153000000009
 20
120.62896600000001
 30
0.0
 40
1.264278
 50
270.25042400000001
 51
314.71634899999998
  0
ARC
  5
14A
  8
0
  6
AIGENLINE002
 62
     7
 10
83.791902000000007
 20
120.621601
 30
0.0
 40
1.267029
 50
315.31222500000001
 51
359.6829009999999
  0
ARC
  5
14B
  8
0
  6
AIGENLINE002
 62
     7
 10
83.794312000000005
 20
120.608228
 30
0.0
 40
1.2646159999999991
 50
0.288193
 51
44.732475999999991
  0
ARC
  5
14C
  8
0
  6
AIGENLINE002
 62
     7
 10
83.803423999999993
 20
120.60171099999999
 30
0.0
 40
1.2627779999999991
 50
45.233536999999998
 51
89.761568999999994
  0
ARC
  5
14D
  8
0
  6
AIGENLINE002
 62
     7
 10
82.814440999999988
 20
120.601034
 30
0.0
 40
1.263455999999999
 50
90.250992999999994
 51
134.753861
  0
ARC
  5
14E
  8
0
  6
AIGENLINE002
 62
     7
 10
82.822034999999985
 20
120.609233
 30
0.0
 40
1.263029
 50
135.26039399999999
 51
179.75702899999999
  0
ARC
  5
14F
  8
0
  6
AIGENLINE002
 62
     7
 10
82.825281000000004
 20
120.620941
 30
0.0
 40
1.266279999999999
 50
180.287453
 51
224.67934
  0
ARC
  5
150
  8
0
  6
AIGENLINE002
 62
     7
 10
82.814499999999995
 20
120.629133
 30
0.0
 40
1.264445
 50
225.286765
 51
269.74650200000002
  0
ARC
  5
151
  8
0
 62
     7
 10
69.352015000000009
 20
-394.20200399999999
 30
0.0
 40
504.76064100000002
 50
89.500007999999994
 51
90.003754000000015
  0
ARC
  5
152
  8
0
 62
     7
 10
71.533929000000001
 20
-125.034594
 30
0.0
 40
235.58449899999999
 50
88.196375000000003
 51
89.459395999999998
  0
ARC
  5
153
  8
0
 62
     7
 10
74.540141000000006
 20
-22.027386
 30
0.0
 40
132.533919
 50
86.425017000000025
 51
88.093784999999997
  0
ARC
  5
154
  8
0
 62
     7
 10
77.110444999999984
 20
21.175440999999999
 30
0.0
 40
89.254983999999993
 50
84.215271999999985
 51
86.342468999999994
  0
ARC
  5
155
  8
0
 62
     7
 10
79.400997000000004
 20
44.765479999999997
 30
0.0
 40
65.554282000000001
 50
81.742695999999995
 51
84.128940999999998
  0
LINE
  5
156
  8
0
 62
     7
 10
69.308899999999994
 20
126.61499999999999
 30
0.0
 11
101.105
 21
126.61499999999999
 31
0.0
  0
ARC
  5
157
  8
0
 62
     7
 10
60.789493000000007
 20
131.75372999999999
 30
0.0
 40
24.911104000000002
 50
223.927044
 51
242.09563399999999
  0
ARC
  5
158
  8
0
 62
     7
 10
60.104207000000002
 20
130.84075200000001
 30
0.0
 40
23.784872
 50
203.68687499999999
 51
223.48828700000001
  0
ARC
  5
159
  8
0
 62
     7
 10
62.756630999999999
 20
132.15277800000001
 30
0.0
 40
26.741277
 50
194.039773
 51
203.97808599999999
  0
ARC
  5
15A
  8
0
 62
     7
 10
77.828459999999993
 20
131.752681
 30
0.0
 40
24.909915999999999
 50
297.90437700000001
 51
316.07369199999999
  0
ARC
  5
15B
  8
0
 62
     7
 10
78.512368999999993
 20
130.84105199999999
 30
0.0
 40
23.785613000000001
 50
316.51242999999999
 51
336.31313899999998
  0
ARC
  5
15C
  8
0
 62
     7
 10
75.851768000000007
 20
132.15665799999999
 30
0.0
 40
26.750945000000002
 50
336.02204799999998
 51
345.95685900000001
  0
TEXT
  5
15D
  8
_________2
 62
     7
 10
26.692799999999998
 20
69.0732
 30
0.0
 40
4.2168199999999993
  1
※壁取付部には厚さ30mm以上の補強材を入れてください。
 41
0.5
  0
TEXT
  5
15E
  8
_________2
 62
     7
 10
26.692799999999998
 20
63.802199999999999
 30
0.0
 40
4.2168199999999993
  1
※ペデスタル（DV085839）との施工に当たっては施工説明書をご参照ください。
 41
0.5
  0
TEXT
  5
15F
  8
_________2
 62
     7
 10
28.83196533333334
 20
49.456400000000002
 30
0.0
 40
4.4979399999999989
  1
セラトレーディング株式会社
 41
0.5
 72
     1
 11
46.22399999999999
 21
49.456400000000002
 31
0.0
  0
TEXT
  5
160
  8
_________2
 62
     7
 10
29.525700000000001
 20
22.2272
 30
0.0
 40
3.9357000000000002
  1
実容量：10.0L、重量：18kg、オーバーフロー付
 41
0.5
  0
TEXT
  5
161
  8
_________2
 62
     7
 10
113.886
 20
45.745600000000003
 30
0.0
 40
3.9357000000000002
  1
ミーバイスタルク 洗面器
 41
0.5
  0
LINE
  5
162
  8
_________2
 62
     7
 10
105.239
 20
17.4285
 30
0.0
 11
105.239
 21
0.4485540000000001
 31
0.0
  0
LINE
  5
163
  8
_________2
 62
     7
 10
81.679900000000004
 20
51.324300000000001
 30
0.0
 11
79.493700000000004
 21
51.324300000000001
 31
0.0
  0
LINE
  5
164
  8
_________2
 62
     7
 10
82.172600000000017
 20
51.324300000000001
 30
0.0
 11
81.920400000000001
 21
51.324300000000001
 31
0.0
  0
LINE
  5
165
  8
_________2
 62
     7
 10
82.665199999999984
 20
51.324300000000001
 30
0.0
 11
85.590100000000007
 21
51.324300000000001
 31
0.0
  0
LINE
  5
166
  8
_________2
 62
     7
 10
82.172600000000017
 20
51.324300000000001
 30
0.0
 11
82.424800000000005
 21
51.324300000000001
 31
0.0
  0
LINE
  5
167
  8
_________2
 62
     7
 10
75.776399999999995
 20
51.324300000000001
 30
0.0
 11
73.589399999999998
 21
51.324300000000001
 31
0.0
  0
LINE
  5
168
  8
_________2
 62
     7
 10
76.2684
 20
51.324300000000001
 30
0.0
 11
76.016900000000007
 21
51.324300000000001
 31
0.0
  0
LINE
  5
169
  8
_________2
 62
     7
 10
76.2684
 20
51.817
 30
0.0
 11
76.2684
 21
54.003900000000002
 31
0.0
  0
LINE
  5
16A
  8
_________2
 62
     7
 10
76.2684
 20
51.324300000000001
 30
0.0
 11
76.2684
 21
51.576900000000002
 31
0.0
  0
LINE
  5
16B
  8
_________2
 62
     7
 10
76.76100000000001
 20
51.324300000000001
 30
0.0
 11
78.947999999999993
 21
51.324300000000001
 31
0.0
  0
LINE
  5
16C
  8
_________2
 62
     7
 10
76.2684
 20
51.324300000000001
 30
0.0
 11
76.520499999999998
 21
51.324300000000001
 31
0.0
  0
LINE
  5
16D
  8
_________2
 62
     7
 10
76.2684
 20
50.832399999999993
 30
0.0
 11
76.2684
 21
48.645699999999998
 31
0.0
  0
LINE
  5
16E
  8
_________2
 62
     7
 10
76.2684
 20
51.324300000000001
 30
0.0
 11
76.2684
 21
51.072800000000001
 31
0.0
  0
LINE
  5
16F
  8
_________2
 62
     7
 10
79.979399999999984
 20
50.104799999999997
 30
0.0
 11
85.157399999999996
 21
49.240000000000002
 31
0.0
  0
LINE
  5
170
  8
_________2
 62
     7
 10
79.979399999999984
 20
52.544199999999989
 30
0.0
 11
85.157399999999996
 21
53.409700000000001
 31
0.0
  0
LINE
  5
171
  8
_________2
 62
     7
 10
85.157399999999996
 20
49.240000000000002
 30
0.0
 11
85.157399999999996
 21
53.409700000000001
 31
0.0
  0
LINE
  5
172
  8
_________2
 62
     7
 10
79.979399999999984
 20
50.104799999999997
 30
0.0
 11
79.979399999999984
 21
52.544199999999989
 31
0.0
  0
ARC
  5
173
  8
_________2
 62
     7
 10
76.221766000000002
 20
51.277380999999998
 30
0.0
 40
1.267714
 50
2.1220840000000001
 51
87.894083999999992
  0
ARC
  5
174
  8
_________2
 62
     7
 10
76.315297000000001
 20
51.277734999999993
 30
0.0
 40
1.267374999999999
 50
92.122849999999985
 51
177.893304
  0
ARC
  5
175
  8
_________2
 62
     7
 10
76.315273000000005
 20
51.371245999999992
 30
0.0
 40
1.267363
 50
182.121815
 51
267.87821400000001
  0
ARC
  5
176
  8
_________2
 62
     7
 10
76.221461000000005
 20
51.371928999999987
 30
0.0
 40
1.2680439999999991
 50
272.11916400000001
 51
357.84848499999998
  0
ARC
  5
177
  8
_________2
 62
     7
 10
76.187981999999991
 20
51.244312999999998
 30
0.0
 40
2.1668310000000002
 50
2.1161439999999989
 51
87.874379000000005
  0
ARC
  5
178
  8
_________2
 62
     7
 10
76.348411999999996
 20
51.245334999999997
 30
0.0
 40
2.1657980000000001
 50
92.118487999999999
 51
177.909886
  0
ARC
  5
179
  8
_________2
 62
     7
 10
76.348354
 20
51.404327000000002
 30
0.0
 40
2.1657779999999991
 50
182.11700400000001
 51
267.88302499999998
  0
ARC
  5
17A
  8
_________2
 62
     7
 10
76.188378999999983
 20
51.405009999999997
 30
0.0
 40
2.1664590000000001
 50
272.11546800000002
 51
357.86560400000002
  0
TEXT
  5
17B
  8
_________2
 62
     7
 10
109.544
 20
23.199100000000001
 30
0.0
 40
3.0923400000000001
  1
図番
 41
0.5
  0
LINE
  5
17C
  8
_________2
 62
     7
 10
108.489
 20
27.4283
 30
0.0
 11
188.49000000000001
 21
27.4283
 31
0.0
  0
TEXT
  5
17D
  8
_________2
 62
     7
 10
109.544
 20
33.198900000000002
 30
0.0
 40
3.0923400000000001
  1
品番
 41
0.5
  0
TEXT
  5
17E
  8
_________2
 62
     7
 10
109.544
 20
53.338000000000001
 30
0.0
 40
3.0923400000000001
  1
名称
 41
0.5
  0
TEXT
  5
17F
  8
_________2
 62
     7
 10
94.569199999999995
 20
48.341900000000003
 30
0.0
 40
3.6545800000000002
  1
mm
 41
0.5
  0
TEXT
  5
180
  8
_________2
 62
     7
 10
90.582099999999997
 20
53.338000000000001
 30
0.0
 40
3.0923400000000001
  1
単位
 41
0.5
  0
TEXT
  5
181
  8
_________2
 62
     7
 10
90.582099999999997
 20
40.930399999999999
 30
0.0
 40
3.0923400000000001
  1
尺度
 41
0.5
  0
TEXT
  5
182
  8
_________2
 62
     7
 10
98.050299999999993
 20
34.7378
 30
0.0
 40
3.6545800000000002
  1
 10
 41
0.5
  0
TEXT
  5
183
  8
_________2
 62
     7
 10
95.330699999999993
 20
34.7378
 30
0.0
 40
3.6545800000000002
  1
 ：
 41
0.5
  0
TEXT
  5
184
  8
_________2
 62
     7
 10
92.441500000000005
 20
34.7378
 30
0.0
 40
3.6545800000000002
  1
1
 41
0.5
  0
TEXT
  5
185
  8
_________2
 62
     7
 10
137.327
 20
30.627800000000001
 30
0.0
 40
3.9357000000000002
  1
DV233565-00
 41
0.5
  0
TEXT
  5
186
  8
_________2
 62
     7
 10
137.327
 20
20.626999999999999
 30
0.0
 40
3.9357000000000002
  1
DV233565
 41
0.5
  0
TEXT
  5
187
  8
_________2
 62
     7
 10
41.6663
 20
35.123000000000012
 30
0.0
 40
3.6545800000000002
  1
早川
 41
0.5
  0
TEXT
  5
188
  8
_________2
 62
     7
 10
23.092300000000002
 20
35.123000000000012
 30
0.0
 40
3.6545800000000002
  1
石原
 41
0.5
  0
TEXT
  5
189
  8
_________2
 62
     7
 10
72.724699999999999
 20
34.7378
 30
0.0
 40
3.6545800000000002
  1
15.10.28
 41
0.5
  0
TEXT
  5
18A
  8
_________2
 62
     7
 10
74.768500000000003
 20
40.930399999999999
 30
0.0
 40
3.0923400000000001
  1
付
 41
0.5
  0
TEXT
  5
18B
  8
_________2
 62
     7
 10
71.209900000000005
 20
40.930399999999999
 30
0.0
 40
3.0923400000000001
  1
日
 41
0.5
  0
TEXT
  5
18C
  8
_________2
 62
     7
 10
34.578299999999999
 20
40.930399999999999
 30
0.0
 40
3.0923400000000001
  1
検図
 41
0.5
  0
TEXT
  5
18D
  8
_________2
 62
     7
 10
22.9602
 20
26.731000000000002
 30
0.0
 40
3.0923400000000001
  1
備考
 41
0.5
  0
TEXT
  5
18E
  8
_________2
 62
     7
 10
22.9602
 20
40.930399999999999
 30
0.0
 40
3.0923400000000001
  1
製図
 41
0.5
  0
LINE
  5
18F
  8
_________2
 62
     7
 10
188.49000000000001
 20
17.4285
 30
0.0
 11
21.988499999999998
 21
17.4285
 31
0.0
  0
LINE
  5
190
  8
_________2
 62
     7
 10
21.988499999999998
 20
17.4285
 30
0.0
 11
21.988499999999998
 21
280.43000000000001
 31
0.0
  0
LINE
  5
191
  8
_________2
 62
     7
 10
21.988499999999998
 20
280.43000000000001
 30
0.0
 11
188.49000000000001
 21
280.43000000000001
 31
0.0
  0
LINE
  5
192
  8
_________2
 62
     7
 10
188.49000000000001
 20
280.43000000000001
 30
0.0
 11
188.49000000000001
 21
17.4285
 31
0.0
  0
LINE
  5
193
  8
_________2
 62
     7
 10
70.488799999999998
 20
30.928899999999999
 30
0.0
 11
70.488799999999998
 21
57.428699999999992
 31
0.0
  0
LINE
  5
194
  8
_________2
 62
     7
 10
89.488600000000005
 20
30.928899999999999
 30
0.0
 11
89.488600000000005
 21
57.428699999999992
 31
0.0
  0
LINE
  5
195
  8
_________2
 62
     7
 10
108.489
 20
17.4285
 30
0.0
 11
108.489
 21
57.428699999999992
 31
0.0
  0
LINE
  5
196
  8
_________2
 62
     7
 10
33.488300000000002
 20
30.928899999999999
 30
0.0
 11
33.488300000000002
 21
44.928800000000003
 31
0.0
  0
LINE
  5
197
  8
_________2
 62
     7
 10
21.988499999999998
 20
30.928899999999999
 30
0.0
 11
108.489
 21
30.928899999999999
 31
0.0
  0
LINE
  5
198
  8
_________2
 62
     7
 10
21.988499999999998
 20
44.928800000000003
 30
0.0
 11
108.489
 21
44.928800000000003
 31
0.0
  0
LINE
  5
199
  8
_________2
 62
     7
 10
108.489
 20
37.428100000000001
 30
0.0
 11
188.49000000000001
 21
37.428100000000001
 31
0.0
  0
LINE
  5
19A
  8
_________2
 62
     7
 10
21.988499999999998
 20
57.428699999999992
 30
0.0
 11
188.49000000000001
 21
57.428699999999992
 31
0.0
  0
LINE
  5
19B
  8
_________2
 62
     7
 10
210.24000000000001
 20
148.93100000000001
 30
0.0
 11
188.489
 21
148.93100000000001
 31
0.0
  0
LINE
  5
19C
  8
_________2
 62
     7
 10
105.239
 20
297.45100000000002
 30
0.0
 11
105.239
 21
280.43000000000001
 31
0.0
  0
LINE
  5
19D
  8
_________2
 62
     7
 10
21.988499999999998
 20
148.93100000000001
 30
0.0
 11
0.238402
 21
148.93100000000001
 31
0.0
  0
ENDSEC
  0
EOF
