  0
SECTION
  2
HEADER
  9
$ACADVER
  1
AC1009
  9
$INSBASE
 10
0.0
 20
0.0
 30
0.0
  9
$EXTMIN
 10
0.238058
 20
0.4482100000000001
 30
0.0
  9
$EXTMAX
 10
210.24000000000001
 20
297.44999999999987
 30
0.0
  9
$LIMMIN
 10
0.0
 20
0.0
  9
$LIMMAX
 10
12.0
 20
9.0
  9
$ORTHOMODE
 70
     0
  9
$REGENMODE
 70
     1
  9
$FILLMODE
 70
     1
  9
$QTEXTMODE
 70
     0
  9
$MIRRTEXT
 70
     1
  9
$DRAGMODE
 70
     2
  9
$LTSCALE
 40
1.0
  9
$OSMODE
 70
    37
  9
$ATTMODE
 70
     1
  9
$TEXTSIZE
 40
0.0
  9
$TRACEWID
 40
0.05
  9
$TEXTSTYLE
  7
STANDARD
  9
$CLAYER
  8
0
  9
$CELTYPE
  6
CONTINUOUS
  9
$CECOLOR
 62
   256
  9
$DIMSCALE
 40
1.0
  9
$DIMASZ
 40
0.18
  9
$DIMEXO
 40
0.0625
  9
$DIMDLI
 40
0.38
  9
$DIMRND
 40
0.0
  9
$DIMDLE
 40
0.0
  9
$DIMEXE
 40
0.18
  9
$DIMTP
 40
0.0
  9
$DIMTM
 40
0.0
  9
$DIMTXT
 40
0.18
  9
$DIMCEN
 40
0.09
  9
$DIMTSZ
 40
0.0
  9
$DIMTOL
 70
     0
  9
$DIMLIM
 70
     0
  9
$DIMTIH
 70
     1
  9
$DIMTOH
 70
     1
  9
$DIMSE1
 70
     0
  9
$DIMSE2
 70
     0
  9
$DIMTAD
 70
     0
  9
$DIMZIN
 70
     0
  9
$DIMBLK
  1

  9
$DIMASO
 70
     1
  9
$DIMSHO
 70
     1
  9
$DIMPOST
  1

  9
$DIMAPOST
  1

  9
$DIMALT
 70
     0
  9
$DIMALTD
 70
     2
  9
$DIMALTF
 40
25.399999999999999
  9
$DIMLFAC
 40
1.0
  9
$DIMTOFL
 70
     0
  9
$DIMTVP
 40
0.0
  9
$DIMTIX
 70
     0
  9
$DIMSOXD
 70
     0
  9
$DIMSAH
 70
     0
  9
$DIMBLK1
  1

  9
$DIMBLK2
  1

  9
$DIMSTYLE
  2
STANDARD
  9
$DIMCLRD
 70
     0
  9
$DIMCLRE
 70
     0
  9
$DIMCLRT
 70
     0
  9
$DIMTFAC
 40
1.0
  9
$DIMGAP
 40
0.09
  9
$LUNITS
 70
     2
  9
$LUPREC
 70
     4
  9
$SKETCHINC
 40
0.1
  9
$FILLETRAD
 40
0.0
  9
$AUNITS
 70
     0
  9
$AUPREC
 70
     0
  9
$MENU
  1
.
  9
$ELEVATION
 40
0.0
  9
$PELEVATION
 40
0.0
  9
$THICKNESS
 40
0.0
  9
$LIMCHECK
 70
     0
  9
$BLIPMODE
 70
     0
  9
$CHAMFERA
 40
0.0
  9
$CHAMFERB
 40
0.0
  9
$SKPOLY
 70
     0
  9
$TDCREATE
 40
2444972.375
  9
$TDUPDATE
 40
2456624.25012221
  9
$TDINDWG
 40
0.002636412
  9
$TDUSRTIMER
 40
0.002636412
  9
$USRTIMER
 70
     1
  9
$ANGBASE
 50
0.0
  9
$ANGDIR
 70
     0
  9
$PDMODE
 70
     0
  9
$PDSIZE
 40
0.0
  9
$PLINEWID
 40
0.0
  9
$COORDS
 70
     1
  9
$SPLFRAME
 70
     0
  9
$SPLINETYPE
 70
     6
  9
$SPLINESEGS
 70
     8
  9
$ATTDIA
 70
     0
  9
$ATTREQ
 70
     1
  9
$HANDLING
 70
     1
  9
$HANDSEED
  5
23C
  9
$SURFTAB1
 70
     6
  9
$SURFTAB2
 70
     6
  9
$SURFTYPE
 70
     6
  9
$SURFU
 70
     6
  9
$SURFV
 70
     6
  9
$UCSNAME
  2

  9
$UCSORG
 10
0.0
 20
0.0
 30
0.0
  9
$UCSXDIR
 10
1.0
 20
0.0
 30
0.0
  9
$UCSYDIR
 10
0.0
 20
1.0
 30
0.0
  9
$PUCSNAME
  2

  9
$PUCSORG
 10
0.0
 20
0.0
 30
0.0
  9
$PUCSXDIR
 10
1.0
 20
0.0
 30
0.0
  9
$PUCSYDIR
 10
0.0
 20
1.0
 30
0.0
  9
$USERI1
 70
     0
  9
$USERI2
 70
     0
  9
$USERI3
 70
     0
  9
$USERI4
 70
     0
  9
$USERI5
 70
     0
  9
$USERR1
 40
0.0
  9
$USERR2
 40
0.0
  9
$USERR3
 40
0.0
  9
$USERR4
 40
0.0
  9
$USERR5
 40
0.0
  9
$WORLDVIEW
 70
     1
  9
$SHADEDGE
 70
     3
  9
$SHADEDIF
 70
    70
  9
$TILEMODE
 70
     1
  9
$MAXACTVP
 70
    48
  9
$PLIMCHECK
 70
     0
  9
$PEXTMIN
 10
1.0000000000000000E+020
 20
1.0000000000000000E+020
 30
1.0000000000000000E+020
  9
$PEXTMAX
 10
-1.0000000000000000E+020
 20
-1.0000000000000000E+020
 30
-1.0000000000000000E+020
  9
$PLIMMIN
 10
0.0
 20
0.0
  9
$PLIMMAX
 10
12.0
 20
9.0
  9
$UNITMODE
 70
     0
  9
$VISRETAIN
 70
     1
  9
$PLINEGEN
 70
     0
  9
$PSLTSCALE
 70
     1
  0
ENDSEC
  0
SECTION
  2
TABLES
  0
TABLE
  2
VPORT
 70
     2
  0
VPORT
  2
*ACTIVE
 70
     0
 10
0.0
 20
0.0
 11
1.0
 21
1.0
 12
217.1497482266617
 22
148.7250832171201
 13
0.0
 23
0.0
 14
1.0
 24
1.0
 15
0.0
 25
0.0
 16
0.0
 26
0.0
 36
1.0
 17
0.0
 27
0.0
 37
0.0
 40
299.80155114913549
 41
2.2894736842105261
 42
50.0
 43
0.0
 44
0.0
 50
0.0
 51
0.0
 71
     0
 72
   100
 73
     1
 74
     1
 75
     0
 76
     0
 77
     0
 78
     0
  0
ENDTAB
  0
TABLE
  2
LTYPE
 70
     3
  0
LTYPE
  2
CONTINUOUS
 70
     0
  3
Solid line
 72
    65
 73
     0
 40
0.0
  0
LTYPE
  2
AIGENLINE001
 70
     0
  3
generate AI->DXF Converter
 72
    65
 73
     4
 40
5.8561449999999988
 49
3.5278
 49
-0.776115
 49
0.776115
 49
-0.776115
  0
LTYPE
  2
AIGENLINE002
 70
     0
  3
generate AI->DXF Converter
 72
    65
 73
     2
 40
1.5522299999999991
 49
0.776115
 49
-0.776115
  0
ENDTAB
  0
TABLE
  2
LAYER
 70
     2
  0
LAYER
  2
0
 70
     0
 62
     7
  6
CONTINUOUS
  0
LAYER
  2
_________2
 70
     0
 62
     7
  6
CONTINUOUS
  0
ENDTAB
  0
TABLE
  2
STYLE
 70
     1
  0
STYLE
  2
STANDARD
 70
     0
 40
0.0
 41
0.0
 50
0.0
 71
     0
 42
0.0
  3
TXT
  4
EXTFONT.SHX
  0
ENDTAB
  0
TABLE
  2
VIEW
 70
     0
  0
ENDTAB
  0
TABLE
  2
UCS
 70
     0
  0
ENDTAB
  0
TABLE
  2
APPID
 70
     3
  0
APPID
  2
ACAD
 70
     0
  0
APPID
  2
ACAD_DSTYLE_DIMJOGGED_JOGA
 70
     0
  0
APPID
  2
ACAD_DSTYLE_DIMJOGGED_JOGANGLE_SYMBOL
 70
     0
  0
ENDTAB
  0
TABLE
  2
DIMSTYLE
 70
     1
  0
DIMSTYLE
  2
STANDARD
 70
     0
  3

  4

  5

  6

  7

 40
1.0
 41
0.18
 42
0.0625
 43
0.38
 44
0.18
 45
0.0
 46
0.0
 47
0.0
 48
0.0
140
0.18
141
0.09
142
0.0
143
25.399999999999999
144
1.0
145
0.0
146
1.0
147
0.09
 71
     0
 72
     0
 73
     1
 74
     1
 75
     0
 76
     0
 77
     0
 78
     0
170
     0
171
     2
172
     0
173
     0
174
     0
175
     0
176
     0
177
     0
178
     0
  0
ENDTAB
  0
ENDSEC
  0
SECTION
  2
BLOCKS
  0
BLOCK
  8
0
  2
$MODEL_SPACE
 70
     0
 10
0.0
 20
0.0
 30
0.0
  3
$MODEL_SPACE
  1

  0
ENDBLK
  5
1A
  8
0
  0
BLOCK
 67
     1
  8
0
  2
$PAPER_SPACE
 70
     0
 10
0.0
 20
0.0
 30
0.0
  3
$PAPER_SPACE
  1

  0
ENDBLK
  5
17
 67
     1
  8
0
  0
ENDSEC
  0
SECTION
  2
ENTITIES
  0
TEXT
  5
23
  8
0
 62
     7
 10
47.396700000000003
 20
198.9259999999999
 30
0.0
 40
3.0923400000000001
  1
%%c45
 41
0.5
  0
TEXT
  5
24
  8
0
 62
     7
 10
76.162199999999999
 20
210.92560999999989
 30
0.0
 40
3.0923400000000001
  1
5
 50
90.0
 41
0.5
 72
     1
 11
76.162199999999999
 21
211.44099999999989
 31
0.0
  0
TEXT
  5
25
  8
0
 62
     7
 10
136.26576
 20
165.62299999999991
 30
0.0
 40
3.0923400000000001
  1
カウンター切込寸法
 41
0.5
 72
     1
 11
144.512
 21
165.62299999999991
 31
0.0
  0
TEXT
  5
26
  8
0
 62
     7
 10
48.451799999999999
 20
212.6999999999999
 30
0.0
 40
3.0923400000000001
  1
%%c35
 41
0.5
  0
TEXT
  5
27
  8
0
 62
     7
 10
159.72352499999991
 20
134.261
 30
0.0
 40
3.0923400000000001
  1
65
 41
0.5
 72
     1
 11
161.012
 21
134.261
 31
0.0
  0
TEXT
  5
28
  8
0
 62
     7
 10
152.458135
 20
89.602300000000014
 30
0.0
 40
3.0923400000000001
  1
195
 41
0.5
 72
     1
 11
154.262
 21
89.602300000000014
 31
0.0
  0
TEXT
  5
29
  8
0
 62
     7
 10
142.58798250000001
 20
97.288399999999996
 30
0.0
 40
3.0923400000000001
  1
190
 41
0.5
 72
     1
 11
144.26300000000001
 21
97.288399999999996
 31
0.0
  0
TEXT
  5
2A
  8
0
 62
     7
 10
62.105787499999991
 20
97.245699999999985
 30
0.0
 40
3.0923400000000001
  1
290
 41
0.5
 72
     1
 11
64.038499999999999
 21
97.245699999999985
 31
0.0
  0
TEXT
  5
2B
  8
0
 62
     7
 10
125.3709372108105
 20
211.92977948955749
 30
0.0
 40
3.0923400000000001
  1
R150
 50
332.22599999999989
 41
0.5
 72
     1
 11
127.53700000000001
 21
210.78899999999999
 31
0.0
  0
TEXT
  5
2C
  8
0
 62
     7
 10
137.21583000000001
 20
200.81200000000001
 30
0.0
 40
3.0923400000000001
  1
115
 41
0.5
 72
     1
 11
138.762
 21
200.81200000000001
 31
0.0
  0
TEXT
  5
2D
  8
0
 62
     7
 10
142.57928749999991
 20
181.25499999999991
 30
0.0
 40
3.0923400000000001
  1
530
 41
0.5
 72
     1
 11
144.512
 21
181.25499999999991
 31
0.0
  0
TEXT
  5
2E
  8
0
 62
     7
 10
62.105787499999991
 20
177.21999999999991
 30
0.0
 40
3.0923400000000001
  1
520
 41
0.5
 72
     1
 11
64.038499999999999
 21
177.21999999999991
 31
0.0
  0
TEXT
  5
2F
  8
0
 62
     7
 10
62.105787499999991
 20
170.40899999999999
 30
0.0
 40
3.0923400000000001
  1
560
 41
0.5
 72
     1
 11
64.038499999999999
 21
170.40899999999999
 31
0.0
  0
TEXT
  5
30
  8
0
 62
     7
 10
62.105787499999991
 20
236.29099999999991
 30
0.0
 40
3.0923400000000001
  1
290
 41
0.5
 72
     1
 11
64.038499999999999
 21
236.29099999999991
 31
0.0
  0
TEXT
  5
31
  8
0
 62
     7
 10
54.142299999999992
 20
130.90922
 30
0.0
 40
3.0923400000000001
  1
5
 50
90.0
 41
0.5
 72
     2
 11
54.142299999999992
 21
131.93999999999991
 31
0.0
  0
TEXT
  5
32
  8
0
 62
     7
 10
104.7529999999999
 20
114.4849825
 30
0.0
 40
3.0923400000000001
  1
210
 50
90.0
 41
0.5
 72
     1
 11
104.7529999999999
 21
116.1599999999999
 31
0.0
  0
TEXT
  5
33
  8
0
 62
     7
 10
98.593900000000005
 20
131.14174499999999
 30
0.0
 40
3.0923400000000001
  1
20
 50
90.0
 41
0.5
 72
     2
 11
98.593900000000005
 21
133.46100000000001
 31
0.0
  0
TEXT
  5
34
  8
0
 62
     7
 10
151.22200000000001
 20
130.97221999999991
 30
0.0
 40
3.0923400000000001
  1
5
 50
90.0
 41
0.5
 72
     2
 11
151.22200000000001
 21
132.0029999999999
 31
0.0
  0
TEXT
  5
35
  8
0
 62
     7
 10
140.70400000000001
 20
117.28098249999999
 30
0.0
 40
3.0923400000000001
  1
160
 50
90.0
 41
0.5
 72
     1
 11
140.70400000000001
 21
118.9559999999999
 31
0.0
  0
TEXT
  5
36
  8
0
 62
     7
 10
179.08199999999999
 20
204.93044
 30
0.0
 40
3.0923400000000001
  1
375
 50
90.0
 41
0.5
 72
     1
 11
179.08199999999999
 21
206.99199999999999
 31
0.0
  0
TEXT
  5
37
  8
0
 62
     7
 10
149.965331875278
 20
209.5614143887276
 30
0.0
 40
3.0923400000000001
  1
R345
 50
72.176000000000002
 41
0.5
 72
     1
 11
150.83299999999991
 21
212.25999999999991
 31
0.0
  0
TEXT
  5
38
  8
0
 62
     7
 10
153.30000000000001
 20
196.282355
 30
0.0
 40
3.0923400000000001
  1
157.5
 50
90.0
 41
0.5
 72
     1
 11
153.30000000000001
 21
199.11699999999999
 31
0.0
  0
TEXT
  5
39
  8
0
 62
     7
 10
108.75099999999991
 20
205.178135
 30
0.0
 40
3.0923400000000001
  1
400
 50
90.0
 41
0.5
 72
     1
 11
108.75099999999991
 21
206.98199999999991
 31
0.0
  0
TEXT
  5
3A
  8
0
 62
     7
 10
102.1819999999999
 20
200.55928750000001
 30
0.0
 40
3.0923400000000001
  1
270
 50
90.0
 41
0.5
 72
     1
 11
102.1819999999999
 21
202.49199999999999
 31
0.0
  0
TEXT
  5
3B
  8
0
 62
     7
 10
102.1819999999999
 20
220.07467750000001
 30
0.0
 40
3.0923400000000001
  1
110
 50
90.0
 41
0.5
 72
     1
 11
102.1819999999999
 21
221.49199999999999
 31
0.0
  0
TEXT
  5
3C
  8
0
 62
     7
 10
94.590500000000006
 20
216.95352500000001
 30
0.0
 40
3.0923400000000001
  1
45
 50
90.0
 41
0.5
 72
     1
 11
94.590500000000006
 21
218.24199999999999
 31
0.0
  0
TEXT
  5
3D
  8
0
 62
     7
 10
94.590500000000006
 20
222.45352500000001
 30
0.0
 40
3.0923400000000001
  1
65
 50
90.0
 41
0.5
 72
     1
 11
94.590500000000006
 21
223.74199999999999
 31
0.0
  0
LINE
  5
3E
  8
0
 62
     7
 10
155.34200000000001
 20
221.666
 30
0.0
 11
155.483
 21
223.95099999999999
 31
0.0
  0
LINE
  5
3F
  8
0
 62
     7
 10
155.483
 20
223.95099999999999
 30
0.0
 11
154.2179999999999
 21
222.04299999999989
 31
0.0
  0
LINE
  5
40
  8
0
 62
     7
 10
154.2179999999999
 20
222.04299999999989
 30
0.0
 11
155.34200000000001
 21
221.666
 31
0.0
  0
LINE
  5
41
  8
0
 62
     7
 10
155.483
 20
223.95099999999999
 30
0.0
 11
144.512
 21
191.24199999999999
 31
0.0
  0
LINE
  5
42
  8
0
 62
     7
 10
121.93300000000001
 20
213.40599999999989
 30
0.0
 11
119.697
 21
213.899
 31
0.0
  0
LINE
  5
43
  8
0
 62
     7
 10
119.697
 20
213.899
 30
0.0
 11
121.387
 21
212.35400000000001
 31
0.0
  0
LINE
  5
44
  8
0
 62
     7
 10
121.387
 20
212.35400000000001
 30
0.0
 11
121.93300000000001
 21
213.40599999999989
 31
0.0
  0
LINE
  5
45
  8
0
 62
     7
 10
119.697
 20
213.899
 30
0.0
 11
133.01300000000001
 21
206.99199999999999
 31
0.0
  0
LINE
  5
46
  8
0
 62
     7
 10
180.482
 20
225.74199999999999
 30
0.0
 11
153.33199999999991
 21
225.74199999999999
 31
0.0
  0
LINE
  5
47
  8
0
 62
     7
 10
180.482
 20
188.24199999999999
 30
0.0
 11
153.33199999999991
 21
188.24199999999999
 31
0.0
  0
LINE
  5
48
  8
0
 62
     7
 10
179.197
 20
190.45199999999991
 30
0.0
 11
179.78899999999999
 21
188.2409999999999
 31
0.0
  0
LINE
  5
49
  8
0
 62
     7
 10
179.78899999999999
 20
188.2409999999999
 30
0.0
 11
180.38199999999989
 21
190.45199999999991
 31
0.0
  0
LINE
  5
4A
  8
0
 62
     7
 10
180.38199999999989
 20
190.45199999999991
 30
0.0
 11
179.197
 21
190.45199999999991
 31
0.0
  0
LINE
  5
4B
  8
0
 62
     7
 10
180.36699999999999
 20
223.53099999999989
 30
0.0
 11
179.77500000000001
 21
225.74299999999991
 31
0.0
  0
LINE
  5
4C
  8
0
 62
     7
 10
179.77500000000001
 20
225.74299999999991
 30
0.0
 11
179.18199999999999
 21
223.53099999999989
 31
0.0
  0
LINE
  5
4D
  8
0
 62
     7
 10
179.18199999999999
 20
223.53099999999989
 30
0.0
 11
180.36699999999999
 21
223.53099999999989
 31
0.0
  0
LINE
  5
4E
  8
0
 62
     7
 10
179.78200000000001
 20
188.24199999999999
 30
0.0
 11
179.78200000000001
 21
225.74199999999999
 31
0.0
  0
LINE
  5
4F
  8
0
 62
     7
 10
171.01300000000001
 20
179.8549999999999
 30
0.0
 11
171.01300000000001
 21
201.20699999999999
 31
0.0
  0
LINE
  5
50
  8
0
 62
     7
 10
118.012
 20
179.8549999999999
 30
0.0
 11
118.012
 21
201.20699999999999
 31
0.0
  0
LINE
  5
51
  8
0
 62
     7
 10
120.2229999999999
 20
181.14099999999999
 30
0.0
 11
118.011
 21
180.548
 31
0.0
  0
LINE
  5
52
  8
0
 62
     7
 10
118.011
 20
180.548
 30
0.0
 11
120.2229999999999
 21
179.9559999999999
 31
0.0
  0
LINE
  5
53
  8
0
 62
     7
 10
120.2229999999999
 20
179.9559999999999
 30
0.0
 11
120.2229999999999
 21
181.14099999999999
 31
0.0
  0
LINE
  5
54
  8
0
 62
     7
 10
168.80199999999999
 20
179.97
 30
0.0
 11
171.01400000000001
 21
180.5629999999999
 31
0.0
  0
LINE
  5
55
  8
0
 62
     7
 10
171.01400000000001
 20
180.5629999999999
 30
0.0
 11
168.80199999999999
 21
181.155
 31
0.0
  0
LINE
  5
56
  8
0
 62
     7
 10
168.80199999999999
 20
181.155
 30
0.0
 11
168.80199999999999
 21
179.97
 31
0.0
  0
LINE
  5
57
  8
0
 62
     7
 10
118.012
 20
180.55500000000001
 30
0.0
 11
171.01300000000001
 21
180.55500000000001
 31
0.0
  0
LINE
  5
58
  8
0
 62
     7
 10
153.41499999999991
 20
193.452
 30
0.0
 11
154.00700000000001
 21
191.2409999999999
 31
0.0
  0
LINE
  5
59
  8
0
 62
     7
 10
154.00700000000001
 20
191.2409999999999
 30
0.0
 11
154.59999999999999
 21
193.452
 31
0.0
  0
LINE
  5
5A
  8
0
 62
     7
 10
154.59999999999999
 20
193.452
 30
0.0
 11
153.41499999999991
 21
193.452
 31
0.0
  0
LINE
  5
5B
  8
0
 62
     7
 10
154.58500000000001
 20
204.78099999999989
 30
0.0
 11
153.99299999999999
 21
206.99299999999991
 31
0.0
  0
LINE
  5
5C
  8
0
 62
     7
 10
153.99299999999999
 20
206.99299999999991
 30
0.0
 11
153.39999999999989
 21
204.78099999999989
 31
0.0
  0
LINE
  5
5D
  8
0
 62
     7
 10
153.39999999999989
 20
204.78099999999989
 30
0.0
 11
154.58500000000001
 21
204.78099999999989
 31
0.0
  0
LINE
  5
5E
  8
0
 62
     7
 10
154.0
 20
191.24199999999999
 30
0.0
 11
154.0
 21
206.99199999999999
 31
0.0
  0
LINE
  5
5F
  8
0
 62
     7
 10
154.6999999999999
 20
191.24199999999999
 30
0.0
 11
145.21199999999999
 21
191.24199999999999
 31
0.0
  0
LINE
  5
60
  8
0
 62
     7
 10
135.2229999999999
 20
200.69699999999989
 30
0.0
 11
133.01099999999991
 21
200.10400000000001
 31
0.0
  0
LINE
  5
61
  8
0
 62
     7
 10
133.01099999999991
 20
200.10400000000001
 30
0.0
 11
135.2229999999999
 21
199.512
 31
0.0
  0
LINE
  5
62
  8
0
 62
     7
 10
135.2229999999999
 20
199.512
 30
0.0
 11
135.2229999999999
 21
200.69699999999989
 31
0.0
  0
LINE
  5
63
  8
0
 62
     7
 10
142.30199999999999
 20
199.5259999999999
 30
0.0
 11
144.51299999999989
 21
200.119
 31
0.0
  0
LINE
  5
64
  8
0
 62
     7
 10
144.51299999999989
 20
200.119
 30
0.0
 11
142.30199999999999
 21
200.7109999999999
 31
0.0
  0
LINE
  5
65
  8
0
 62
     7
 10
142.30199999999999
 20
200.7109999999999
 30
0.0
 11
142.30199999999999
 21
199.5259999999999
 31
0.0
  0
LINE
  5
66
  8
0
 62
     7
 10
133.01300000000001
 20
200.11199999999991
 30
0.0
 11
144.512
 21
200.11199999999991
 31
0.0
  0
LINE
  5
67
  8
0
 62
     7
 10
133.01300000000001
 20
199.41200000000001
 30
0.0
 11
133.01300000000001
 21
206.292
 31
0.0
  0
LINE
  5
68
  8
0
  6
AIGENLINE001
 62
     7
 10
144.512
 20
185.684
 30
0.0
 11
144.512
 21
228.512
 31
0.0
  0
LINE
  5
69
  8
0
  6
AIGENLINE001
 62
     7
 10
174.1109999999999
 20
206.99199999999999
 30
0.0
 11
114.63200000000001
 21
206.99199999999999
 31
0.0
  0
LINE
  5
72
  8
0
 62
     7
 10
144.762
 20
87.956299999999999
 30
0.0
 11
144.762
 21
94.939499999999995
 31
0.0
  0
LINE
  5
73
  8
0
 62
     7
 10
66.420299999999997
 20
223.7109999999999
 30
0.0
 11
65.27600000000001
 21
221.72900000000001
 31
0.0
  0
LINE
  5
74
  8
0
 62
     7
 10
65.27600000000001
 20
221.72900000000001
 30
0.0
 11
67.257999999999996
 21
222.874
 31
0.0
  0
LINE
  5
75
  8
0
 62
     7
 10
67.257999999999996
 20
222.874
 30
0.0
 11
66.420299999999997
 21
223.7109999999999
 31
0.0
  0
LINE
  5
76
  8
0
 62
     7
 10
61.656700000000001
 20
217.273
 30
0.0
 11
62.801000000000002
 21
219.25399999999999
 31
0.0
  0
LINE
  5
77
  8
0
 62
     7
 10
62.801000000000002
 20
219.25399999999999
 30
0.0
 11
60.819099999999999
 21
218.11000000000001
 31
0.0
  0
LINE
  5
78
  8
0
 62
     7
 10
60.819099999999999
 20
218.11000000000001
 30
0.0
 11
61.656700000000001
 21
217.273
 31
0.0
  0
LINE
  5
79
  8
0
 62
     7
 10
55.011099999999999
 20
211.465
 30
0.0
 11
68.064700000000002
 21
224.51799999999989
 31
0.0
  0
LINE
  5
7A
  8
0
 62
     7
 10
47.494
 20
197.50700000000001
 30
0.0
 11
54.053400000000003
 21
197.50700000000001
 31
0.0
  0
LINE
  5
7B
  8
0
 62
     7
 10
66.773799999999994
 20
211.065
 30
0.0
 11
65.629499999999993
 21
209.08299999999991
 31
0.0
  0
LINE
  5
7C
  8
0
 62
     7
 10
65.629499999999993
 20
209.08299999999991
 30
0.0
 11
67.611500000000007
 21
210.22699999999989
 31
0.0
  0
LINE
  5
7D
  8
0
 62
     7
 10
67.611500000000007
 20
210.22699999999989
 30
0.0
 11
66.773799999999994
 21
211.065
 31
0.0
  0
LINE
  5
7E
  8
0
 62
     7
 10
61.298499999999997
 20
203.92500000000001
 30
0.0
 11
62.442799999999991
 21
205.90599999999989
 31
0.0
  0
LINE
  5
7F
  8
0
 62
     7
 10
62.442799999999991
 20
205.90599999999989
 30
0.0
 11
60.460799999999992
 21
204.762
 31
0.0
  0
LINE
  5
80
  8
0
 62
     7
 10
60.460799999999992
 20
204.762
 30
0.0
 11
61.298499999999997
 21
203.92500000000001
 31
0.0
  0
LINE
  5
81
  8
0
 62
     7
 10
54.053400000000003
 20
197.50700000000001
 30
0.0
 11
68.2774
 21
211.73099999999991
 31
0.0
  0
ARC
  5
82
  8
0
 62
     7
 10
49.893951999999999
 20
221.20515399999999
 30
0.0
 40
0.8168499999999999
 50
36.381777999999997
 51
89.410853000000003
  0
ARC
  5
83
  8
0
 62
     7
 10
49.901620000000001
 20
221.22405599999999
 30
0.0
 40
0.797905
 50
89.947452999999996
 51
114.498031
  0
ARC
  5
84
  8
0
 62
     7
 10
61.371567000000013
 20
230.926796
 30
0.0
 40
14.226608000000001
 50
220.4876999999999
 51
235.83144799999999
  0
ARC
  5
85
  8
0
 62
     7
 10
62.996468999999991
 20
233.11632999999989
 30
0.0
 40
16.951185999999989
 50
235.44369
 51
251.11107899999999
  0
ARC
  5
86
  8
0
 62
     7
 10
63.925016999999997
 20
235.50111699999999
 30
0.0
 40
19.50844
 50
250.79827399999999
 51
270.332382
  0
ARC
  5
87
  8
0
 62
     7
 10
78.182416000000003
 20
221.20515399999999
 30
0.0
 40
0.8168499999999999
 50
90.589127000000019
 51
143.61820199999991
  0
ARC
  5
88
  8
0
 62
     7
 10
78.174751000000001
 20
221.22406799999999
 30
0.0
 40
0.7978920000000001
 50
65.501756
 51
90.052720000000008
  0
ARC
  5
89
  8
0
 62
     7
 10
66.704802000000001
 20
230.926796
 30
0.0
 40
14.226608000000001
 50
304.16857199999998
 51
319.51231999999999
  0
ARC
  5
8A
  8
0
 62
     7
 10
65.079898999999997
 20
233.11632999999989
 30
0.0
 40
16.951185999999989
 50
288.88894099999987
 51
304.55632999999989
  0
ARC
  5
8B
  8
0
 62
     7
 10
64.151352000000003
 20
235.50111699999999
 30
0.0
 40
19.50844
 50
269.6676379999999
 51
289.20174600000001
  0
ARC
  5
8C
  8
0
  6
AIGENLINE002
 62
     7
 10
61.840121000000003
 20
218.11299
 30
0.0
 40
0.8211209999999999
 50
203.16495299999991
 51
269.03184599999992
  0
ARC
  5
8D
  8
0
  6
AIGENLINE002
 62
     7
 10
61.086032999999993
 20
221.832842
 30
0.0
 40
1.5484129999999989
 50
99.798754000000017
 51
178.47072900000001
  0
ARC
  5
8E
  8
0
  6
AIGENLINE002
 62
     7
 10
61.049568999999991
 20
221.87476099999989
 30
0.0
 40
1.511396999999999
 50
180.022639
 51
198.736974
  0
LINE
  5
8F
  8
0
  6
AIGENLINE002
 62
     7
 10
59.618299999999991
 20
221.38900000000001
 30
0.0
 11
61.0852
 21
217.78999999999999
 31
0.0
  0
LINE
  5
90
  8
0
  6
AIGENLINE002
 62
     7
 10
64.038200000000003
 20
217.29199999999989
 30
0.0
 11
61.8262
 21
217.29199999999989
 31
0.0
  0
ARC
  5
91
  8
0
  6
AIGENLINE002
 62
     7
 10
64.025673999999995
 20
184.99761499999991
 30
0.0
 40
38.494551000000001
 50
89.981369999999984
 51
94.773135999999994
  0
ARC
  5
92
  8
0
  6
AIGENLINE002
 62
     7
 10
66.236246999999992
 20
218.11299
 30
0.0
 40
0.8211209999999999
 50
270.96817399999998
 51
336.83506699999992
  0
ARC
  5
93
  8
0
  6
AIGENLINE002
 62
     7
 10
66.99033399999999
 20
221.832841
 30
0.0
 40
1.5484129999999989
 50
1.529269
 51
80.201209000000006
  0
ARC
  5
94
  8
0
  6
AIGENLINE002
 62
     7
 10
67.026798999999997
 20
221.87476099999989
 30
0.0
 40
1.511396999999999
 50
341.26304599999992
 51
359.97738099999992
  0
LINE
  5
95
  8
0
  6
AIGENLINE002
 62
     7
 10
68.458100000000002
 20
221.38900000000001
 30
0.0
 11
66.991200000000006
 21
217.78999999999999
 31
0.0
  0
LINE
  5
96
  8
0
  6
AIGENLINE001
 62
     7
 10
58.433
 20
207.49199999999999
 30
0.0
 11
68.832800000000006
 21
207.49199999999999
 31
0.0
  0
LINE
  5
97
  8
0
 62
     7
 10
69.517799999999994
 20
207.49199999999999
 30
0.0
 11
77.538200000000003
 21
207.49199999999999
 31
0.0
  0
LINE
  5
98
  8
0
  6
AIGENLINE002
 62
     7
 10
64.038200000000003
 20
217.29199999999989
 30
0.0
 11
66.250100000000003
 21
217.29199999999989
 31
0.0
  0
LINE
  5
99
  8
0
 62
     7
 10
72.489099999999993
 20
217.59599999999989
 30
0.0
 11
72.402199999999993
 21
217.83299999999991
 31
0.0
  0
LINE
  5
9A
  8
0
  6
AIGENLINE001
 62
     7
 10
71.818600000000004
 20
215.06700000000001
 30
0.0
 11
70.276799999999994
 21
219.28
 31
0.0
  0
LINE
  5
9B
  8
0
 62
     7
 10
69.675600000000003
 20
216.56200000000001
 30
0.0
 11
69.600499999999997
 21
216.76899999999989
 31
0.0
  0
LINE
  5
9C
  8
0
 62
     7
 10
69.675600000000003
 20
216.56200000000001
 30
0.0
 11
72.489099999999993
 21
217.59599999999989
 31
0.0
  0
ARC
  5
9D
  8
0
 62
     7
 10
64.038269999999983
 20
220.49189699999999
 30
0.0
 40
1.7500329999999999
 50
179.99715
 51
269.99720000000002
  0
ARC
  5
9E
  8
0
 62
     7
 10
64.038184000000001
 20
220.49198399999989
 30
0.0
 40
1.7501199999999999
 50
270.00002000000001
 51
359.99998999999991
  0
ARC
  5
9F
  8
0
 62
     7
 10
64.038269999999983
 20
220.49189699999999
 30
0.0
 40
1.7500340000000001
 50
0.00283
 51
90.002800000000008
  0
ARC
  5
A0
  8
0
 62
     7
 10
64.038184999999984
 20
220.491983
 30
0.0
 40
1.7499480000000001
 50
90.0
 51
179.99996999999991
  0
ARC
  5
A1
  8
0
  6
AIGENLINE002
 62
     7
 10
64.050693999999993
 20
184.99761499999991
 30
0.0
 40
38.494551000000001
 50
85.226844000000014
 51
90.018610999999993
  0
ARC
  5
A2
  8
0
 62
     7
 10
77.145150000000001
 20
207.00360099999989
 30
0.0
 40
12.89316799999999
 50
335.41412000000003
 51
359.94821100000001
  0
ARC
  5
A3
  8
0
 62
     7
 10
75.162216999999998
 20
207.805601
 30
0.0
 40
15.030307000000001
 50
323.177618
 51
335.77901700000001
  0
ARC
  5
A4
  8
0
 62
     7
 10
72.662388000000007
 20
209.56056699999991
 30
0.0
 40
18.083469999999998
 50
312.47267599999992
 51
323.47352699999988
  0
ARC
  5
A5
  8
0
 62
     7
 10
69.83750400000001
 20
212.48094
 30
0.0
 40
22.145288000000001
 50
301.83970899999991
 51
312.76163600000001
  0
ARC
  5
A6
  8
0
 62
     7
 10
67.070658999999992
 20
216.6551169999999
 30
0.0
 40
27.151405
 50
291.40546199999989
 51
302.15296599999999
  0
ARC
  5
A7
  8
0
 62
     7
 10
65.002572999999998
 20
221.498546
 30
0.0
 40
32.415902000000003
 50
279.82870099999991
 51
291.68428499999999
  0
ARC
  5
A8
  8
0
 62
     7
 10
64.113283999999993
 20
225.6668499999999
 30
0.0
 40
36.67519999999999
 50
269.88268599999998
 51
280.08599700000002
  0
ARC
  5
A9
  8
0
 62
     7
 10
64.038055
 20
226.01210399999999
 30
0.0
 40
37.020378000000001
 50
255.0771269999999
 51
270.00020999999992
  0
ARC
  5
AA
  8
0
 62
     7
 10
62.861364999999999
 20
220.87002799999991
 30
0.0
 40
31.749259999999989
 50
244.08762899999991
 51
254.73934
  0
ARC
  5
AB
  8
0
 62
     7
 10
60.611207
 20
215.941192
 30
0.0
 40
26.332961999999998
 50
233.07845199999991
 51
243.8048839999999
  0
ARC
  5
AC
  8
0
 62
     7
 10
57.615233000000003
 20
211.73455299999989
 30
0.0
 40
21.170594000000001
 50
221.67453199999991
 51
232.721587
  0
ARC
  5
AD
  8
0
 62
     7
 10
54.656342000000002
 20
208.9480749999999
 30
0.0
 40
17.108153000000001
 50
210.0085509999999
 51
221.29289299999999
  0
ARC
  5
AE
  8
0
 62
     7
 10
52.248958000000002
 20
207.46332299999989
 30
0.0
 40
14.281143
 50
194.83985899999999
 51
209.68069299999999
  0
ARC
  5
AF
  8
0
 62
     7
 10
50.844881999999998
 20
207.0051859999999
 30
0.0
 40
12.806832999999999
 50
180.05924699999991
 51
194.46741900000001
  0
ARC
  5
B0
  8
0
 62
     7
 10
50.931106999999997
 20
206.9802939999999
 30
0.0
 40
12.893056
 50
155.4138759999999
 51
179.948195
  0
ARC
  5
B1
  8
0
 62
     7
 10
52.919885999999991
 20
206.174667
 30
0.0
 40
15.037015
 50
143.17968200000001
 51
155.77534800000001
  0
ARC
  5
B2
  8
0
 62
     7
 10
55.410107999999987
 20
204.42662000000001
 30
0.0
 40
18.078341999999999
 50
132.470663
 51
143.47462799999991
  0
ARC
  5
B3
  8
0
 62
     7
 10
58.23713399999999
 20
201.50483999999989
 30
0.0
 40
22.142644000000001
 50
121.8384529999999
 51
132.76165499999999
  0
ARC
  5
B4
  8
0
 62
     7
 10
60.994430000000001
 20
197.350898
 30
0.0
 40
27.126545
 50
111.40026400000001
 51
122.157636
  0
ARC
  5
B5
  8
0
 62
     7
 10
63.073161999999989
 20
192.4870249999999
 30
0.0
 40
32.413963000000003
 50
99.828031999999993
 51
111.6842799999999
  0
ARC
  5
B6
  8
0
 62
     7
 10
63.960520999999993
 20
188.3469419999999
 30
0.0
 40
36.645136000000001
 50
89.878561000000005
 51
100.0901719999999
  0
ARC
  5
B7
  8
0
 62
     7
 10
64.038314
 20
187.970471
 30
0.0
 40
37.02152499999999
 50
75.077468999999994
 51
90.000190999999987
  0
ARC
  5
B8
  8
0
 62
     7
 10
65.214402000000007
 20
193.11129800000001
 30
0.0
 40
31.751767999999998
 50
64.088451000000006
 51
74.739299000000003
  0
ARC
  5
B9
  8
0
 62
     7
 10
67.464945999999998
 20
198.04201199999989
 30
0.0
 40
26.333613
 50
53.078734999999988
 51
63.804856999999998
  0
ARC
  5
BA
  8
0
 62
     7
 10
70.469022999999993
 20
202.25760699999989
 30
0.0
 40
21.159210000000002
 50
41.67183099999999
 51
52.724725000000007
  0
ARC
  5
BB
  8
0
 62
     7
 10
73.42020500000001
 20
205.0358939999999
 30
0.0
 40
17.107973999999992
 50
30.008507999999999
 51
41.292876999999997
  0
ARC
  5
BC
  8
0
 62
     7
 10
75.825531999999995
 20
206.519812
 30
0.0
 40
14.283163999999999
 50
14.840842
 51
29.679459000000001
  0
ARC
  5
BD
  8
0
 62
     7
 10
77.229368000000008
 20
206.97848099999999
 30
0.0
 40
12.80895099999999
 50
0.060237
 51
14.46600799999999
  0
ARC
  5
BE
  8
0
 62
     7
 10
77.302528000000009
 20
207.00402
 30
0.0
 40
14.735852
 50
336.14515899999992
 51
359.953057
  0
ARC
  5
BF
  8
0
 62
     7
 10
75.311154000000002
 20
207.78917200000001
 30
0.0
 40
16.874866000000001
 50
324.06919699999997
 51
336.44148799999988
  0
ARC
  5
C0
  8
0
 62
     7
 10
72.777981999999994
 20
209.513351
 30
0.0
 40
19.938007999999989
 50
313.39444400000002
 51
324.32889999999998
  0
ARC
  5
C1
  8
0
 62
     7
 10
69.908946
 20
212.38727399999999
 30
0.0
 40
23.997649999999989
 50
302.67573499999997
 51
313.65785299999988
  0
ARC
  5
C2
  8
0
 62
     7
 10
67.108008999999996
 20
216.480863
 30
0.0
 40
28.955942999999991
 50
292.04352
 51
302.96779199999992
  0
ARC
  5
C3
  8
0
 62
     7
 10
65.021179000000004
 20
221.21296699999991
 30
0.0
 40
34.125701999999997
 50
280.15148599999992
 51
292.3092529999999
  0
ARC
  5
C4
  8
0
 62
     7
 10
64.116990000000001
 20
225.31508199999999
 30
0.0
 40
38.323326999999999
 50
269.88218999999992
 51
280.40120899999999
  0
ARC
  5
C5
  8
0
 62
     7
 10
64.038822999999994
 20
225.7903069999999
 30
0.0
 40
38.798471999999997
 50
255.63162600000001
 51
269.99906699999991
  0
ARC
  5
C6
  8
0
 62
     7
 10
63.001266000000001
 20
221.071
 30
0.0
 40
33.969714000000003
 50
244.51136199999999
 51
255.35160400000001
  0
ARC
  5
C7
  8
0
 62
     7
 10
60.87560100000001
 20
216.3102209999999
 30
0.0
 40
28.757850000000001
 50
233.49987200000001
 51
244.25246999999999
  0
ARC
  5
C8
  8
0
 62
     7
 10
57.913567999999998
 20
212.085127
 30
0.0
 40
23.599965000000001
 50
222.26709
 51
233.1790529999999
  0
ARC
  5
C9
  8
0
 62
     7
 10
54.912333999999987
 20
209.20192700000001
 30
0.0
 40
19.440134
 50
210.9398689999999
 51
221.92806899999999
  0
ARC
  5
CA
  8
0
 62
     7
 10
52.366987000000002
 20
207.57873299999989
 30
0.0
 40
16.422637999999999
 50
196.32990100000001
 51
210.64832000000001
  0
ARC
  5
CB
  8
0
 62
     7
 10
50.755544
 20
207.01356200000001
 30
0.0
 40
14.717565999999991
 50
180.0841659999999
 51
195.98230499999991
  0
ARC
  5
CC
  8
0
 62
     7
 10
50.774158999999997
 20
206.979871
 30
0.0
 40
14.736171000000001
 50
156.14540099999999
 51
179.9530279999999
  0
ARC
  5
CD
  8
0
 62
     7
 10
52.762244000000003
 20
206.19646099999991
 30
0.0
 40
16.871473999999989
 50
144.06785099999991
 51
156.44264799999991
  0
ARC
  5
CE
  8
0
 62
     7
 10
55.295814
 20
204.47288599999999
 30
0.0
 40
19.934585999999999
 50
133.39354900000001
 51
144.32987700000001
  0
ARC
  5
CF
  8
0
 62
     7
 10
58.166701000000003
 20
201.59744900000001
 30
0.0
 40
23.996599
 50
122.67527799999991
 51
133.657847
  0
ARC
  5
D0
  8
0
 62
     7
 10
60.959297999999997
 20
197.520478
 30
0.0
 40
28.936409999999999
 50
112.03980199999999
 51
122.9714699999999
  0
ARC
  5
D1
  8
0
 62
     7
 10
63.054819000000002
 20
192.771883
 30
0.0
 40
34.124715999999992
 50
100.15113099999991
 51
112.3092399999999
  0
ARC
  5
D2
  8
0
 62
     7
 10
63.959141000000002
 20
188.67015699999999
 30
0.0
 40
38.321983000000003
 50
89.881810999999999
 51
100.40119799999999
  0
ARC
  5
D3
  8
0
 62
     7
 10
64.037542999999999
 20
188.1928969999999
 30
0.0
 40
38.799162000000003
 50
75.631861999999998
 51
89.999043
  0
ARC
  5
D4
  8
0
 62
     7
 10
65.07480799999999
 20
192.91180900000001
 30
0.0
 40
33.970858999999997
 50
64.511712000000003
 51
75.351574999999997
  0
ARC
  5
D5
  8
0
 62
     7
 10
67.20030899999999
 20
197.67277899999991
 30
0.0
 40
28.758893
 50
53.500255000000003
 51
64.252440000000007
  0
ARC
  5
D6
  8
0
 62
     7
 10
70.162800000000004
 20
201.898831
 30
0.0
 40
23.599965000000001
 50
42.267069999999997
 51
53.179032999999997
  0
ARC
  5
D7
  8
0
 62
     7
 10
73.166167000000002
 20
204.783534
 30
0.0
 40
19.437543999999988
 50
30.939336999999991
 51
41.928953999999997
  0
ARC
  5
D8
  8
0
 62
     7
 10
75.704464999999999
 20
206.403164
 30
0.0
 40
16.427931000000001
 50
16.331889999999991
 51
30.645810999999991
  0
ARC
  5
D9
  8
0
 62
     7
 10
77.323114000000004
 20
206.97069899999991
 30
0.0
 40
14.715275999999999
 50
0.082732
 51
15.983529000000001
  0
LINE
  5
DA
  8
0
  6
AIGENLINE001
 62
     7
 10
64.038200000000003
 20
228.9559999999999
 30
0.0
 11
64.038200000000003
 21
182.905
 31
0.0
  0
LINE
  5
DB
  8
0
  6
AIGENLINE001
 62
     7
 10
32.814100000000003
 20
206.99199999999999
 30
0.0
 11
94.745500000000007
 21
206.99199999999999
 31
0.0
  0
ARC
  5
DC
  8
0
 62
     7
 10
64.038096999999993
 20
207.49174799999989
 30
0.0
 40
3.7500969999999998
 50
270.00133599999992
 51
0.001306
  0
ARC
  5
DD
  8
0
 62
     7
 10
64.038184000000001
 20
207.49183300000001
 30
0.0
 40
3.7501820000000001
 50
179.99996999999991
 51
270.00002000000001
  0
ARC
  5
DE
  8
0
 62
     7
 10
64.038013000000007
 20
207.49166099999999
 30
0.0
 40
3.7500110000000002
 50
89.997367999999994
 51
179.9973379999999
  0
ARC
  5
DF
  8
0
 62
     7
 10
64.038269999999983
 20
207.49174699999989
 30
0.0
 40
3.7499250000000002
 50
0.001326
 51
90.001295999999996
  0
ARC
  5
E0
  8
0
 62
     7
 10
64.038184000000001
 20
207.4918339999999
 30
0.0
 40
2.2500059999999991
 50
270.00002000000001
 51
359.99998999999991
  0
ARC
  5
E1
  8
0
 62
     7
 10
64.038184000000001
 20
207.49183300000001
 30
0.0
 40
2.2500059999999991
 50
179.99996999999991
 51
270.00002000000001
  0
ARC
  5
E2
  8
0
 62
     7
 10
64.038184999999984
 20
207.49183300000001
 30
0.0
 40
2.2500059999999991
 50
90.0
 51
179.99996999999991
  0
ARC
  5
E3
  8
0
 62
     7
 10
64.038184000000001
 20
207.49183300000001
 30
0.0
 40
2.2500059999999991
 50
0.00001
 51
89.999980000000008
  0
LINE
  5
E4
  8
0
  6
AIGENLINE001
 62
     7
 10
59.557099999999991
 20
220.49199999999999
 30
0.0
 11
68.557100000000005
 21
220.49199999999999
 31
0.0
  0
LINE
  5
E5
  8
0
 62
     7
 10
64.038200000000003
 20
227.24199999999999
 30
0.0
 11
64.038200000000003
 21
227.24199999999999
 31
0.0
  0
LINE
  5
E6
  8
0
 62
     7
 10
77.447299999999998
 20
204.78099999999989
 30
0.0
 11
76.855099999999993
 21
206.99199999999999
 31
0.0
  0
LINE
  5
E7
  8
0
 62
     7
 10
76.855099999999993
 20
206.99199999999999
 30
0.0
 11
76.262799999999999
 21
204.78099999999989
 31
0.0
  0
LINE
  5
E8
  8
0
 62
     7
 10
76.262799999999999
 20
204.78099999999989
 30
0.0
 11
77.447299999999998
 21
204.78099999999989
 31
0.0
  0
LINE
  5
E9
  8
0
 62
     7
 10
76.277299999999997
 20
209.702
 30
0.0
 11
76.869500000000002
 21
207.49100000000001
 31
0.0
  0
LINE
  5
EA
  8
0
 62
     7
 10
76.869500000000002
 20
207.49100000000001
 30
0.0
 11
77.461699999999993
 21
209.702
 31
0.0
  0
LINE
  5
EB
  8
0
 62
     7
 10
77.461699999999993
 20
209.702
 30
0.0
 11
76.277299999999997
 21
209.702
 31
0.0
  0
LINE
  5
EC
  8
0
 62
     7
 10
76.862300000000005
 20
212.53700000000001
 30
0.0
 11
76.862300000000005
 21
202.48400000000001
 31
0.0
  0
LINE
  5
ED
  8
0
 62
     7
 10
144.762
 20
101.5479999999999
 30
0.0
 11
144.762
 21
103.634
 31
0.0
  0
LINE
  5
EE
  8
0
 62
     7
 10
90.038300000000007
 20
200.8539999999999
 30
0.0
 11
90.038300000000007
 21
175.4729999999999
 31
0.0
  0
LINE
  5
EF
  8
0
 62
     7
 10
38.0379
 20
200.8539999999999
 30
0.0
 11
38.0379
 21
175.4729999999999
 31
0.0
  0
LINE
  5
F0
  8
0
 62
     7
 10
48.451799999999999
 20
211.465
 30
0.0
 11
55.011099999999999
 21
211.465
 31
0.0
  0
LINE
  5
F1
  8
0
 62
     7
 10
152.50700000000001
 20
124.246
 30
0.0
 11
151.91499999999991
 21
126.45699999999999
 31
0.0
  0
LINE
  5
F2
  8
0
 62
     7
 10
151.91499999999991
 20
126.45699999999999
 30
0.0
 11
151.32299999999989
 21
124.246
 31
0.0
  0
LINE
  5
F3
  8
0
 62
     7
 10
151.32299999999989
 20
124.246
 30
0.0
 11
152.50700000000001
 21
124.246
 31
0.0
  0
LINE
  5
F4
  8
0
 62
     7
 10
151.33699999999999
 20
129.167
 30
0.0
 11
151.93000000000001
 21
126.95699999999999
 31
0.0
  0
LINE
  5
F5
  8
0
 62
     7
 10
151.93000000000001
 20
126.95699999999999
 30
0.0
 11
152.52199999999999
 21
129.167
 31
0.0
  0
LINE
  5
F6
  8
0
 62
     7
 10
152.52199999999999
 20
129.167
 30
0.0
 11
151.33699999999999
 21
129.167
 31
0.0
  0
LINE
  5
F7
  8
0
 62
     7
 10
151.92199999999991
 20
132.0029999999999
 30
0.0
 11
151.92199999999991
 21
121.95
 31
0.0
  0
LINE
  5
F8
  8
0
 62
     7
 10
151.21199999999999
 20
126.45699999999999
 30
0.0
 11
154.786
 21
126.45699999999999
 31
0.0
  0
LINE
  5
F9
  8
0
 62
     7
 10
159.9729999999999
 20
133.65899999999991
 30
0.0
 11
157.762
 21
133.06700000000001
 31
0.0
  0
LINE
  5
FA
  8
0
 62
     7
 10
157.762
 20
133.06700000000001
 30
0.0
 11
159.9729999999999
 21
132.47499999999991
 31
0.0
  0
LINE
  5
FB
  8
0
 62
     7
 10
159.9729999999999
 20
132.47499999999991
 30
0.0
 11
159.9729999999999
 21
133.65899999999991
 31
0.0
  0
LINE
  5
FC
  8
0
 62
     7
 10
162.05199999999999
 20
132.489
 30
0.0
 11
164.26300000000001
 21
133.08099999999999
 31
0.0
  0
LINE
  5
FD
  8
0
 62
     7
 10
164.26300000000001
 20
133.08099999999999
 30
0.0
 11
162.05199999999999
 21
133.67400000000001
 31
0.0
  0
LINE
  5
FE
  8
0
 62
     7
 10
162.05199999999999
 20
133.67400000000001
 30
0.0
 11
162.05199999999999
 21
132.489
 31
0.0
  0
LINE
  5
FF
  8
0
 62
     7
 10
157.762
 20
133.0739999999999
 30
0.0
 11
164.26300000000001
 21
133.0739999999999
 31
0.0
  0
LINE
  5
100
  8
0
 62
     7
 10
157.762
 20
133.78399999999991
 30
0.0
 11
157.762
 21
129.27699999999999
 31
0.0
  0
LINE
  5
101
  8
0
 62
     7
 10
164.26300000000001
 20
124.224
 30
0.0
 11
164.26300000000001
 21
87.970699999999994
 31
0.0
  0
LINE
  5
102
  8
0
 62
     7
 10
164.26300000000001
 20
133.78399999999991
 30
0.0
 11
164.26300000000001
 21
127.6189999999999
 31
0.0
  0
LINE
  5
103
  8
0
 62
     7
 10
153.76199999999989
 20
95.639599999999987
 30
0.0
 11
153.76199999999989
 21
104.864
 31
0.0
  0
LINE
  5
104
  8
0
 62
     7
 10
134.762
 20
95.639599999999987
 30
0.0
 11
134.762
 21
104.864
 31
0.0
  0
LINE
  5
105
  8
0
 62
     7
 10
146.97300000000001
 20
89.248500000000007
 30
0.0
 11
144.762
 21
88.656300000000016
 31
0.0
  0
LINE
  5
106
  8
0
 62
     7
 10
144.762
 20
88.656300000000016
 30
0.0
 11
146.97300000000001
 21
88.064099999999996
 31
0.0
  0
LINE
  5
107
  8
0
 62
     7
 10
146.97300000000001
 20
88.064099999999996
 30
0.0
 11
146.97300000000001
 21
89.248500000000007
 31
0.0
  0
LINE
  5
108
  8
0
 62
     7
 10
162.05199999999999
 20
88.078599999999994
 30
0.0
 11
164.26300000000001
 21
88.670799999999986
 31
0.0
  0
LINE
  5
109
  8
0
 62
     7
 10
164.26300000000001
 20
88.670799999999986
 30
0.0
 11
162.05199999999999
 21
89.262999999999991
 31
0.0
  0
LINE
  5
10A
  8
0
 62
     7
 10
162.05199999999999
 20
89.262999999999991
 30
0.0
 11
162.05199999999999
 21
88.078599999999994
 31
0.0
  0
LINE
  5
10B
  8
0
 62
     7
 10
144.762
 20
88.663499999999999
 30
0.0
 11
164.26300000000001
 21
88.663499999999999
 31
0.0
  0
LINE
  5
10C
  8
0
 62
     7
 10
136.9729999999999
 20
96.934600000000003
 30
0.0
 11
134.76300000000001
 21
96.342399999999998
 31
0.0
  0
LINE
  5
10D
  8
0
 62
     7
 10
134.76300000000001
 20
96.342399999999998
 30
0.0
 11
136.9729999999999
 21
95.750100000000003
 31
0.0
  0
LINE
  5
10E
  8
0
 62
     7
 10
136.9729999999999
 20
95.750100000000003
 30
0.0
 11
136.9729999999999
 21
96.934600000000003
 31
0.0
  0
LINE
  5
10F
  8
0
 62
     7
 10
151.55199999999999
 20
95.764600000000002
 30
0.0
 11
153.76300000000001
 21
96.356800000000007
 31
0.0
  0
LINE
  5
110
  8
0
 62
     7
 10
153.76300000000001
 20
96.356800000000007
 30
0.0
 11
151.55199999999999
 21
96.948999999999998
 31
0.0
  0
LINE
  5
111
  8
0
 62
     7
 10
151.55199999999999
 20
96.948999999999998
 30
0.0
 11
151.55199999999999
 21
95.764600000000002
 31
0.0
  0
LINE
  5
112
  8
0
 62
     7
 10
134.76300000000001
 20
96.349599999999995
 30
0.0
 11
153.76300000000001
 21
96.349599999999995
 31
0.0
  0
LINE
  5
113
  8
0
 62
     7
 10
141.035
 20
113.1669999999999
 30
0.0
 11
141.62700000000001
 21
110.95699999999999
 31
0.0
  0
LINE
  5
114
  8
0
 62
     7
 10
141.62700000000001
 20
110.95699999999999
 30
0.0
 11
142.21999999999991
 21
113.1669999999999
 31
0.0
  0
LINE
  5
115
  8
0
 62
     7
 10
142.21999999999991
 20
113.1669999999999
 30
0.0
 11
141.035
 21
113.1669999999999
 31
0.0
  0
LINE
  5
116
  8
0
 62
     7
 10
142.20500000000001
 20
124.746
 30
0.0
 11
141.613
 21
126.95699999999999
 31
0.0
  0
LINE
  5
117
  8
0
 62
     7
 10
141.613
 20
126.95699999999999
 30
0.0
 11
141.02099999999999
 21
124.746
 31
0.0
  0
LINE
  5
118
  8
0
 62
     7
 10
141.02099999999999
 20
124.746
 30
0.0
 11
142.20500000000001
 21
124.746
 31
0.0
  0
LINE
  5
119
  8
0
 62
     7
 10
141.62
 20
110.95699999999999
 30
0.0
 11
141.62
 21
126.95699999999999
 31
0.0
  0
LINE
  5
11A
  8
0
 62
     7
 10
54.2759
 20
129.167
 30
0.0
 11
54.868099999999998
 21
126.95699999999999
 31
0.0
  0
LINE
  5
11B
  8
0
 62
     7
 10
54.868099999999998
 20
126.95699999999999
 30
0.0
 11
55.46050000000001
 21
129.167
 31
0.0
  0
LINE
  5
11C
  8
0
 62
     7
 10
55.46050000000001
 20
129.167
 30
0.0
 11
54.2759
 21
129.167
 31
0.0
  0
LINE
  5
11D
  8
0
 62
     7
 10
55.445900000000002
 20
124.246
 30
0.0
 11
54.853700000000003
 21
126.45699999999999
 31
0.0
  0
LINE
  5
11E
  8
0
 62
     7
 10
54.853700000000003
 20
126.45699999999999
 30
0.0
 11
54.261299999999999
 21
124.246
 31
0.0
  0
LINE
  5
11F
  8
0
 62
     7
 10
54.261299999999999
 20
124.246
 30
0.0
 11
55.445900000000002
 21
124.246
 31
0.0
  0
LINE
  5
120
  8
0
 62
     7
 10
54.860900000000001
 20
121.45
 30
0.0
 11
54.860900000000001
 21
131.80799999999991
 31
0.0
  0
LINE
  5
121
  8
0
 62
     7
 10
78.538499999999999
 20
95.639599999999987
 30
0.0
 11
78.538499999999999
 21
104.717
 31
0.0
  0
LINE
  5
122
  8
0
 62
     7
 10
49.538400000000003
 20
95.639599999999987
 30
0.0
 11
49.538400000000003
 21
104.717
 31
0.0
  0
LINE
  5
123
  8
0
 62
     7
 10
51.748899999999999
 20
96.934600000000003
 30
0.0
 11
49.538499999999999
 21
96.342399999999998
 31
0.0
  0
LINE
  5
124
  8
0
 62
     7
 10
49.538499999999999
 20
96.342399999999998
 30
0.0
 11
51.748899999999999
 21
95.750100000000003
 31
0.0
  0
LINE
  5
125
  8
0
 62
     7
 10
51.748899999999999
 20
95.750100000000003
 30
0.0
 11
51.748899999999999
 21
96.934600000000003
 31
0.0
  0
LINE
  5
126
  8
0
 62
     7
 10
76.328000000000003
 20
95.764600000000002
 30
0.0
 11
78.538499999999999
 21
96.356800000000007
 31
0.0
  0
LINE
  5
127
  8
0
 62
     7
 10
78.538499999999999
 20
96.356800000000007
 30
0.0
 11
76.328000000000003
 21
96.948999999999998
 31
0.0
  0
LINE
  5
128
  8
0
 62
     7
 10
76.328000000000003
 20
96.948999999999998
 30
0.0
 11
76.328000000000003
 21
95.764600000000002
 31
0.0
  0
LINE
  5
129
  8
0
 62
     7
 10
49.538400000000003
 20
96.349599999999995
 30
0.0
 11
78.538499999999999
 21
96.349599999999995
 31
0.0
  0
LINE
  5
12A
  8
0
 62
     7
 10
104.9639999999999
 20
108.167
 30
0.0
 11
105.556
 21
105.95699999999999
 31
0.0
  0
LINE
  5
12B
  8
0
 62
     7
 10
105.556
 20
105.95699999999999
 30
0.0
 11
106.1479999999999
 21
108.167
 31
0.0
  0
LINE
  5
12C
  8
0
 62
     7
 10
106.1479999999999
 20
108.167
 30
0.0
 11
104.9639999999999
 21
108.167
 31
0.0
  0
LINE
  5
12D
  8
0
 62
     7
 10
106.1339999999999
 20
124.746
 30
0.0
 11
105.542
 21
126.95699999999999
 31
0.0
  0
LINE
  5
12E
  8
0
 62
     7
 10
105.542
 20
126.95699999999999
 30
0.0
 11
104.949
 21
124.746
 31
0.0
  0
LINE
  5
12F
  8
0
 62
     7
 10
104.949
 20
124.746
 30
0.0
 11
106.1339999999999
 21
124.746
 31
0.0
  0
LINE
  5
130
  8
0
 62
     7
 10
105.54900000000001
 20
105.95699999999999
 30
0.0
 11
105.54900000000001
 21
126.95699999999999
 31
0.0
  0
LINE
  5
131
  8
0
 62
     7
 10
106.2589999999999
 20
105.95699999999999
 30
0.0
 11
80.008399999999995
 21
105.95699999999999
 31
0.0
  0
LINE
  5
132
  8
0
 62
     7
 10
106.2589999999999
 20
126.95699999999999
 30
0.0
 11
93.045900000000003
 21
126.95699999999999
 31
0.0
  0
LINE
  5
133
  8
0
 62
     7
 10
100.208
 20
124.95699999999999
 30
0.0
 11
93.045900000000003
 21
124.95699999999999
 31
0.0
  0
LINE
  5
134
  8
0
 62
     7
 10
98.9131
 20
129.167
 30
0.0
 11
99.505300000000005
 21
126.95699999999999
 31
0.0
  0
LINE
  5
135
  8
0
 62
     7
 10
99.505300000000005
 20
126.95699999999999
 30
0.0
 11
100.0979999999999
 21
129.167
 31
0.0
  0
LINE
  5
136
  8
0
 62
     7
 10
100.0979999999999
 20
129.167
 30
0.0
 11
98.9131
 21
129.167
 31
0.0
  0
LINE
  5
137
  8
0
 62
     7
 10
100.083
 20
122.747
 30
0.0
 11
99.490899999999996
 21
124.95699999999999
 31
0.0
  0
LINE
  5
138
  8
0
 62
     7
 10
99.490899999999996
 20
124.95699999999999
 30
0.0
 11
98.898499999999999
 21
122.747
 31
0.0
  0
LINE
  5
139
  8
0
 62
     7
 10
98.898499999999999
 20
122.747
 30
0.0
 11
100.083
 21
122.747
 31
0.0
  0
LINE
  5
13A
  8
0
 62
     7
 10
99.498099999999994
 20
121.25700000000001
 30
0.0
 11
99.498099999999994
 21
133.46100000000001
 31
0.0
  0
LINE
  5
13B
  8
0
 62
     7
 10
87.827799999999996
 20
175.5809999999999
 30
0.0
 11
90.038300000000007
 21
176.173
 31
0.0
  0
LINE
  5
13C
  8
0
 62
     7
 10
90.038300000000007
 20
176.173
 30
0.0
 11
87.827799999999996
 21
176.7649999999999
 31
0.0
  0
LINE
  5
13D
  8
0
 62
     7
 10
87.827799999999996
 20
176.7649999999999
 30
0.0
 11
87.827799999999996
 21
175.5809999999999
 31
0.0
  0
LINE
  5
13E
  8
0
 62
     7
 10
40.248399999999997
 20
176.75099999999989
 30
0.0
 11
38.0381
 21
176.1579999999999
 31
0.0
  0
LINE
  5
13F
  8
0
 62
     7
 10
38.0381
 20
176.1579999999999
 30
0.0
 11
40.248399999999997
 21
175.56599999999989
 31
0.0
  0
LINE
  5
140
  8
0
 62
     7
 10
40.248399999999997
 20
175.56599999999989
 30
0.0
 11
40.248399999999997
 21
176.75099999999989
 31
0.0
  0
LINE
  5
141
  8
0
 62
     7
 10
90.038300000000007
 20
176.166
 30
0.0
 11
38.0381
 21
176.166
 31
0.0
  0
LINE
  5
142
  8
0
 62
     7
 10
89.828199999999995
 20
168.77000000000001
 30
0.0
 11
92.038700000000006
 21
169.36199999999991
 31
0.0
  0
LINE
  5
143
  8
0
 62
     7
 10
92.038700000000006
 20
169.36199999999991
 30
0.0
 11
89.828199999999995
 21
169.95500000000001
 31
0.0
  0
LINE
  5
144
  8
0
 62
     7
 10
89.828199999999995
 20
169.95500000000001
 30
0.0
 11
89.828199999999995
 21
168.77000000000001
 31
0.0
  0
LINE
  5
145
  8
0
 62
     7
 10
38.248899999999992
 20
169.93999999999991
 30
0.0
 11
36.038499999999992
 21
169.3479999999999
 31
0.0
  0
LINE
  5
146
  8
0
 62
     7
 10
36.038499999999992
 20
169.3479999999999
 30
0.0
 11
38.248899999999992
 21
168.75499999999991
 31
0.0
  0
LINE
  5
147
  8
0
 62
     7
 10
38.248899999999992
 20
168.75499999999991
 30
0.0
 11
38.248899999999992
 21
169.93999999999991
 31
0.0
  0
LINE
  5
148
  8
0
 62
     7
 10
92.038700000000006
 20
169.3549999999999
 30
0.0
 11
36.0383
 21
169.3549999999999
 31
0.0
  0
LINE
  5
149
  8
0
 62
     7
 10
103.72499999999999
 20
213.78200000000001
 30
0.0
 11
103.133
 21
215.99199999999999
 31
0.0
  0
LINE
  5
14A
  8
0
 62
     7
 10
103.133
 20
215.99199999999999
 30
0.0
 11
102.5409999999999
 21
213.78200000000001
 31
0.0
  0
LINE
  5
14B
  8
0
 62
     7
 10
102.5409999999999
 20
213.78200000000001
 30
0.0
 11
103.72499999999999
 21
213.78200000000001
 31
0.0
  0
LINE
  5
14C
  8
0
 62
     7
 10
103.72499999999999
 20
224.78099999999989
 30
0.0
 11
103.133
 21
226.99199999999999
 31
0.0
  0
LINE
  5
14D
  8
0
 62
     7
 10
103.133
 20
226.99199999999999
 30
0.0
 11
102.5409999999999
 21
224.78099999999989
 31
0.0
  0
LINE
  5
14E
  8
0
 62
     7
 10
102.5409999999999
 20
224.78099999999989
 30
0.0
 11
103.72499999999999
 21
224.78099999999989
 31
0.0
  0
LINE
  5
14F
  8
0
 62
     7
 10
102.55500000000001
 20
191.202
 30
0.0
 11
103.1479999999999
 21
188.99199999999999
 31
0.0
  0
LINE
  5
150
  8
0
 62
     7
 10
103.1479999999999
 20
188.99199999999999
 30
0.0
 11
103.7399999999999
 21
191.202
 31
0.0
  0
LINE
  5
151
  8
0
 62
     7
 10
103.7399999999999
 20
191.202
 30
0.0
 11
102.55500000000001
 21
191.202
 31
0.0
  0
LINE
  5
152
  8
0
 62
     7
 10
102.55500000000001
 20
218.203
 30
0.0
 11
103.1479999999999
 21
215.99199999999999
 31
0.0
  0
LINE
  5
153
  8
0
 62
     7
 10
103.1479999999999
 20
215.99199999999999
 30
0.0
 11
103.7399999999999
 21
218.203
 31
0.0
  0
LINE
  5
154
  8
0
 62
     7
 10
103.7399999999999
 20
218.203
 30
0.0
 11
102.55500000000001
 21
218.203
 31
0.0
  0
LINE
  5
155
  8
0
 62
     7
 10
103.14
 20
226.99199999999999
 30
0.0
 11
103.14
 21
188.99199999999999
 31
0.0
  0
LINE
  5
156
  8
0
 62
     7
 10
96.209000000000003
 20
213.78200000000001
 30
0.0
 11
95.616799999999998
 21
215.99199999999999
 31
0.0
  0
LINE
  5
157
  8
0
 62
     7
 10
95.616799999999998
 20
215.99199999999999
 30
0.0
 11
95.024399999999986
 21
213.78200000000001
 31
0.0
  0
LINE
  5
158
  8
0
 62
     7
 10
95.024399999999986
 20
213.78200000000001
 30
0.0
 11
96.209000000000003
 21
213.78200000000001
 31
0.0
  0
LINE
  5
159
  8
0
 62
     7
 10
96.209000000000003
 20
224.78099999999989
 30
0.0
 11
95.616799999999998
 21
226.99199999999999
 31
0.0
  0
LINE
  5
15A
  8
0
 62
     7
 10
95.616799999999998
 20
226.99199999999999
 30
0.0
 11
95.024399999999986
 21
224.78099999999989
 31
0.0
  0
LINE
  5
15B
  8
0
 62
     7
 10
95.024399999999986
 20
224.78099999999989
 30
0.0
 11
96.209000000000003
 21
224.78099999999989
 31
0.0
  0
LINE
  5
15C
  8
0
 62
     7
 10
95.039100000000005
 20
222.703
 30
0.0
 11
95.631299999999996
 21
220.49199999999999
 31
0.0
  0
LINE
  5
15D
  8
0
 62
     7
 10
95.631299999999996
 20
220.49199999999999
 30
0.0
 11
96.223699999999994
 21
222.703
 31
0.0
  0
LINE
  5
15E
  8
0
 62
     7
 10
96.223699999999994
 20
222.703
 30
0.0
 11
95.039100000000005
 21
222.703
 31
0.0
  0
LINE
  5
15F
  8
0
 62
     7
 10
95.624099999999984
 20
226.99199999999999
 30
0.0
 11
95.624099999999984
 21
212.09099999999989
 31
0.0
  0
LINE
  5
160
  8
0
 62
     7
 10
110.23
 20
224.78200000000001
 30
0.0
 11
109.63799999999991
 21
226.99199999999999
 31
0.0
  0
LINE
  5
161
  8
0
 62
     7
 10
109.63799999999991
 20
226.99199999999999
 30
0.0
 11
109.04599999999991
 21
224.78200000000001
 31
0.0
  0
LINE
  5
162
  8
0
 62
     7
 10
109.04599999999991
 20
224.78200000000001
 30
0.0
 11
110.23
 21
224.78200000000001
 31
0.0
  0
LINE
  5
163
  8
0
 62
     7
 10
109.06
 20
189.202
 30
0.0
 11
109.65300000000001
 21
186.99199999999999
 31
0.0
  0
LINE
  5
164
  8
0
 62
     7
 10
109.65300000000001
 20
186.99199999999999
 30
0.0
 11
110.245
 21
189.202
 31
0.0
  0
LINE
  5
165
  8
0
 62
     7
 10
110.245
 20
189.202
 30
0.0
 11
109.06
 21
189.202
 31
0.0
  0
LINE
  5
166
  8
0
 62
     7
 10
109.6449999999999
 20
226.99199999999999
 30
0.0
 11
109.6449999999999
 21
186.99199999999999
 31
0.0
  0
LINE
  5
167
  8
0
 62
     7
 10
51.749099999999999
 20
235.7879999999999
 30
0.0
 11
49.538699999999999
 21
235.196
 31
0.0
  0
LINE
  5
168
  8
0
 62
     7
 10
49.538699999999999
 20
235.196
 30
0.0
 11
51.749099999999999
 21
234.60400000000001
 31
0.0
  0
LINE
  5
169
  8
0
 62
     7
 10
51.749099999999999
 20
234.60400000000001
 30
0.0
 11
51.749099999999999
 21
235.7879999999999
 31
0.0
  0
LINE
  5
16A
  8
0
 62
     7
 10
76.328000000000003
 20
234.61799999999991
 30
0.0
 11
78.538499999999999
 21
235.21000000000001
 31
0.0
  0
LINE
  5
16B
  8
0
 62
     7
 10
78.538499999999999
 20
235.21000000000001
 30
0.0
 11
76.328000000000003
 21
235.80299999999991
 31
0.0
  0
LINE
  5
16C
  8
0
 62
     7
 10
76.328000000000003
 20
235.80299999999991
 30
0.0
 11
76.328000000000003
 21
234.61799999999991
 31
0.0
  0
LINE
  5
16D
  8
0
 62
     7
 10
49.538499999999999
 20
235.203
 30
0.0
 11
77.538600000000002
 21
235.203
 31
0.0
  0
LINE
  5
16E
  8
0
 62
     7
 10
69.607399999999998
 20
220.49199999999999
 30
0.0
 11
96.334100000000007
 21
220.49199999999999
 31
0.0
  0
LINE
  5
16F
  8
0
 62
     7
 10
78.038499999999999
 20
188.99199999999999
 30
0.0
 11
103.84999999999989
 21
188.99199999999999
 31
0.0
  0
LINE
  5
170
  8
0
 62
     7
 10
69.131399999999999
 20
215.99199999999999
 30
0.0
 11
103.84999999999989
 21
215.99199999999999
 31
0.0
  0
LINE
  5
171
  8
0
 62
     7
 10
71.386799999999994
 20
186.99199999999999
 30
0.0
 11
110.355
 21
186.99199999999999
 31
0.0
  0
LINE
  5
172
  8
0
 62
     7
 10
71.386799999999994
 20
226.99199999999999
 30
0.0
 11
110.355
 21
226.99199999999999
 31
0.0
  0
LINE
  5
173
  8
0
 62
     7
 10
49.538499999999999
 20
235.9129999999999
 30
0.0
 11
49.538499999999999
 21
226.06999999999991
 31
0.0
  0
LINE
  5
174
  8
0
 62
     7
 10
78.538499999999999
 20
235.9129999999999
 30
0.0
 11
78.538499999999999
 21
226.06999999999991
 31
0.0
  0
LINE
  5
175
  8
0
 62
     7
 10
36.0383
 20
200.8539999999999
 30
0.0
 11
36.0383
 21
168.64500000000001
 31
0.0
  0
LINE
  5
176
  8
0
 62
     7
 10
92.038700000000006
 20
200.8539999999999
 30
0.0
 11
92.038700000000006
 21
168.64500000000001
 31
0.0
  0
LINE
  5
177
  8
0
  6
AIGENLINE002
 62
     7
 10
50.5381
 20
126.45699999999999
 30
0.0
 11
77.538399999999996
 21
126.45699999999999
 31
0.0
  0
ARC
  5
178
  8
0
 62
     7
 10
78.250593000000009
 20
106.46704199999991
 30
0.0
 40
0.5104280000000001
 50
270.66622699999988
 51
328.16535599999997
  0
LINE
  5
179
  8
0
 62
     7
 10
90.038700000000006
 20
124.95699999999999
 30
0.0
 11
78.684200000000004
 21
106.19799999999989
 31
0.0
  0
ARC
  5
17A
  8
0
 62
     7
 10
91.519320999999991
 20
125.4763719999999
 30
0.0
 40
0.519573
 50
272.13313399999993
 51
357.90634899999998
  0
ARC
  5
17B
  8
0
 62
     7
 10
36.557392
 20
125.4763719999999
 30
0.0
 40
0.5195720000000001
 50
182.0936529999999
 51
267.86690299999998
  0
ARC
  5
17C
  8
0
 62
     7
 10
49.825947999999997
 20
106.46704199999991
 30
0.0
 40
0.5104280000000001
 50
211.83466300000001
 51
269.33379300000001
  0
ARC
  5
17D
  8
0
  6
AIGENLINE002
 62
     7
 10
70.967646999999999
 20
123.466815
 30
0.0
 40
1.0529209999999991
 50
303.5417799999999
 51
359.45562200000001
  0
ARC
  5
17E
  8
0
  6
AIGENLINE002
 62
     7
 10
71.079117000000011
 20
123.357434
 30
0.0
 40
0.9007469999999999
 50
270.22075699999999
 51
301.47590000000002
  0
ARC
  5
17F
  8
0
  6
AIGENLINE002
 62
     7
 10
71.095534999999998
 20
123.3877949999999
 30
0.0
 40
0.931192
 50
207.415696
 51
269.20332799999989
  0
ARC
  5
180
  8
0
  6
AIGENLINE002
 62
     7
 10
71.189575000000005
 20
123.453278
 30
0.0
 40
1.044926
 50
179.80629999999991
 51
208.228859
  0
ARC
  5
181
  8
0
  6
AIGENLINE002
 62
     7
 10
71.197528000000005
 20
123.44680700000001
 30
0.0
 40
1.0529200000000001
 50
123.5417409999999
 51
179.4556199999999
  0
ARC
  5
182
  8
0
  6
AIGENLINE002
 62
     7
 10
71.086057999999994
 20
123.55618799999991
 30
0.0
 40
0.9007469999999999
 50
90.220736999999986
 51
121.4758809999999
  0
ARC
  5
183
  8
0
  6
AIGENLINE002
 62
     7
 10
71.069640000000007
 20
123.52582700000001
 30
0.0
 40
0.931192
 50
27.415676000000001
 51
89.203308000000007
  0
ARC
  5
184
  8
0
  6
AIGENLINE002
 62
     7
 10
70.975599000000003
 20
123.4603429999999
 30
0.0
 40
1.0449280000000001
 50
359.80633899999998
 51
28.228819999999999
  0
ARC
  5
185
  8
0
  6
AIGENLINE002
 62
     7
 10
70.909181000000004
 20
123.47127399999989
 30
0.0
 40
1.5799419999999991
 50
304.20635699999991
 51
359.4754759999999
  0
ARC
  5
186
  8
0
  6
AIGENLINE002
 62
     7
 10
71.076514000000003
 20
123.310845
 30
0.0
 40
1.354052
 50
270.25703499999997
 51
302.166471
  0
ARC
  5
187
  8
0
  6
AIGENLINE002
 62
     7
 10
71.095980000000012
 20
123.3378719999999
 30
0.0
 40
1.381130999999999
 50
213.5891729999999
 51
269.44443100000001
  0
ARC
  5
188
  8
0
  6
AIGENLINE002
 62
     7
 10
71.233580000000003
 20
123.449281
 30
0.0
 40
1.5574790000000001
 50
179.72298499999999
 51
214.2028509999999
  0
ARC
  5
189
  8
0
  6
AIGENLINE002
 62
     7
 10
71.255994000000001
 20
123.442348
 30
0.0
 40
1.5799409999999989
 50
124.206318
 51
179.4754749999999
  0
ARC
  5
18A
  8
0
  6
AIGENLINE002
 62
     7
 10
71.088661999999999
 20
123.60277600000001
 30
0.0
 40
1.354052
 50
90.257015000000024
 51
122.16645200000001
  0
ARC
  5
18B
  8
0
  6
AIGENLINE002
 62
     7
 10
71.069195999999991
 20
123.575749
 30
0.0
 40
1.381130999999999
 50
33.58915300000001
 51
89.444411000000002
  0
ARC
  5
18C
  8
0
  6
AIGENLINE002
 62
     7
 10
70.93159399999999
 20
123.46433999999989
 30
0.0
 40
1.557480999999999
 50
359.72302499999989
 51
34.202812000000002
  0
LINE
  5
18D
  8
0
  6
AIGENLINE001
 62
     7
 10
71.082599999999999
 20
125.94199999999999
 30
0.0
 11
71.082599999999999
 21
120.827
 31
0.0
  0
LINE
  5
18E
  8
0
  6
AIGENLINE001
 62
     7
 10
157.762
 20
123.456
 30
0.0
 11
157.762
 21
128.45699999999991
 31
0.0
  0
LINE
  5
18F
  8
0
 62
     7
 10
92.038499999999999
 20
125.45699999999999
 30
0.0
 11
92.038499999999999
 21
126.45699999999999
 31
0.0
  0
LINE
  5
190
  8
0
  6
AIGENLINE001
 62
     7
 10
68.231800000000007
 20
123.45699999999999
 30
0.0
 11
73.787999999999997
 21
123.45699999999999
 31
0.0
  0
LINE
  5
191
  8
0
 62
     7
 10
36.538200000000003
 20
126.95699999999999
 30
0.0
 11
91.538700000000006
 21
126.95699999999999
 31
0.0
  0
ARC
  5
192
  8
0
 62
     7
 10
91.519683999999984
 20
126.43782899999999
 30
0.0
 40
0.5192230000000001
 50
2.1339980000000001
 51
87.905493000000007
  0
LINE
  5
193
  8
0
 62
     7
 10
36.038200000000003
 20
125.45699999999999
 30
0.0
 11
36.038200000000003
 21
126.45699999999999
 31
0.0
  0
ARC
  5
194
  8
0
 62
     7
 10
36.557505999999989
 20
126.43734499999989
 30
0.0
 40
0.5197180000000001
 50
92.126089000000007
 51
177.81463999999991
  0
LINE
  5
195
  8
0
 62
     7
 10
67.788200000000003
 20
105.95699999999999
 30
0.0
 11
67.788200000000003
 21
109.057
 31
0.0
  0
ARC
  5
196
  8
0
 62
     7
 10
68.288339000000008
 20
109.056651
 30
0.0
 40
0.500145
 50
90.009867000000014
 51
180.0098769999999
  0
LINE
  5
197
  8
0
 62
     7
 10
60.2883
 20
105.95699999999999
 30
0.0
 11
60.2883
 21
109.057
 31
0.0
  0
ARC
  5
198
  8
0
 62
     7
 10
59.788201000000001
 20
109.056651
 30
0.0
 40
0.500145
 50
359.99014299999999
 51
89.990113000000008
  0
LINE
  5
199
  8
0
  6
AIGENLINE001
 62
     7
 10
64.038399999999996
 20
103.63500000000001
 30
0.0
 11
64.038399999999996
 21
129.54699999999991
 31
0.0
  0
LINE
  5
19A
  8
0
 62
     7
 10
49.82
 20
105.95699999999999
 30
0.0
 11
78.256500000000003
 21
105.95699999999999
 31
0.0
  0
LINE
  5
19B
  8
0
 62
     7
 10
38.038200000000003
 20
124.95699999999999
 30
0.0
 11
49.392299999999999
 21
106.19799999999989
 31
0.0
  0
LINE
  5
19C
  8
0
 62
     7
 10
36.5381
 20
124.95699999999999
 30
0.0
 11
91.538700000000006
 21
124.95699999999999
 31
0.0
  0
LINE
  5
19D
  8
0
 62
     7
 10
64.038399999999996
 20
227.24199999999999
 30
0.0
 11
64.038399999999996
 21
227.24199999999999
 31
0.0
  0
ARC
  5
19E
  8
0
 62
     7
 10
135.08618200000001
 20
106.468008
 30
0.0
 40
0.5117550000000001
 50
206.1770459999999
 51
269.18629399999992
  0
ARC
  5
19F
  8
0
 62
     7
 10
153.4052199999999
 20
106.46991
 30
0.0
 40
0.5136970000000001
 50
271.07544699999988
 51
338.56860599999987
  0
LINE
  5
1A0
  8
0
 62
     7
 10
146.61600000000001
 20
116.40299999999991
 30
0.0
 11
146.61600000000001
 21
116.40299999999991
 31
0.0
  0
ARC
  5
1A1
  8
0
  6
AIGENLINE001
 62
     7
 10
125.544961
 20
125.9289879999999
 30
0.0
 40
1.027539999999999
 50
21.355253000000001
 51
88.966181000000034
  0
ARC
  5
1A2
  8
0
  6
AIGENLINE002
 62
     7
 10
162.39668599999999
 20
126.4514939999999
 30
0.0
 40
0.504867
 50
90.084939000000006
 51
119.65946199999991
  0
ARC
  5
1A3
  8
0
  6
AIGENLINE002
 62
     7
 10
161.254355
 20
126.9548909999999
 30
0.0
 40
0.5006260000000001
 50
271.36529999999988
 51
299.82033799999988
  0
ARC
  5
1A4
  8
0
  6
AIGENLINE002
 62
     7
 10
150.475065
 20
114.66836499999989
 30
0.0
 40
1.8252649999999999
 50
341.31933199999992
 51
345.06844000000001
  0
ARC
  5
1A5
  8
0
  6
AIGENLINE002
 62
     7
 10
147.12589
 20
115.74796000000001
 30
0.0
 40
5.3440199999999987
 50
316.81624599999998
 51
341.85539799999992
  0
ARC
  5
1A6
  8
0
  6
AIGENLINE002
 62
     7
 10
148.242187
 20
114.780379
 30
0.0
 40
3.8683449999999988
 50
293.540907
 51
315.95118600000001
  0
ARC
  5
1A7
  8
0
  6
AIGENLINE002
 62
     7
 10
148.40611799999991
 20
114.52764999999999
 30
0.0
 40
3.5715150000000002
 50
274.44621699999988
 51
292.749233
  0
LINE
  5
1A8
  8
0
  6
AIGENLINE002
 62
     7
 10
148.3769999999999
 20
110.81699999999999
 30
0.0
 11
147.20299999999989
 21
109.602
 31
0.0
  0
ARC
  5
1A9
  8
0
  6
AIGENLINE002
 62
     7
 10
148.7395379999999
 20
110.46445799999999
 30
0.0
 40
0.5054070000000001
 50
96.227237999999986
 51
135.766772
  0
ARC
  5
1AA
  8
0
  6
AIGENLINE002
 62
     7
 10
147.56825499999991
 20
109.251856
 30
0.0
 40
0.506195
 50
136.24529200000001
 51
179.721723
  0
ARC
  5
1AB
  8
0
  6
AIGENLINE002
 62
     7
 10
151.306366
 20
114.567272
 30
0.0
 40
1.002777
 50
338.39589199999989
 51
355.375021
  0
ARC
  5
1AC
  8
0
  6
AIGENLINE002
 62
     7
 10
153.93008999999989
 20
125.5485449999999
 30
0.0
 40
0.7243460000000001
 50
93.122681
 51
173.62628000000001
  0
LINE
  5
1AD
  8
0
  6
AIGENLINE002
 62
     7
 10
153.20999999999989
 20
125.62899999999991
 30
0.0
 11
152.30600000000001
 21
114.4859999999999
 31
0.0
  0
LINE
  5
1AE
  8
0
  6
AIGENLINE002
 62
     7
 10
161.26599999999991
 20
126.45399999999989
 30
0.0
 11
153.89099999999999
 21
126.27200000000001
 31
0.0
  0
LINE
  5
1AF
  8
0
  6
AIGENLINE002
 62
     7
 10
162.14699999999999
 20
126.89
 30
0.0
 11
161.5029999999999
 21
126.5209999999999
 31
0.0
  0
ARC
  5
1B0
  8
0
  6
AIGENLINE002
 62
     7
 10
139.67518200000001
 20
119.69494400000001
 30
0.0
 40
9.7323710000000005
 50
261.65415200000001
 51
267.57384000000002
  0
ARC
  5
1B1
  8
0
  6
AIGENLINE002
 62
     7
 10
139.93494799999991
 20
124.93813400000001
 30
0.0
 40
14.981904
 50
267.43012900000002
 51
270.29591399999998
  0
LINE
  5
1B2
  8
0
  6
AIGENLINE002
 62
     7
 10
141.46199999999999
 20
108.4559999999999
 30
0.0
 11
141.46199999999999
 21
105.956
 31
0.0
  0
LINE
  5
1B3
  8
0
  6
AIGENLINE002
 62
     7
 10
140.012
 20
109.956
 30
0.0
 11
141.46199999999999
 21
108.4559999999999
 31
0.0
  0
ARC
  5
1B4
  8
0
  6
AIGENLINE002
 62
     7
 10
185.73984799999999
 20
147.69373300000001
 30
0.0
 40
62.981623999999989
 50
199.854465
 51
203.77169699999999
  0
ARC
  5
1B5
  8
0
  6
AIGENLINE002
 62
     7
 10
167.891099
 20
140.00419099999991
 30
0.0
 40
43.547863999999997
 50
203.9789879999999
 51
208.7302709999999
  0
ARC
  5
1B6
  8
0
  6
AIGENLINE002
 62
     7
 10
155.8882909999999
 20
133.57878999999991
 30
0.0
 40
29.934394000000001
 50
208.989057
 51
214.74656699999991
  0
ARC
  5
1B7
  8
0
  6
AIGENLINE002
 62
     7
 10
147.9175689999999
 20
128.18180299999989
 30
0.0
 40
20.309291999999999
 50
215.05206699999999
 51
223.14882900000001
  0
ARC
  5
1B8
  8
0
  6
AIGENLINE002
 62
     7
 10
143.06048100000001
 20
123.79525099999999
 30
0.0
 40
13.76624899999999
 50
223.65411399999999
 51
233.30618199999989
  0
ARC
  5
1B9
  8
0
  6
AIGENLINE002
 62
     7
 10
140.80995799999999
 20
120.92523799999989
 30
0.0
 40
10.12058
 50
233.81352200000001
 51
245.279267
  0
ARC
  5
1BA
  8
0
  6
AIGENLINE002
 62
     7
 10
140.1179929999999
 20
119.580904
 30
0.0
 40
8.6103229999999993
 50
245.72082499999999
 51
266.89838500000002
  0
ARC
  5
1BB
  8
0
  6
AIGENLINE002
 62
     7
 10
140.50328300000001
 20
124.4730659999999
 30
0.0
 40
13.5167
 50
266.38960900000001
 51
270.09630399999998
  0
ARC
  5
1BC
  8
0
  6
AIGENLINE002
 62
     7
 10
140.62487400000001
 20
544.92854999999997
 30
0.0
 40
433.97217499999988
 50
269.98695600000002
 51
270.05113299999999
  0
LINE
  5
1BD
  8
0
  6
AIGENLINE002
 62
     7
 10
141.012
 20
110.95699999999999
 30
0.0
 11
148.512
 21
110.95699999999999
 31
0.0
  0
LINE
  5
1BE
  8
0
  6
AIGENLINE002
 62
     7
 10
142.46199999999999
 20
109.45699999999999
 30
0.0
 11
147.06200000000001
 21
109.45699999999999
 31
0.0
  0
LINE
  5
1BF
  8
0
  6
AIGENLINE002
 62
     7
 10
148.06200000000001
 20
106.45699999999999
 30
0.0
 11
151.56200000000001
 21
106.45699999999999
 31
0.0
  0
LINE
  5
1C0
  8
0
  6
AIGENLINE002
 62
     7
 10
148.06200000000001
 20
106.45699999999999
 30
0.0
 11
148.06200000000001
 21
105.956
 31
0.0
  0
LINE
  5
1C1
  8
0
  6
AIGENLINE002
 62
     7
 10
147.06200000000001
 20
109.25399999999991
 30
0.0
 11
147.06200000000001
 21
105.956
 31
0.0
  0
LINE
  5
1C2
  8
0
  6
AIGENLINE002
 62
     7
 10
142.46199999999999
 20
109.45699999999999
 30
0.0
 11
142.46199999999999
 21
105.956
 31
0.0
  0
LINE
  5
1C3
  8
0
  6
AIGENLINE002
 62
     7
 10
141.012
 20
110.95699999999999
 30
0.0
 11
142.46199999999999
 21
109.45699999999999
 31
0.0
  0
ARC
  5
1C4
  8
0
 62
     7
 10
160.854444
 20
120.79215600000001
 30
0.0
 40
1.0078759999999991
 50
124.0623819999999
 51
157.79570799999999
  0
ARC
  5
1C5
  8
0
 62
     7
 10
161.85300499999991
 20
123.288157
 30
0.0
 40
0.503777
 50
304.05878100000001
 51
338.01387099999999
  0
LINE
  5
1C6
  8
0
 62
     7
 10
162.13499999999991
 20
122.871
 30
0.0
 11
160.28999999999991
 21
121.627
 31
0.0
  0
LINE
  5
1C7
  8
0
 62
     7
 10
163.06200000000001
 20
124.956
 30
0.0
 11
162.31999999999991
 21
123.09999999999989
 31
0.0
  0
ARC
  5
1C8
  8
0
 62
     7
 10
163.742975
 20
126.4368209999999
 30
0.0
 40
0.519898
 50
2.166456999999999
 51
87.873007000000015
  0
ARC
  5
1C9
  8
0
 62
     7
 10
163.742975
 20
125.47601
 30
0.0
 40
0.519898
 50
272.12699300000003
 51
357.83354300000002
  0
ARC
  5
1CA
  8
0
 62
     7
 10
124.78146099999999
 20
126.4368209999999
 30
0.0
 40
0.519898
 50
92.126972999999978
 51
177.83352400000001
  0
ARC
  5
1CB
  8
0
 62
     7
 10
124.78146099999999
 20
125.47601
 30
0.0
 40
0.519898
 50
182.16647599999999
 51
267.87302699999992
  0
LINE
  5
1CC
  8
0
 62
     7
 10
159.92099999999999
 20
121.1729999999999
 30
0.0
 11
153.8829999999999
 21
106.282
 31
0.0
  0
LINE
  5
1CD
  8
0
 62
     7
 10
126.262
 20
124.956
 30
0.0
 11
134.62700000000001
 21
106.242
 31
0.0
  0
LINE
  5
1CE
  8
0
 62
     7
 10
164.26300000000001
 20
125.456
 30
0.0
 11
164.26300000000001
 21
126.456
 31
0.0
  0
LINE
  5
1CF
  8
0
 62
     7
 10
124.262
 20
125.456
 30
0.0
 11
124.262
 21
126.456
 31
0.0
  0
LINE
  5
1D0
  8
0
 62
     7
 10
124.7619999999999
 20
124.956
 30
0.0
 11
163.762
 21
124.956
 31
0.0
  0
LINE
  5
1D1
  8
0
 62
     7
 10
135.07900000000001
 20
105.956
 30
0.0
 11
153.41499999999991
 21
105.956
 31
0.0
  0
LINE
  5
1D2
  8
0
 62
     7
 10
124.7619999999999
 20
126.956
 30
0.0
 11
163.762
 21
126.956
 31
0.0
  0
LINE
  5
1D3
  8
0
  6
AIGENLINE001
 62
     7
 10
144.762
 20
104.334
 30
0.0
 11
144.762
 21
112.9699999999999
 31
0.0
  0
LINE
  5
1D4
  8
0
  6
AIGENLINE001
 62
     7
 10
157.762
 20
123.456
 30
0.0
 11
157.762
 21
128.45599999999999
 31
0.0
  0
LINE
  5
1D5
  8
0
 62
     7
 10
64.038200000000003
 20
227.24199999999999
 30
0.0
 11
64.038200000000003
 21
227.24199999999999
 31
0.0
  0
LINE
  5
1D6
  8
_________2
 62
     7
 10
210.24000000000001
 20
148.93100000000001
 30
0.0
 11
188.49000000000001
 21
148.93100000000001
 31
0.0
  0
LINE
  5
1D7
  8
_________2
 62
     7
 10
105.2389999999999
 20
17.428499999999989
 30
0.0
 11
105.2389999999999
 21
0.4482100000000001
 31
0.0
  0
LINE
  5
1D8
  8
_________2
 62
     7
 10
105.2389999999999
 20
297.44999999999987
 30
0.0
 11
105.2389999999999
 21
280.42999999999989
 31
0.0
  0
LINE
  5
1D9
  8
_________2
 62
     7
 10
21.988499999999991
 20
148.93100000000001
 30
0.0
 11
0.238058
 21
148.93100000000001
 31
0.0
  0
LINE
  5
1DA
  8
_________2
 62
     7
 10
81.679900000000004
 20
51.324300000000001
 30
0.0
 11
79.493700000000004
 21
51.324300000000001
 31
0.0
  0
LINE
  5
1DB
  8
_________2
 62
     7
 10
82.172600000000017
 20
51.324300000000001
 30
0.0
 11
81.920400000000001
 21
51.324300000000001
 31
0.0
  0
LINE
  5
1DC
  8
_________2
 62
     7
 10
82.665199999999984
 20
51.324300000000001
 30
0.0
 11
85.590100000000007
 21
51.324300000000001
 31
0.0
  0
LINE
  5
1DD
  8
_________2
 62
     7
 10
82.172600000000017
 20
51.324300000000001
 30
0.0
 11
82.424800000000005
 21
51.324300000000001
 31
0.0
  0
LINE
  5
1DE
  8
_________2
 62
     7
 10
75.776399999999995
 20
51.324300000000001
 30
0.0
 11
73.589399999999998
 21
51.324300000000001
 31
0.0
  0
LINE
  5
1DF
  8
_________2
 62
     7
 10
76.2684
 20
51.324300000000001
 30
0.0
 11
76.016900000000007
 21
51.324300000000001
 31
0.0
  0
LINE
  5
1E0
  8
_________2
 62
     7
 10
76.2684
 20
51.817
 30
0.0
 11
76.2684
 21
54.003900000000002
 31
0.0
  0
LINE
  5
1E1
  8
_________2
 62
     7
 10
76.2684
 20
51.324300000000001
 30
0.0
 11
76.2684
 21
51.576500000000003
 31
0.0
  0
LINE
  5
1E2
  8
_________2
 62
     7
 10
76.76100000000001
 20
51.324300000000001
 30
0.0
 11
78.947999999999993
 21
51.324300000000001
 31
0.0
  0
LINE
  5
1E3
  8
_________2
 62
     7
 10
76.2684
 20
51.324300000000001
 30
0.0
 11
76.520499999999998
 21
51.324300000000001
 31
0.0
  0
LINE
  5
1E4
  8
_________2
 62
     7
 10
76.2684
 20
50.832399999999993
 30
0.0
 11
76.2684
 21
48.645400000000002
 31
0.0
  0
LINE
  5
1E5
  8
_________2
 62
     7
 10
76.2684
 20
51.324300000000001
 30
0.0
 11
76.2684
 21
51.072800000000001
 31
0.0
  0
LINE
  5
1E6
  8
_________2
 62
     7
 10
79.979399999999984
 20
50.104799999999997
 30
0.0
 11
85.157399999999996
 21
49.240000000000002
 31
0.0
  0
LINE
  5
1E7
  8
_________2
 62
     7
 10
79.979399999999984
 20
52.543900000000001
 30
0.0
 11
85.157399999999996
 21
53.409300000000002
 31
0.0
  0
LINE
  5
1E8
  8
_________2
 62
     7
 10
85.157399999999996
 20
49.240000000000002
 30
0.0
 11
85.157399999999996
 21
53.409300000000002
 31
0.0
  0
LINE
  5
1E9
  8
_________2
 62
     7
 10
79.979399999999984
 20
50.104799999999997
 30
0.0
 11
79.979399999999984
 21
52.543900000000001
 31
0.0
  0
ARC
  5
1EA
  8
_________2
 62
     7
 10
76.222110000000001
 20
51.277366999999991
 30
0.0
 40
1.2673709999999989
 50
2.1232950000000002
 51
87.909056000000007
  0
ARC
  5
1EB
  8
_________2
 62
     7
 10
76.315273000000005
 20
51.277400999999998
 30
0.0
 40
1.267363
 50
92.121785999999986
 51
177.878185
  0
ARC
  5
1EC
  8
_________2
 62
     7
 10
76.315273000000005
 20
51.371245999999992
 30
0.0
 40
1.267363
 50
182.12181499999991
 51
267.87821400000001
  0
ARC
  5
1ED
  8
_________2
 62
     7
 10
76.221461000000005
 20
51.371928999999987
 30
0.0
 40
1.2680439999999991
 50
272.11916400000001
 51
357.84848499999993
  0
ARC
  5
1EE
  8
_________2
 62
     7
 10
76.268349999999984
 20
51.324323
 30
0.0
 40
2.0849849999999992
 50
0.00001
 51
89.999980000000008
  0
ARC
  5
1EF
  8
_________2
 62
     7
 10
76.348388
 20
51.245001999999992
 30
0.0
 40
2.1657860000000002
 50
92.117855000000034
 51
177.90105299999991
  0
ARC
  5
1F0
  8
_________2
 62
     7
 10
76.348354
 20
51.404327000000002
 30
0.0
 40
2.1657779999999991
 50
182.11700400000001
 51
267.88302499999992
  0
ARC
  5
1F1
  8
_________2
 62
     7
 10
76.188378999999983
 20
51.405009999999997
 30
0.0
 40
2.1664590000000001
 50
272.11546800000002
 51
357.86560400000002
  0
TEXT
  5
1F2
  8
_________2
 62
     7
 10
109.5439999999999
 20
23.199100000000001
 30
0.0
 40
3.0923400000000001
  1
図番
 41
0.5
  0
LINE
  5
1F3
  8
_________2
 62
     7
 10
108.4889999999999
 20
27.4283
 30
0.0
 11
188.49000000000001
 21
27.4283
 31
0.0
  0
TEXT
  5
1F4
  8
_________2
 62
     7
 10
109.5439999999999
 20
33.198900000000002
 30
0.0
 40
3.0923400000000001
  1
品番
 41
0.5
  0
TEXT
  5
1F5
  8
_________2
 62
     7
 10
109.5439999999999
 20
53.337699999999998
 30
0.0
 40
3.0923400000000001
  1
名称
 41
0.5
  0
TEXT
  5
1F6
  8
_________2
 62
     7
 10
96.784058333333334
 20
48.341500000000011
 30
0.0
 40
3.6545800000000002
  1
mm
 41
0.5
 72
     1
 11
98.306799999999996
 21
48.341500000000011
 31
0.0
  0
TEXT
  5
1F7
  8
_________2
 62
     7
 10
90.582099999999997
 20
53.337699999999998
 30
0.0
 40
3.0923400000000001
  1
単位
 41
0.5
  0
TEXT
  5
1F8
  8
_________2
 62
     7
 10
90.582099999999997
 20
40.930399999999999
 30
0.0
 40
3.0923400000000001
  1
尺度
 41
0.5
  0
TEXT
  5
1F9
  8
_________2
 62
     7
 10
95.030836166666674
 20
34.73749999999999
 30
0.0
 40
3.6545800000000002
  1
1 ： 10
 41
0.5
 72
     1
 11
98.898600000000002
 21
34.73749999999999
 31
0.0
  0
TEXT
  5
1FA
  8
_________2
 62
     7
 10
142.09348750000001
 20
30.627400000000002
 30
0.0
 40
3.9357000000000002
  1
FL2026R
 41
0.5
 72
     1
 11
148.489
 21
30.627400000000002
 31
0.0
  0
TEXT
  5
1FB
  8
_________2
 62
     7
 10
142.09348750000001
 20
20.626999999999988
 30
0.0
 40
3.9357000000000002
  1
FL2026R
 41
0.5
 72
     1
 11
148.489
 21
20.626999999999988
 31
0.0
  0
TEXT
  5
1FC
  8
_________2
 62
     7
 10
29.525700000000001
 20
22.226900000000001
 30
0.0
 40
3.9357000000000002
  1
オーバーフロー付、実容量6.5L
 41
0.5
  0
TEXT
  5
1FD
  8
_________2
 62
     7
 10
114.11799999999999
 20
45.7453
 30
0.0
 40
3.9357000000000002
  1
インカッシィ カウンター式洗面器
 41
0.5
  0
TEXT
  5
1FE
  8
_________2
 62
     7
 10
44.364200333333329
 20
35.122599999999991
 30
0.0
 40
3.6545800000000002
  1
早川
 41
0.5
 72
     1
 11
46.252400000000002
 21
35.122599999999991
 31
0.0
  0
TEXT
  5
1FF
  8
_________2
 62
     7
 10
25.72929066666666
 20
35.122599999999991
 30
0.0
 40
3.6545800000000002
  1
石原
 41
0.5
 72
     1
 11
27.6784
 21
35.122599999999991
 31
0.0
  0
TEXT
  5
200
  8
_________2
 62
     7
 10
72.724699999999999
 20
34.73749999999999
 30
0.0
 40
3.6545800000000002
  1
13.10.18
 41
0.5
  0
TEXT
  5
201
  8
_________2
 62
     7
 10
71.531999999999996
 20
40.930399999999999
 30
0.0
 40
3.0923400000000001
  1
日付
 41
0.5
  0
TEXT
  5
202
  8
_________2
 62
     7
 10
34.578299999999992
 20
40.930399999999999
 30
0.0
 40
3.0923400000000001
  1
検図
 41
0.5
  0
TEXT
  5
203
  8
_________2
 62
     7
 10
22.960000000000001
 20
26.730999999999991
 30
0.0
 40
3.0923400000000001
  1
備考
 41
0.5
  0
TEXT
  5
204
  8
_________2
 62
     7
 10
22.960000000000001
 20
40.930399999999999
 30
0.0
 40
3.0923400000000001
  1
製図
 41
0.5
  0
TEXT
  5
205
  8
_________2
 62
     7
 10
28.727365333333339
 20
49.456400000000002
 30
0.0
 40
4.4979399999999989
  1
セラトレーディング株式会社
 41
0.5
 72
     1
 11
46.119399999999992
 21
49.456400000000002
 31
0.0
  0
LINE
  5
206
  8
_________2
 62
     7
 10
188.49000000000001
 20
17.428499999999989
 30
0.0
 11
21.988499999999991
 21
17.428499999999989
 31
0.0
  0
LINE
  5
207
  8
_________2
 62
     7
 10
21.988499999999991
 20
17.428499999999989
 30
0.0
 11
21.988499999999991
 21
280.42999999999989
 31
0.0
  0
LINE
  5
208
  8
_________2
 62
     7
 10
21.988499999999991
 20
280.42999999999989
 30
0.0
 11
188.49000000000001
 21
280.42999999999989
 31
0.0
  0
LINE
  5
209
  8
_________2
 62
     7
 10
188.49000000000001
 20
280.42999999999989
 30
0.0
 11
188.49000000000001
 21
17.428499999999989
 31
0.0
  0
LINE
  5
20A
  8
_________2
 62
     7
 10
70.488799999999998
 20
30.9285
 30
0.0
 11
70.488799999999998
 21
57.428400000000011
 31
0.0
  0
LINE
  5
20B
  8
_________2
 62
     7
 10
89.488600000000005
 20
30.9285
 30
0.0
 11
89.488600000000005
 21
57.428400000000011
 31
0.0
  0
LINE
  5
20C
  8
_________2
 62
     7
 10
108.4889999999999
 20
17.428499999999989
 30
0.0
 11
108.4889999999999
 21
57.428400000000011
 31
0.0
  0
LINE
  5
20D
  8
_________2
 62
     7
 10
33.488300000000002
 20
30.9285
 30
0.0
 11
33.488300000000002
 21
44.928800000000003
 31
0.0
  0
LINE
  5
20E
  8
_________2
 62
     7
 10
21.988499999999991
 20
30.9285
 30
0.0
 11
108.4889999999999
 21
30.9285
 31
0.0
  0
LINE
  5
20F
  8
_________2
 62
     7
 10
21.988499999999991
 20
44.928800000000003
 30
0.0
 11
108.4889999999999
 21
44.928800000000003
 31
0.0
  0
LINE
  5
210
  8
_________2
 62
     7
 10
108.4889999999999
 20
37.428100000000001
 30
0.0
 11
188.49000000000001
 21
37.428100000000001
 31
0.0
  0
LINE
  5
211
  8
_________2
 62
     7
 10
21.988499999999991
 20
57.428400000000011
 30
0.0
 11
188.49000000000001
 21
57.428400000000011
 31
0.0
  0
ARC
  5
225
  8
0
 62
     7
 10
144.512
 20
191.24199999999999
 30
0.0
 40
34.5
 50
53.380309371534999
 51
126.61969062846489
  0
ARC
  5
226
  8
0
 62
     7
 10
144.512
 20
222.74199999999999
 30
0.0
 40
34.5
 50
233.38030937153499
 51
306.61969062846492
  0
ARC
  5
227
  8
0
 62
     7
 10
156.01199999999989
 20
206.99199999999999
 30
0.0
 40
15.0
 50
307.24935576741319
 51
52.750644232586779
  0
ARC
  5
228
  8
0
 62
     7
 10
133.01199999999989
 20
206.99199999999999
 30
0.0
 40
15.0
 50
127.24935576741321
 51
232.75064423258681
  0
ENDSEC
  0
EOF
