  0
SECTION
  2
HEADER
  9
$ACADVER
  1
AC1009
  9
$INSBASE
 10
0.0
 20
0.0
 30
0.0
  9
$EXTMIN
 10
0.238058
 20
0.4482100000000001
 30
0.0
  9
$EXTMAX
 10
210.24000000000001
 20
297.44999999999987
 30
0.0
  9
$LIMMIN
 10
0.0
 20
0.0
  9
$LIMMAX
 10
12.0
 20
9.0
  9
$ORTHOMODE
 70
     0
  9
$REGENMODE
 70
     1
  9
$FILLMODE
 70
     1
  9
$QTEXTMODE
 70
     0
  9
$MIRRTEXT
 70
     1
  9
$DRAGMODE
 70
     2
  9
$LTSCALE
 40
1.0
  9
$OSMODE
 70
    37
  9
$ATTMODE
 70
     1
  9
$TEXTSIZE
 40
0.0
  9
$TRACEWID
 40
0.05
  9
$TEXTSTYLE
  7
STANDARD
  9
$CLAYER
  8
0
  9
$CELTYPE
  6
CONTINUOUS
  9
$CECOLOR
 62
   256
  9
$DIMSCALE
 40
1.0
  9
$DIMASZ
 40
0.18
  9
$DIMEXO
 40
0.0625
  9
$DIMDLI
 40
0.38
  9
$DIMRND
 40
0.0
  9
$DIMDLE
 40
0.0
  9
$DIMEXE
 40
0.18
  9
$DIMTP
 40
0.0
  9
$DIMTM
 40
0.0
  9
$DIMTXT
 40
0.18
  9
$DIMCEN
 40
0.09
  9
$DIMTSZ
 40
0.0
  9
$DIMTOL
 70
     0
  9
$DIMLIM
 70
     0
  9
$DIMTIH
 70
     1
  9
$DIMTOH
 70
     1
  9
$DIMSE1
 70
     0
  9
$DIMSE2
 70
     0
  9
$DIMTAD
 70
     0
  9
$DIMZIN
 70
     0
  9
$DIMBLK
  1

  9
$DIMASO
 70
     1
  9
$DIMSHO
 70
     1
  9
$DIMPOST
  1

  9
$DIMAPOST
  1

  9
$DIMALT
 70
     0
  9
$DIMALTD
 70
     2
  9
$DIMALTF
 40
25.399999999999999
  9
$DIMLFAC
 40
1.0
  9
$DIMTOFL
 70
     0
  9
$DIMTVP
 40
0.0
  9
$DIMTIX
 70
     0
  9
$DIMSOXD
 70
     0
  9
$DIMSAH
 70
     0
  9
$DIMBLK1
  1

  9
$DIMBLK2
  1

  9
$DIMSTYLE
  2
STANDARD
  9
$DIMCLRD
 70
     0
  9
$DIMCLRE
 70
     0
  9
$DIMCLRT
 70
     0
  9
$DIMTFAC
 40
1.0
  9
$DIMGAP
 40
0.09
  9
$LUNITS
 70
     2
  9
$LUPREC
 70
     4
  9
$SKETCHINC
 40
0.1
  9
$FILLETRAD
 40
0.0
  9
$AUNITS
 70
     0
  9
$AUPREC
 70
     0
  9
$MENU
  1
.
  9
$ELEVATION
 40
0.0
  9
$PELEVATION
 40
0.0
  9
$THICKNESS
 40
0.0
  9
$LIMCHECK
 70
     0
  9
$BLIPMODE
 70
     0
  9
$CHAMFERA
 40
0.0
  9
$CHAMFERB
 40
0.0
  9
$SKPOLY
 70
     0
  9
$TDCREATE
 40
2444972.375
  9
$TDUPDATE
 40
2454098.2542026499
  9
$TDINDWG
 40
0.0004965046
  9
$TDUSRTIMER
 40
0.0004965046
  9
$USRTIMER
 70
     1
  9
$ANGBASE
 50
0.0
  9
$ANGDIR
 70
     0
  9
$PDMODE
 70
     0
  9
$PDSIZE
 40
0.0
  9
$PLINEWID
 40
0.0
  9
$COORDS
 70
     1
  9
$SPLFRAME
 70
     0
  9
$SPLINETYPE
 70
     6
  9
$SPLINESEGS
 70
     8
  9
$ATTDIA
 70
     0
  9
$ATTREQ
 70
     1
  9
$HANDLING
 70
     1
  9
$HANDSEED
  5
1C6
  9
$SURFTAB1
 70
     6
  9
$SURFTAB2
 70
     6
  9
$SURFTYPE
 70
     6
  9
$SURFU
 70
     6
  9
$SURFV
 70
     6
  9
$UCSNAME
  2

  9
$UCSORG
 10
0.0
 20
0.0
 30
0.0
  9
$UCSXDIR
 10
1.0
 20
0.0
 30
0.0
  9
$UCSYDIR
 10
0.0
 20
1.0
 30
0.0
  9
$PUCSNAME
  2

  9
$PUCSORG
 10
0.0
 20
0.0
 30
0.0
  9
$PUCSXDIR
 10
1.0
 20
0.0
 30
0.0
  9
$PUCSYDIR
 10
0.0
 20
1.0
 30
0.0
  9
$USERI1
 70
     0
  9
$USERI2
 70
     0
  9
$USERI3
 70
     0
  9
$USERI4
 70
     0
  9
$USERI5
 70
     0
  9
$USERR1
 40
0.0
  9
$USERR2
 40
0.0
  9
$USERR3
 40
0.0
  9
$USERR4
 40
0.0
  9
$USERR5
 40
0.0
  9
$WORLDVIEW
 70
     1
  9
$SHADEDGE
 70
     3
  9
$SHADEDIF
 70
    70
  9
$TILEMODE
 70
     1
  9
$MAXACTVP
 70
    48
  9
$PLIMCHECK
 70
     0
  9
$PEXTMIN
 10
1.0000000000000000E+020
 20
1.0000000000000000E+020
 30
1.0000000000000000E+020
  9
$PEXTMAX
 10
-1.0000000000000000E+020
 20
-1.0000000000000000E+020
 30
-1.0000000000000000E+020
  9
$PLIMMIN
 10
0.0
 20
0.0
  9
$PLIMMAX
 10
12.0
 20
9.0
  9
$UNITMODE
 70
     0
  9
$VISRETAIN
 70
     1
  9
$PLINEGEN
 70
     0
  9
$PSLTSCALE
 70
     1
  0
ENDSEC
  0
SECTION
  2
TABLES
  0
TABLE
  2
VPORT
 70
     2
  0
VPORT
  2
*ACTIVE
 70
     0
 10
0.0
 20
0.0
 11
1.0
 21
1.0
 12
276.77401951411838
 22
181.6105398306758
 13
0.0
 23
0.0
 14
1.0
 24
1.0
 15
0.0
 25
0.0
 16
0.0
 26
0.0
 36
1.0
 17
0.0
 27
0.0
 37
0.0
 40
366.25643735900132
 41
2.1842105263157889
 42
50.0
 43
0.0
 44
0.0
 50
0.0
 51
0.0
 71
     0
 72
   100
 73
     1
 74
     1
 75
     0
 76
     0
 77
     0
 78
     0
  0
ENDTAB
  0
TABLE
  2
LTYPE
 70
     3
  0
LTYPE
  2
CONTINUOUS
 70
     0
  3
Solid line
 72
    65
 73
     0
 40
0.0
  0
LTYPE
  2
AIGENLINE001
 70
     0
  3
generate AI->DXF Converter
 72
    65
 73
     2
 40
1.5522299999999991
 49
0.776115
 49
-0.776115
  0
LTYPE
  2
AIGENLINE002
 70
     0
  3
generate AI->DXF Converter
 72
    65
 73
     4
 40
5.8561449999999988
 49
3.5278
 49
-0.776115
 49
0.776115
 49
-0.776115
  0
ENDTAB
  0
TABLE
  2
LAYER
 70
     2
  0
LAYER
  2
0
 70
     0
 62
     7
  6
CONTINUOUS
  0
LAYER
  2
_________2
 70
     0
 62
     7
  6
CONTINUOUS
  0
ENDTAB
  0
TABLE
  2
STYLE
 70
     1
  0
STYLE
  2
STANDARD
 70
     0
 40
0.0
 41
0.0
 50
0.0
 71
     0
 42
0.0
  3
TXT
  4
EXTFONT.SHX
  0
ENDTAB
  0
TABLE
  2
VIEW
 70
     0
  0
ENDTAB
  0
TABLE
  2
UCS
 70
     0
  0
ENDTAB
  0
TABLE
  2
APPID
 70
     1
  0
APPID
  2
ACAD
 70
     0
  0
ENDTAB
  0
TABLE
  2
DIMSTYLE
 70
     1
  0
DIMSTYLE
  2
STANDARD
 70
     0
  3

  4

  5

  6

  7

 40
1.0
 41
0.18
 42
0.0625
 43
0.38
 44
0.18
 45
0.0
 46
0.0
 47
0.0
 48
0.0
140
0.18
141
0.09
142
0.0
143
25.399999999999999
144
1.0
145
0.0
146
1.0
147
0.09
 71
     0
 72
     0
 73
     1
 74
     1
 75
     0
 76
     0
 77
     0
 78
     0
170
     0
171
     2
172
     0
173
     0
174
     0
175
     0
176
     0
177
     0
178
     0
  0
ENDTAB
  0
ENDSEC
  0
SECTION
  2
BLOCKS
  0
BLOCK
  8
0
  2
$MODEL_SPACE
 70
     0
 10
0.0
 20
0.0
 30
0.0
  3
$MODEL_SPACE
  1

  0
ENDBLK
  5
1A
  8
0
  0
BLOCK
 67
     1
  8
0
  2
$PAPER_SPACE
 70
     0
 10
0.0
 20
0.0
 30
0.0
  3
$PAPER_SPACE
  1

  0
ENDBLK
  5
17
 67
     1
  8
0
  0
ENDSEC
  0
SECTION
  2
ENTITIES
  0
TEXT
  5
23
  8
0
 62
     7
 10
139.8983674447075
 20
221.31341287603789
 30
0.0
 40
3.0923400000000001
  1
R530
 50
79.746700000000004
 41
0.5
 72
     1
 11
140.37999999999991
 21
223.97599999999991
 31
0.0
  0
TEXT
  5
24
  8
0
 62
     7
 10
124.8799185394854
 20
210.25019854697729
 30
0.0
 40
3.0923400000000001
  1
R180
 50
43.456099999999992
 41
0.5
 72
     1
 11
126.657
 21
211.934
 31
0.0
  0
TEXT
  5
25
  8
0
 62
     7
 10
181.13399999999999
 20
216.02613500000001
 30
0.0
 40
3.0923400000000001
  1
400
 50
90.0
 41
0.5
 72
     1
 11
181.13399999999999
 21
217.83000000000001
 31
0.0
  0
TEXT
  5
26
  8
0
 62
     7
 10
137.63376
 20
179.16399999999999
 30
0.0
 40
3.0923400000000001
  1
カウンター切込寸法
 41
0.5
 72
     1
 11
145.87999999999991
 21
179.16399999999999
 31
0.0
  0
TEXT
  5
27
  8
0
 62
     7
 10
144.07613499999999
 20
188.30000000000001
 30
0.0
 40
3.0923400000000001
  1
600
 41
0.5
 72
     1
 11
145.87999999999991
 21
188.30000000000001
 31
0.0
  0
TEXT
  5
28
  8
0
 62
     7
 10
156.84643999999989
 20
100.6839999999999
 30
0.0
 40
3.0923400000000001
  1
385
 41
0.5
 72
     1
 11
158.9079999999999
 21
100.6839999999999
 31
0.0
  0
TEXT
  5
29
  8
0
 62
     7
 10
137.24652499999991
 20
147.393
 30
0.0
 40
3.0923400000000001
  1
45
 41
0.5
 72
     1
 11
138.535
 21
147.393
 31
0.0
  0
TEXT
  5
2A
  8
0
 62
     7
 10
177.99252499999989
 20
147.393
 30
0.0
 40
3.0923400000000001
  1
45
 41
0.5
 72
     1
 11
179.28099999999989
 21
147.393
 31
0.0
  0
TEXT
  5
2B
  8
0
 62
     7
 10
156.84643999999989
 20
147.393
 30
0.0
 40
3.0923400000000001
  1
364
 41
0.5
 72
     1
 11
158.9079999999999
 21
147.393
 31
0.0
  0
TEXT
  5
2C
  8
0
 62
     7
 10
156.84643999999989
 20
155.15399999999991
 30
0.0
 40
3.0923400000000001
  1
454
 41
0.5
 72
     1
 11
158.9079999999999
 21
155.15399999999991
 31
0.0
  0
TEXT
  5
2D
  8
0
 62
     7
 10
73.001140000000007
 20
225.9379999999999
 30
0.0
 40
3.0923400000000001
  1
%%c45
 41
0.5
 72
     1
 11
75.062700000000007
 21
225.9379999999999
 31
0.0
  0
TEXT
  5
2E
  8
0
 62
     7
 10
62.843539999999997
 20
100.657
 30
0.0
 40
3.0923400000000001
  1
587
 41
0.5
 72
     1
 11
64.905100000000004
 21
100.657
 31
0.0
  0
TEXT
  5
2F
  8
0
 62
     7
 10
62.972387500000004
 20
182.148
 30
0.0
 40
3.0923400000000001
  1
750
 41
0.5
 72
     1
 11
64.905100000000004
 21
182.148
 31
0.0
  0
TEXT
  5
30
  8
0
 62
     7
 10
129.017
 20
139.43952499999989
 30
0.0
 40
3.0923400000000001
  1
35
 50
90.0
 41
0.5
 72
     1
 11
129.017
 21
140.72799999999989
 31
0.0
  0
TEXT
  5
31
  8
0
 62
     7
 10
108.8629999999999
 20
215.78043999999991
 30
0.0
 40
3.0923400000000001
  1
454
 50
90.0
 41
0.5
 72
     1
 11
108.8629999999999
 21
217.84200000000001
 31
0.0
  0
TEXT
  5
32
  8
0
 62
     7
 10
115.5829999999999
 20
123.53128749999991
 30
0.0
 40
3.0923400000000001
  1
280
 50
90.0
 41
0.5
 72
     1
 11
115.5829999999999
 21
125.4639999999999
 31
0.0
  0
TEXT
  5
33
  8
0
 62
     7
 10
108.637
 20
134.5675249999999
 30
0.0
 40
3.0923400000000001
  1
65
 50
90.0
 41
0.5
 72
     1
 11
108.637
 21
135.85599999999991
 31
0.0
  0
TEXT
  5
34
  8
0
 62
     7
 10
108.637
 20
125.55682999999991
 30
0.0
 40
3.0923400000000001
  1
100
 50
90.0
 41
0.5
 72
     1
 11
108.637
 21
127.10299999999989
 31
0.0
  0
TEXT
  5
35
  8
0
 62
     7
 10
108.637
 20
115.2868299999999
 30
0.0
 40
3.0923400000000001
  1
115
 50
90.0
 41
0.5
 72
     1
 11
108.637
 21
116.833
 31
0.0
  0
TEXT
  5
36
  8
0
 62
     7
 10
129.017
 20
125.89382999999999
 30
0.0
 40
3.0923400000000001
  1
100
 50
90.0
 41
0.5
 72
     1
 11
129.017
 21
127.4399999999999
 31
0.0
  0
TEXT
  5
37
  8
0
 62
     7
 10
129.017
 20
115.7838299999999
 30
0.0
 40
3.0923400000000001
  1
115
 50
90.0
 41
0.5
 72
     1
 11
129.017
 21
117.33
 31
0.0
  0
TEXT
  5
38
  8
0
 62
     7
 10
156.20199999999991
 20
126.012135
 30
0.0
 40
3.0923400000000001
  1
200
 50
90.0
 41
0.5
 72
     1
 11
156.20199999999991
 21
127.8159999999999
 31
0.0
  0
TEXT
  5
39
  8
0
 62
     7
 10
123.2699999999999
 20
121.7122875
 30
0.0
 40
3.0923400000000001
  1
250
 50
90.0
 41
0.5
 72
     1
 11
123.2699999999999
 21
123.645
 31
0.0
  0
LINE
  5
3A
  8
0
  6
AIGENLINE001
 62
     7
 10
155.1579999999999
 20
116.28100000000001
 30
0.0
 11
162.6579999999999
 21
116.28100000000001
 31
0.0
  0
ARC
  5
3B
  8
0
  6
AIGENLINE001
 62
     7
 10
180.699567
 20
135.45070699999991
 30
0.0
 40
0.8311159999999999
 50
2.109726999999999
 51
87.890263000000004
  0
ARC
  5
3C
  8
0
  6
AIGENLINE001
 62
     7
 10
134.2404159999999
 20
138.22164299999989
 30
0.0
 40
42.944687999999992
 50
350.51086700000002
 51
356.57306
  0
ARC
  5
3D
  8
0
  6
AIGENLINE001
 62
     7
 10
150.82290499999991
 20
135.652063
 30
0.0
 40
26.166236000000001
 50
341.77124700000002
 51
350.07429000000002
  0
ARC
  5
3E
  8
0
  6
AIGENLINE001
 62
     7
 10
158.92066399999999
 20
133.11164600000001
 30
0.0
 40
17.680598
 50
326.68602399999997
 51
341.38189499999999
  0
ARC
  5
3F
  8
0
  6
AIGENLINE001
 62
     7
 10
161.32365899999999
 20
131.777635
 30
0.0
 40
14.941210999999999
 50
300.34010599999988
 51
325.89990699999993
  0
ARC
  5
40
  8
0
  6
AIGENLINE001
 62
     7
 10
157.9244689999999
 20
137.02848199999991
 30
0.0
 40
21.191817999999991
 50
290.98525599999999
 51
301.10060199999992
  0
ARC
  5
41
  8
0
  6
AIGENLINE001
 62
     7
 10
154.30223100000001
 20
145.82365699999991
 30
0.0
 40
30.701733999999998
 50
285.79370299999999
 51
291.41857599999992
  0
ARC
  5
42
  8
0
  6
AIGENLINE001
 62
     7
 10
177.90955299999999
 20
135.45602700000001
 30
0.0
 40
0.8254799999999999
 50
91.404582000000005
 51
166.08125000000001
  0
LINE
  5
43
  8
0
 62
     7
 10
177.10799999999989
 20
147.39599999999999
 30
0.0
 11
177.10799999999989
 21
138.3779999999999
 31
0.0
  0
LINE
  5
44
  8
0
  6
AIGENLINE001
 62
     7
 10
162.6579999999999
 20
116.28100000000001
 30
0.0
 11
161.20799999999991
 21
114.78099999999991
 31
0.0
  0
LINE
  5
45
  8
0
  6
AIGENLINE001
 62
     7
 10
161.20799999999991
 20
114.78099999999991
 30
0.0
 11
161.20799999999991
 21
111.28100000000001
 31
0.0
  0
LINE
  5
46
  8
0
  6
AIGENLINE001
 62
     7
 10
180.7299999999999
 20
136.28100000000001
 30
0.0
 11
177.88900000000001
 21
136.28100000000001
 31
0.0
  0
ARC
  5
47
  8
0
  6
AIGENLINE001
 62
     7
 10
137.117324
 20
135.45070799999999
 30
0.0
 40
0.8311149999999999
 50
92.109700000000004
 51
177.8902709999999
  0
ARC
  5
48
  8
0
  6
AIGENLINE001
 62
     7
 10
183.5764749999999
 20
138.22164299999989
 30
0.0
 40
42.944687999999992
 50
183.42696000000001
 51
189.48915299999999
  0
ARC
  5
49
  8
0
  6
AIGENLINE001
 62
     7
 10
166.99398600000001
 20
135.652063
 30
0.0
 40
26.166236000000001
 50
189.92572999999999
 51
198.2287729999999
  0
ARC
  5
4A
  8
0
  6
AIGENLINE001
 62
     7
 10
158.89622700000001
 20
133.11164600000001
 30
0.0
 40
17.680598
 50
198.61812399999999
 51
213.313996
  0
ARC
  5
4B
  8
0
  6
AIGENLINE001
 62
     7
 10
156.49323200000001
 20
131.777635
 30
0.0
 40
14.941210999999999
 50
214.10011199999991
 51
239.65991399999999
  0
ARC
  5
4C
  8
0
  6
AIGENLINE001
 62
     7
 10
159.8924209999999
 20
137.02848199999991
 30
0.0
 40
21.191817999999991
 50
238.899418
 51
249.01476299999999
  0
ARC
  5
4D
  8
0
  6
AIGENLINE001
 62
     7
 10
163.51465999999999
 20
145.82365699999991
 30
0.0
 40
30.701733999999998
 50
248.58144399999989
 51
254.20631700000001
  0
ARC
  5
4E
  8
0
  6
AIGENLINE001
 62
     7
 10
139.90733700000001
 20
135.45602700000001
 30
0.0
 40
0.8254799999999999
 50
13.918729999999989
 51
88.595398000000003
  0
LINE
  5
4F
  8
0
 62
     7
 10
122.29600000000001
 20
207.09599999999989
 30
0.0
 11
121.1519999999999
 21
205.113
 31
0.0
  0
LINE
  5
50
  8
0
 62
     7
 10
121.1519999999999
 20
205.113
 30
0.0
 11
123.134
 21
206.2579999999999
 31
0.0
  0
LINE
  5
51
  8
0
 62
     7
 10
123.134
 20
206.2579999999999
 30
0.0
 11
122.29600000000001
 21
207.09599999999989
 31
0.0
  0
LINE
  5
52
  8
0
 62
     7
 10
133.87999999999991
 20
217.84200000000001
 30
0.0
 11
121.1519999999999
 21
205.113
 31
0.0
  0
LINE
  5
53
  8
0
 62
     7
 10
136.84200000000001
 20
200.815
 30
0.0
 11
137.04599999999999
 21
198.53599999999989
 31
0.0
  0
LINE
  5
54
  8
0
 62
     7
 10
137.04599999999999
 20
198.53599999999989
 30
0.0
 11
138.0089999999999
 21
200.61199999999999
 31
0.0
  0
LINE
  5
55
  8
0
 62
     7
 10
138.0089999999999
 20
200.61199999999999
 30
0.0
 11
136.84200000000001
 21
200.815
 31
0.0
  0
LINE
  5
56
  8
0
 62
     7
 10
145.87999999999991
 20
250.84200000000001
 30
0.0
 11
137.04599999999999
 21
198.53599999999989
 31
0.0
  0
ARC
  5
57
  8
0
 62
     7
 10
157.3655169999999
 20
217.457123
 30
0.0
 40
18.517569000000002
 50
1.189875999999999
 51
72.442307
  0
ARC
  5
58
  8
0
 62
     7
 10
146.146557
 20
184.7601919999999
 30
0.0
 40
53.082073000000001
 50
71.542581000000013
 51
90.288031000000018
  0
ARC
  5
59
  8
0
 62
     7
 10
134.39472900000001
 20
217.45671400000001
 30
0.0
 40
18.518422000000001
 50
107.5618149999999
 51
178.8088919999999
  0
ARC
  5
5A
  8
0
 62
     7
 10
145.61996499999989
 20
184.72229799999991
 30
0.0
 40
53.120272
 50
89.720579999999998
 51
108.4517449999999
  0
ARC
  5
5B
  8
0
 62
     7
 10
157.36450400000001
 20
218.226945
 30
0.0
 40
18.518598000000001
 50
287.55997400000001
 51
358.80784299999988
  0
ARC
  5
5C
  8
0
 62
     7
 10
146.1387719999999
 20
250.97146099999989
 30
0.0
 40
53.130721999999999
 50
269.72062799999998
 51
288.44875999999988
  0
ARC
  5
5D
  8
0
 62
     7
 10
134.39366000000001
 20
218.2258029999999
 30
0.0
 40
18.517343
 50
181.18978899999999
 51
252.4405999999999
  0
ARC
  5
5E
  8
0
 62
     7
 10
145.6192889999999
 20
250.96314100000001
 30
0.0
 40
53.122405000000008
 50
251.549792
 51
270.28013799999991
  0
LINE
  5
5F
  8
0
 62
     7
 10
173.66900000000001
 20
186.714
 30
0.0
 11
175.87999999999991
 21
187.3059999999999
 31
0.0
  0
LINE
  5
60
  8
0
 62
     7
 10
175.87999999999991
 20
187.3059999999999
 30
0.0
 11
173.66900000000001
 21
187.89899999999989
 31
0.0
  0
LINE
  5
61
  8
0
 62
     7
 10
173.66900000000001
 20
187.89899999999989
 30
0.0
 11
173.66900000000001
 21
186.714
 31
0.0
  0
LINE
  5
62
  8
0
 62
     7
 10
118.09
 20
187.88399999999999
 30
0.0
 11
115.88
 21
187.292
 31
0.0
  0
LINE
  5
63
  8
0
 62
     7
 10
115.88
 20
187.292
 30
0.0
 11
118.09
 21
186.6999999999999
 31
0.0
  0
LINE
  5
64
  8
0
 62
     7
 10
118.09
 20
186.6999999999999
 30
0.0
 11
118.09
 21
187.88399999999999
 31
0.0
  0
LINE
  5
65
  8
0
 62
     7
 10
175.87999999999991
 20
187.29900000000001
 30
0.0
 11
115.88
 21
187.29900000000001
 31
0.0
  0
LINE
  5
66
  8
0
  6
AIGENLINE002
 62
     7
 10
145.87999999999991
 20
194.245
 30
0.0
 11
145.87999999999991
 21
252.79799999999989
 31
0.0
  0
LINE
  5
67
  8
0
 62
     7
 10
115.88
 20
210.6759999999999
 30
0.0
 11
115.88
 21
186.142
 31
0.0
  0
LINE
  5
68
  8
0
 62
     7
 10
181.31399999999999
 20
200.05199999999999
 30
0.0
 11
181.90599999999989
 21
197.84099999999989
 31
0.0
  0
LINE
  5
69
  8
0
 62
     7
 10
181.90599999999989
 20
197.84099999999989
 30
0.0
 11
182.499
 21
200.05199999999999
 31
0.0
  0
LINE
  5
6A
  8
0
 62
     7
 10
182.499
 20
200.05199999999999
 30
0.0
 11
181.31399999999999
 21
200.05199999999999
 31
0.0
  0
LINE
  5
6B
  8
0
 62
     7
 10
182.48400000000001
 20
235.63099999999989
 30
0.0
 11
181.892
 21
237.84200000000001
 31
0.0
  0
LINE
  5
6C
  8
0
 62
     7
 10
181.892
 20
237.84200000000001
 30
0.0
 11
181.30000000000001
 21
235.63099999999989
 31
0.0
  0
LINE
  5
6D
  8
0
 62
     7
 10
181.30000000000001
 20
235.63099999999989
 30
0.0
 11
182.48400000000001
 21
235.63099999999989
 31
0.0
  0
LINE
  5
6E
  8
0
 62
     7
 10
181.899
 20
197.84099999999989
 30
0.0
 11
181.899
 21
237.84200000000001
 31
0.0
  0
LINE
  5
6F
  8
0
 62
     7
 10
175.87999999999991
 20
210.6759999999999
 30
0.0
 11
175.87999999999991
 21
186.142
 31
0.0
  0
LINE
  5
70
  8
0
 62
     7
 10
156.18499999999989
 20
197.84099999999989
 30
0.0
 11
182.76799999999989
 21
197.84099999999989
 31
0.0
  0
LINE
  5
71
  8
0
 62
     7
 10
156.18499999999989
 20
237.84200000000001
 30
0.0
 11
182.76799999999989
 21
237.84200000000001
 31
0.0
  0
LINE
  5
72
  8
0
  6
AIGENLINE002
 62
     7
 10
113.789
 20
217.84200000000001
 30
0.0
 11
177.39899999999989
 21
217.84200000000001
 31
0.0
  0
LINE
  5
73
  8
0
 62
     7
 10
133.99799999999991
 20
146.08699999999999
 30
0.0
 11
136.209
 21
146.68000000000001
 31
0.0
  0
LINE
  5
74
  8
0
 62
     7
 10
136.209
 20
146.68000000000001
 30
0.0
 11
133.99799999999991
 21
147.27199999999999
 31
0.0
  0
LINE
  5
75
  8
0
 62
     7
 10
133.99799999999991
 20
147.27199999999999
 30
0.0
 11
133.99799999999991
 21
146.08699999999999
 31
0.0
  0
LINE
  5
76
  8
0
 62
     7
 10
174.89799999999991
 20
146.08699999999999
 30
0.0
 11
177.10799999999989
 21
146.68000000000001
 31
0.0
  0
LINE
  5
77
  8
0
 62
     7
 10
177.10799999999989
 20
146.68000000000001
 30
0.0
 11
174.89799999999991
 21
147.27199999999999
 31
0.0
  0
LINE
  5
78
  8
0
 62
     7
 10
174.89799999999991
 20
147.27199999999999
 30
0.0
 11
174.89799999999991
 21
146.08699999999999
 31
0.0
  0
LINE
  5
79
  8
0
 62
     7
 10
183.81999999999999
 20
147.25700000000001
 30
0.0
 11
181.60900000000001
 21
146.666
 31
0.0
  0
LINE
  5
7A
  8
0
 62
     7
 10
181.60900000000001
 20
146.666
 30
0.0
 11
183.81999999999999
 21
146.07299999999989
 31
0.0
  0
LINE
  5
7B
  8
0
 62
     7
 10
183.81999999999999
 20
146.07299999999989
 30
0.0
 11
183.81999999999999
 21
147.25700000000001
 31
0.0
  0
LINE
  5
7C
  8
0
 62
     7
 10
142.91900000000001
 20
147.25700000000001
 30
0.0
 11
140.70899999999989
 21
146.666
 31
0.0
  0
LINE
  5
7D
  8
0
 62
     7
 10
140.70899999999989
 20
146.666
 30
0.0
 11
142.91900000000001
 21
146.07299999999989
 31
0.0
  0
LINE
  5
7E
  8
0
 62
     7
 10
142.91900000000001
 20
146.07299999999989
 30
0.0
 11
142.91900000000001
 21
147.25700000000001
 31
0.0
  0
LINE
  5
7F
  8
0
 62
     7
 10
185.386
 20
146.672
 30
0.0
 11
132.29300000000001
 21
146.672
 31
0.0
  0
LINE
  5
80
  8
0
 62
     7
 10
179.39799999999991
 20
153.8489999999999
 30
0.0
 11
181.60900000000001
 21
154.441
 31
0.0
  0
LINE
  5
81
  8
0
 62
     7
 10
181.60900000000001
 20
154.441
 30
0.0
 11
179.39799999999991
 21
155.0329999999999
 31
0.0
  0
LINE
  5
82
  8
0
 62
     7
 10
179.39799999999991
 20
155.0329999999999
 30
0.0
 11
179.39799999999991
 21
153.8489999999999
 31
0.0
  0
LINE
  5
83
  8
0
 62
     7
 10
138.4189999999999
 20
155.01900000000001
 30
0.0
 11
136.209
 21
154.42699999999999
 31
0.0
  0
LINE
  5
84
  8
0
 62
     7
 10
136.209
 20
154.42699999999999
 30
0.0
 11
138.4189999999999
 21
153.83399999999989
 31
0.0
  0
LINE
  5
85
  8
0
 62
     7
 10
138.4189999999999
 20
153.83399999999989
 30
0.0
 11
138.4189999999999
 21
155.01900000000001
 31
0.0
  0
LINE
  5
86
  8
0
 62
     7
 10
181.60900000000001
 20
154.434
 30
0.0
 11
136.209
 21
154.434
 31
0.0
  0
LINE
  5
87
  8
0
 62
     7
 10
156.505
 20
118.4919999999999
 30
0.0
 11
157.0979999999999
 21
116.28100000000001
 31
0.0
  0
LINE
  5
88
  8
0
 62
     7
 10
157.0979999999999
 20
116.28100000000001
 30
0.0
 11
157.69
 21
118.4919999999999
 31
0.0
  0
LINE
  5
89
  8
0
 62
     7
 10
157.69
 20
118.4919999999999
 30
0.0
 11
156.505
 21
118.4919999999999
 31
0.0
  0
LINE
  5
8A
  8
0
 62
     7
 10
157.67500000000001
 20
134.071
 30
0.0
 11
157.08299999999991
 21
136.28100000000001
 31
0.0
  0
LINE
  5
8B
  8
0
 62
     7
 10
157.08299999999991
 20
136.28100000000001
 30
0.0
 11
156.49100000000001
 21
134.071
 31
0.0
  0
LINE
  5
8C
  8
0
 62
     7
 10
156.49100000000001
 20
134.071
 30
0.0
 11
157.67500000000001
 21
134.071
 31
0.0
  0
LINE
  5
8D
  8
0
 62
     7
 10
157.08999999999989
 20
116.28100000000001
 30
0.0
 11
157.08999999999989
 21
136.28100000000001
 31
0.0
  0
LINE
  5
8E
  8
0
 62
     7
 10
141.84399999999991
 20
136.28100000000001
 30
0.0
 11
157.95799999999991
 21
136.28100000000001
 31
0.0
  0
LINE
  5
8F
  8
0
 62
     7
 10
123.574
 20
113.492
 30
0.0
 11
124.1659999999999
 21
111.28100000000001
 31
0.0
  0
LINE
  5
90
  8
0
 62
     7
 10
124.1659999999999
 20
111.28100000000001
 30
0.0
 11
124.7579999999999
 21
113.492
 31
0.0
  0
LINE
  5
91
  8
0
 62
     7
 10
124.7579999999999
 20
113.492
 30
0.0
 11
123.574
 21
113.492
 31
0.0
  0
LINE
  5
92
  8
0
 62
     7
 10
124.744
 20
134.071
 30
0.0
 11
124.151
 21
136.28100000000001
 31
0.0
  0
LINE
  5
93
  8
0
 62
     7
 10
124.151
 20
136.28100000000001
 30
0.0
 11
123.5589999999999
 21
134.071
 31
0.0
  0
LINE
  5
94
  8
0
 62
     7
 10
123.5589999999999
 20
134.071
 30
0.0
 11
124.744
 21
134.071
 31
0.0
  0
LINE
  5
95
  8
0
 62
     7
 10
124.15899999999991
 20
111.28100000000001
 30
0.0
 11
124.15899999999991
 21
136.28100000000001
 31
0.0
  0
LINE
  5
96
  8
0
 62
     7
 10
129.31700000000001
 20
138.49199999999999
 30
0.0
 11
129.90899999999991
 21
136.28100000000001
 31
0.0
  0
LINE
  5
97
  8
0
 62
     7
 10
129.90899999999991
 20
136.28100000000001
 30
0.0
 11
130.501
 21
138.49199999999999
 31
0.0
  0
LINE
  5
98
  8
0
 62
     7
 10
130.501
 20
138.49199999999999
 30
0.0
 11
129.31700000000001
 21
138.49199999999999
 31
0.0
  0
LINE
  5
99
  8
0
 62
     7
 10
129.31700000000001
 20
124.992
 30
0.0
 11
129.90899999999991
 21
122.78100000000001
 31
0.0
  0
LINE
  5
9A
  8
0
 62
     7
 10
129.90899999999991
 20
122.78100000000001
 30
0.0
 11
130.501
 21
124.992
 31
0.0
  0
LINE
  5
9B
  8
0
 62
     7
 10
130.501
 20
124.992
 30
0.0
 11
129.31700000000001
 21
124.992
 31
0.0
  0
LINE
  5
9C
  8
0
 62
     7
 10
129.31700000000001
 20
113.492
 30
0.0
 11
129.90899999999991
 21
111.28100000000001
 31
0.0
  0
LINE
  5
9D
  8
0
 62
     7
 10
129.90899999999991
 20
111.28100000000001
 30
0.0
 11
130.501
 21
113.492
 31
0.0
  0
LINE
  5
9E
  8
0
 62
     7
 10
130.501
 20
113.492
 30
0.0
 11
129.31700000000001
 21
113.492
 31
0.0
  0
LINE
  5
9F
  8
0
 62
     7
 10
130.48699999999991
 20
130.57099999999991
 30
0.0
 11
129.89399999999989
 21
132.78100000000001
 31
0.0
  0
LINE
  5
A0
  8
0
 62
     7
 10
129.89399999999989
 20
132.78100000000001
 30
0.0
 11
129.30199999999999
 21
130.57099999999991
 31
0.0
  0
LINE
  5
A1
  8
0
 62
     7
 10
129.30199999999999
 20
130.57099999999991
 30
0.0
 11
130.48699999999991
 21
130.57099999999991
 31
0.0
  0
LINE
  5
A2
  8
0
 62
     7
 10
130.48699999999991
 20
120.571
 30
0.0
 11
129.89399999999989
 21
122.78100000000001
 31
0.0
  0
LINE
  5
A3
  8
0
 62
     7
 10
129.89399999999989
 20
122.78100000000001
 30
0.0
 11
129.30199999999999
 21
120.571
 31
0.0
  0
LINE
  5
A4
  8
0
 62
     7
 10
129.30199999999999
 20
120.571
 30
0.0
 11
130.48699999999991
 21
120.571
 31
0.0
  0
LINE
  5
A5
  8
0
 62
     7
 10
129.90199999999999
 20
111.28100000000001
 30
0.0
 11
129.90199999999999
 21
142.8549999999999
 31
0.0
  0
LINE
  5
A6
  8
0
 62
     7
 10
141.86899999999989
 20
100.316
 30
0.0
 11
139.65899999999991
 21
99.724100000000007
 31
0.0
  0
LINE
  5
A7
  8
0
 62
     7
 10
139.65899999999991
 20
99.724100000000007
 30
0.0
 11
141.86899999999989
 21
99.131900000000002
 31
0.0
  0
LINE
  5
A8
  8
0
 62
     7
 10
141.86899999999989
 20
99.131900000000002
 30
0.0
 11
141.86899999999989
 21
100.316
 31
0.0
  0
LINE
  5
A9
  8
0
 62
     7
 10
175.94799999999989
 20
99.146299999999997
 30
0.0
 11
178.15899999999999
 21
99.738600000000005
 31
0.0
  0
LINE
  5
AA
  8
0
 62
     7
 10
178.15899999999999
 20
99.738600000000005
 30
0.0
 11
175.94799999999989
 21
100.331
 31
0.0
  0
LINE
  5
AB
  8
0
 62
     7
 10
175.94799999999989
 20
100.331
 30
0.0
 11
175.94799999999989
 21
99.146299999999997
 31
0.0
  0
LINE
  5
AC
  8
0
 62
     7
 10
139.65899999999991
 20
99.731300000000005
 30
0.0
 11
178.15899999999999
 21
99.731300000000005
 31
0.0
  0
LINE
  5
AD
  8
0
 62
     7
 10
110.20699999999999
 20
120.571
 30
0.0
 11
109.6149999999999
 21
122.782
 31
0.0
  0
LINE
  5
AE
  8
0
 62
     7
 10
109.6149999999999
 20
122.782
 30
0.0
 11
109.02200000000001
 21
120.571
 31
0.0
  0
LINE
  5
AF
  8
0
 62
     7
 10
109.02200000000001
 20
120.571
 30
0.0
 11
110.20699999999999
 21
120.571
 31
0.0
  0
LINE
  5
B0
  8
0
 62
     7
 10
110.20699999999999
 20
130.57099999999991
 30
0.0
 11
109.6149999999999
 21
132.78200000000001
 31
0.0
  0
LINE
  5
B1
  8
0
 62
     7
 10
109.6149999999999
 20
132.78200000000001
 30
0.0
 11
109.02200000000001
 21
130.57099999999991
 31
0.0
  0
LINE
  5
B2
  8
0
 62
     7
 10
109.02200000000001
 20
130.57099999999991
 30
0.0
 11
110.20699999999999
 21
130.57099999999991
 31
0.0
  0
LINE
  5
B3
  8
0
 62
     7
 10
110.20699999999999
 20
137.071
 30
0.0
 11
109.6149999999999
 21
139.28200000000001
 31
0.0
  0
LINE
  5
B4
  8
0
 62
     7
 10
109.6149999999999
 20
139.28200000000001
 30
0.0
 11
109.02200000000001
 21
137.071
 31
0.0
  0
LINE
  5
B5
  8
0
 62
     7
 10
109.02200000000001
 20
137.071
 30
0.0
 11
110.20699999999999
 21
137.071
 31
0.0
  0
LINE
  5
B6
  8
0
 62
     7
 10
109.03700000000001
 20
134.99299999999999
 30
0.0
 11
109.62899999999991
 21
132.78200000000001
 31
0.0
  0
LINE
  5
B7
  8
0
 62
     7
 10
109.62899999999991
 20
132.78200000000001
 30
0.0
 11
110.221
 21
134.99299999999999
 31
0.0
  0
LINE
  5
B8
  8
0
 62
     7
 10
110.221
 20
134.99299999999999
 30
0.0
 11
109.03700000000001
 21
134.99299999999999
 31
0.0
  0
LINE
  5
B9
  8
0
 62
     7
 10
109.03700000000001
 20
124.9929999999999
 30
0.0
 11
109.62899999999991
 21
122.782
 31
0.0
  0
LINE
  5
BA
  8
0
 62
     7
 10
109.62899999999991
 20
122.782
 30
0.0
 11
110.221
 21
124.9929999999999
 31
0.0
  0
LINE
  5
BB
  8
0
 62
     7
 10
110.221
 20
124.9929999999999
 30
0.0
 11
109.03700000000001
 21
124.9929999999999
 31
0.0
  0
LINE
  5
BC
  8
0
 62
     7
 10
109.03700000000001
 20
113.492
 30
0.0
 11
109.62899999999991
 21
111.28100000000001
 31
0.0
  0
LINE
  5
BD
  8
0
 62
     7
 10
109.62899999999991
 20
111.28100000000001
 30
0.0
 11
110.221
 21
113.492
 31
0.0
  0
LINE
  5
BE
  8
0
 62
     7
 10
110.221
 20
113.492
 30
0.0
 11
109.03700000000001
 21
113.492
 31
0.0
  0
LINE
  5
BF
  8
0
 62
     7
 10
109.622
 20
139.28200000000001
 30
0.0
 11
109.622
 21
111.28100000000001
 31
0.0
  0
LINE
  5
C0
  8
0
 62
     7
 10
117.084
 20
137.071
 30
0.0
 11
116.492
 21
139.28200000000001
 31
0.0
  0
LINE
  5
C1
  8
0
 62
     7
 10
116.492
 20
139.28200000000001
 30
0.0
 11
115.90000000000001
 21
137.071
 31
0.0
  0
LINE
  5
C2
  8
0
 62
     7
 10
115.90000000000001
 20
137.071
 30
0.0
 11
117.084
 21
137.071
 31
0.0
  0
LINE
  5
C3
  8
0
 62
     7
 10
115.914
 20
113.492
 30
0.0
 11
116.50700000000001
 21
111.28100000000001
 31
0.0
  0
LINE
  5
C4
  8
0
 62
     7
 10
116.50700000000001
 20
111.28100000000001
 30
0.0
 11
117.0989999999999
 21
113.492
 31
0.0
  0
LINE
  5
C5
  8
0
 62
     7
 10
117.0989999999999
 20
113.492
 30
0.0
 11
115.914
 21
113.492
 31
0.0
  0
LINE
  5
C6
  8
0
 62
     7
 10
116.4989999999999
 20
139.28200000000001
 30
0.0
 11
116.4989999999999
 21
111.28100000000001
 31
0.0
  0
LINE
  5
C7
  8
0
 62
     7
 10
92.044399999999996
 20
99.146299999999997
 30
0.0
 11
94.254999999999995
 21
99.738600000000005
 31
0.0
  0
LINE
  5
C8
  8
0
 62
     7
 10
94.254999999999995
 20
99.738600000000005
 30
0.0
 11
92.044399999999996
 21
100.331
 31
0.0
  0
LINE
  5
C9
  8
0
 62
     7
 10
92.044399999999996
 20
100.331
 30
0.0
 11
92.044399999999996
 21
99.146299999999997
 31
0.0
  0
LINE
  5
CA
  8
0
 62
     7
 10
37.765700000000002
 20
100.316
 30
0.0
 11
35.555300000000003
 21
99.724100000000007
 31
0.0
  0
LINE
  5
CB
  8
0
 62
     7
 10
35.555300000000003
 20
99.724100000000007
 30
0.0
 11
37.765700000000002
 21
99.131900000000002
 31
0.0
  0
LINE
  5
CC
  8
0
 62
     7
 10
37.765700000000002
 20
99.131900000000002
 30
0.0
 11
37.765700000000002
 21
100.316
 31
0.0
  0
LINE
  5
CD
  8
0
 62
     7
 10
94.255099999999999
 20
99.731300000000005
 30
0.0
 11
35.555199999999999
 21
99.731300000000005
 31
0.0
  0
LINE
  5
CE
  8
0
 62
     7
 10
181.60900000000001
 20
155.43299999999999
 30
0.0
 11
181.60900000000001
 21
138.14599999999999
 31
0.0
  0
LINE
  5
CF
  8
0
 62
     7
 10
140.70899999999989
 20
147.39599999999999
 30
0.0
 11
140.70899999999989
 21
138.3779999999999
 31
0.0
  0
LINE
  5
D0
  8
0
 62
     7
 10
136.209
 20
155.43299999999999
 30
0.0
 11
136.209
 21
138.14599999999999
 31
0.0
  0
ARC
  5
D1
  8
0
 62
     7
 10
178.67797899999991
 20
132.2621
 30
0.0
 40
0.5196130000000001
 50
92.097764999999995
 51
177.86273199999999
  0
LINE
  5
D2
  8
0
 62
     7
 10
178.15899999999999
 20
132.28100000000001
 30
0.0
 11
178.15899999999999
 21
122.78100000000001
 31
0.0
  0
LINE
  5
D3
  8
0
 62
     7
 10
162.5439999999999
 20
111.28100000000001
 30
0.0
 11
162.7649999999999
 21
111.96599999999999
 31
0.0
  0
LINE
  5
D4
  8
0
 62
     7
 10
178.15899999999999
 20
98.731200000000001
 30
0.0
 11
178.15899999999999
 21
120.89399999999991
 31
0.0
  0
LINE
  5
D5
  8
0
 62
     7
 10
162.5439999999999
 20
111.28100000000001
 30
0.0
 11
158.9079999999999
 21
111.28100000000001
 31
0.0
  0
LINE
  5
D6
  8
0
 62
     7
 10
158.9079999999999
 20
122.782
 30
0.0
 11
178.15899999999999
 21
122.782
 31
0.0
  0
LINE
  5
D7
  8
0
 62
     7
 10
181.16099999999989
 20
132.78100000000001
 30
0.0
 11
158.9079999999999
 21
132.78100000000001
 31
0.0
  0
ARC
  5
D8
  8
0
 62
     7
 10
159.92857799999999
 20
130.85043200000001
 30
0.0
 40
19.936160000000001
 50
318.63095600000003
 51
336.12438900000001
  0
ARC
  5
D9
  8
0
 62
     7
 10
162.602475
 20
128.89496399999999
 30
0.0
 40
16.639802
 50
289.09169999999989
 51
317.59901500000001
  0
ARC
  5
DA
  8
0
 62
     7
 10
160.55186499999999
 20
134.01880299999991
 30
0.0
 40
22.154074999999992
 50
277.68855600000001
 51
289.76907799999998
  0
ARC
  5
DB
  8
0
 62
     7
 10
159.12201200000001
 20
142.717716
 30
0.0
 40
30.967116999999998
 50
269.60486299999991
 51
278.15701200000001
  0
ARC
  5
DC
  8
0
 62
     7
 10
139.13969299999991
 20
132.26253700000001
 30
0.0
 40
0.5191600000000001
 50
2.090851999999999
 51
87.948611999999983
  0
LINE
  5
DD
  8
0
 62
     7
 10
139.65899999999991
 20
132.28100000000001
 30
0.0
 11
139.65899999999991
 21
122.78100000000001
 31
0.0
  0
ARC
  5
DE
  8
0
 62
     7
 10
94.774387000000004
 20
132.2621
 30
0.0
 40
0.5196130000000001
 50
92.097764999999995
 51
177.86273199999999
  0
ARC
  5
DF
  8
0
 62
     7
 10
101.78464
 20
138.63790599999999
 30
0.0
 40
0.6209590000000002
 50
341.61331399999989
 51
0.237172
  0
ARC
  5
E0
  8
0
 62
     7
 10
101.74047899999999
 20
138.61612700000001
 30
0.0
 40
0.665561
 50
2.0966
 51
87.964965000000007
  0
ARC
  5
E1
  8
0
 62
     7
 10
101.76410199999999
 20
138.63780600000001
 30
0.0
 40
0.643462
 50
89.998992999999999
 51
110.2992879999999
  0
LINE
  5
E2
  8
0
 62
     7
 10
102.3739999999999
 20
138.4429999999999
 30
0.0
 11
100.18000000000001
 21
132.78100000000001
 31
0.0
  0
LINE
  5
E3
  8
0
 62
     7
 10
94.255099999999999
 20
120.86499999999999
 30
0.0
 11
94.255099999999999
 21
98.731200000000001
 31
0.0
  0
LINE
  5
E4
  8
0
 62
     7
 10
35.555199999999999
 20
120.86499999999999
 30
0.0
 11
35.555199999999999
 21
98.731200000000001
 31
0.0
  0
LINE
  5
E5
  8
0
 62
     7
 10
94.255099999999999
 20
132.28100000000001
 30
0.0
 11
94.255099999999999
 21
122.782
 31
0.0
  0
ARC
  5
E6
  8
0
 62
     7
 10
82.072867000000002
 20
246.21842499999991
 30
0.0
 40
108.73411399999991
 50
277.87032399999998
 51
280.31398899999999
  0
ARC
  5
E7
  8
0
 62
     7
 10
71.175651000000002
 20
321.63706200000001
 30
0.0
 40
184.93510900000001
 50
275.85624799999999
 51
278.01512999999989
  0
ARC
  5
E8
  8
0
 62
     7
 10
63.234054999999998
 20
395.31115199999999
 30
0.0
 40
259.03528299999999
 50
270.36964
 51
275.94095899999991
  0
LINE
  5
E9
  8
0
 62
     7
 10
64.905100000000004
 20
132.78100000000001
 30
0.0
 11
100.18000000000001
 21
132.78100000000001
 31
0.0
  0
LINE
  5
EA
  8
0
 62
     7
 10
155.27299999999991
 20
111.28100000000001
 30
0.0
 11
155.053
 21
111.96599999999999
 31
0.0
  0
LINE
  5
EB
  8
0
 62
     7
 10
139.65899999999991
 20
98.731200000000001
 30
0.0
 11
139.65899999999991
 21
120.89399999999991
 31
0.0
  0
LINE
  5
EC
  8
0
  6
AIGENLINE001
 62
     7
 10
155.1579999999999
 20
116.28100000000001
 30
0.0
 11
156.608
 21
114.78099999999991
 31
0.0
  0
LINE
  5
ED
  8
0
  6
AIGENLINE001
 62
     7
 10
156.608
 20
114.78099999999991
 30
0.0
 11
156.608
 21
111.28100000000001
 31
0.0
  0
LINE
  5
EE
  8
0
  6
AIGENLINE002
 62
     7
 10
158.9079999999999
 20
108.621
 30
0.0
 11
158.9079999999999
 21
141.83600000000001
 31
0.0
  0
LINE
  5
EF
  8
0
 62
     7
 10
155.27299999999991
 20
111.28100000000001
 30
0.0
 11
158.9079999999999
 21
111.28100000000001
 31
0.0
  0
LINE
  5
F0
  8
0
 62
     7
 10
68.540400000000005
 20
111.28100000000001
 30
0.0
 11
68.737200000000001
 21
111.89100000000001
 31
0.0
  0
ARC
  5
F1
  8
0
 62
     7
 10
70.659248000000005
 20
145.71183300000001
 30
0.0
 40
32.902324999999998
 50
294.59594800000002
 51
315.81964699999997
  0
ARC
  5
F2
  8
0
 62
     7
 10
67.299378000000004
 20
152.27447799999999
 30
0.0
 40
40.269244999999991
 50
281.406656
 51
295.05628200000001
  0
ARC
  5
F3
  8
0
 62
     7
 10
65.110731000000001
 20
161.37405499999991
 30
0.0
 40
49.623145000000001
 50
269.76263999999992
 51
281.80590799999987
  0
LINE
  5
F4
  8
0
 62
     7
 10
158.9079999999999
 20
122.782
 30
0.0
 11
139.65899999999991
 21
122.782
 31
0.0
  0
LINE
  5
F5
  8
0
 62
     7
 10
94.255099999999999
 20
122.782
 30
0.0
 11
64.905100000000004
 21
122.782
 31
0.0
  0
LINE
  5
F6
  8
0
 62
     7
 10
117.5
 20
139.28200000000001
 30
0.0
 11
103.59099999999999
 21
139.28200000000001
 31
0.0
  0
LINE
  5
F7
  8
0
 62
     7
 10
110.622
 20
132.78200000000001
 30
0.0
 11
101.41500000000001
 21
132.78200000000001
 31
0.0
  0
LINE
  5
F8
  8
0
 62
     7
 10
110.622
 20
122.782
 30
0.0
 11
95.842999999999975
 21
122.782
 31
0.0
  0
LINE
  5
F9
  8
0
 62
     7
 10
117.5
 20
111.28100000000001
 30
0.0
 11
71.047399999999996
 21
111.28100000000001
 31
0.0
  0
LINE
  5
FA
  8
0
 62
     7
 10
68.540400000000005
 20
111.28100000000001
 30
0.0
 11
64.905100000000004
 21
111.28100000000001
 31
0.0
  0
ARC
  5
FB
  8
0
 62
     7
 10
35.036352000000001
 20
132.26254299999991
 30
0.0
 40
0.519154
 50
2.0902379999999998
 51
87.949224999999998
  0
ARC
  5
FC
  8
0
 62
     7
 10
180.27014799999989
 20
135.51522399999999
 30
0.0
 40
1.260330999999999
 50
348.61011699999989
 51
359.71089899999998
  0
ARC
  5
FD
  8
0
 62
     7
 10
180.302359
 20
135.48847799999999
 30
0.0
 40
1.2282740000000001
 50
0.9510209999999998
 51
66.164422999999999
  0
LINE
  5
FE
  8
0
 62
     7
 10
181.16099999999989
 20
132.78100000000001
 30
0.0
 11
181.5149999999999
 21
135.31999999999991
 31
0.0
  0
ARC
  5
FF
  8
0
 62
     7
 10
158.896308
 20
103.825918
 30
0.0
 40
35.455351999999998
 50
87.974715999999987
 51
89.980374999999995
  0
ARC
  5
100
  8
0
 62
     7
 10
157.92850899999999
 20
74.144261999999998
 30
0.0
 40
65.152721
 50
86.253108999999995
 51
88.046620999999988
  0
ARC
  5
101
  8
0
 62
     7
 10
154.57288500000001
 20
22.740328999999988
 30
0.0
 40
116.66606299999989
 50
83.508340000000004
 51
86.258381000000014
  0
ARC
  5
102
  8
0
 62
     7
 10
150.66448600000001
 20
-16.229859999999999
 30
0.0
 40
155.82914199999991
 50
80.205836000000005
 51
83.700479999999999
  0
ARC
  5
103
  8
0
 62
     7
 10
162.48905300000001
 20
53.434930000000001
 30
0.0
 40
85.168464999999983
 50
77.585533999999996
 51
80.072378999999984
  0
ARC
  5
104
  8
0
 62
     7
 10
137.538456
 20
135.51434099999989
 30
0.0
 40
1.251695999999999
 50
180.250709
 51
191.428314
  0
ARC
  5
105
  8
0
 62
     7
 10
137.5132429999999
 20
135.48956100000001
 30
0.0
 40
1.226623
 50
113.786226
 51
179.09828999999991
  0
LINE
  5
106
  8
0
 62
     7
 10
136.65599999999989
 20
132.78100000000001
 30
0.0
 11
136.30299999999991
 21
135.31999999999991
 31
0.0
  0
ARC
  5
107
  8
0
 62
     7
 10
28.025827
 20
138.63790499999999
 30
0.0
 40
0.620958
 50
179.762789
 51
198.38672500000001
  0
ARC
  5
108
  8
0
 62
     7
 10
28.070174999999999
 20
138.61595399999999
 30
0.0
 40
0.665752
 50
92.080067000000014
 51
177.889107
  0
ARC
  5
109
  8
0
 62
     7
 10
28.048258000000001
 20
138.650296
 30
0.0
 40
0.630976
 50
69.497647999999998
 51
90.204029999999989
  0
LINE
  5
10A
  8
0
 62
     7
 10
27.436599999999999
 20
138.4429999999999
 30
0.0
 11
29.630400000000002
 21
132.78100000000001
 31
0.0
  0
LINE
  5
10B
  8
0
 62
     7
 10
35.555199999999999
 20
132.28100000000001
 30
0.0
 11
35.555199999999999
 21
122.782
 31
0.0
  0
ARC
  5
10C
  8
0
 62
     7
 10
47.739001999999992
 20
246.23064299999999
 30
0.0
 40
108.746447
 50
259.68627900000001
 51
262.12970000000001
  0
ARC
  5
10D
  8
0
 62
     7
 10
58.635081999999997
 20
321.64286499999992
 30
0.0
 40
184.94093100000001
 50
261.98497300000002
 51
264.14380499999999
  0
ARC
  5
10E
  8
0
 62
     7
 10
66.576343999999992
 20
395.31395400000002
 30
0.0
 40
259.03808500000002
 50
264.05909199999991
 51
269.63036099999999
  0
LINE
  5
10F
  8
0
 62
     7
 10
64.905100000000004
 20
132.78100000000001
 30
0.0
 11
29.630400000000002
 21
132.78100000000001
 31
0.0
  0
ARC
  5
110
  8
0
 62
     7
 10
158.920582
 20
103.82660300000001
 30
0.0
 40
35.454667000000001
 50
90.019602999999975
 51
92.025284000000013
  0
ARC
  5
111
  8
0
 62
     7
 10
159.88840799999991
 20
74.144862000000003
 30
0.0
 40
65.152120999999994
 50
91.953389999999999
 51
93.746899999999997
  0
ARC
  5
112
  8
0
 62
     7
 10
163.24349799999999
 20
22.749209
 30
0.0
 40
116.6571669999999
 50
93.741619
 51
96.491816999999983
  0
ARC
  5
113
  8
0
 62
     7
 10
167.1524179999999
 20
-16.225321999999998
 30
0.0
 40
155.8246179999999
 50
96.299637000000004
 51
99.794316000000009
  0
ARC
  5
114
  8
0
 62
     7
 10
155.32849799999991
 20
53.43377199999999
 30
0.0
 40
85.169662999999986
 50
99.927690000000027
 51
102.414486
  0
LINE
  5
115
  8
0
 62
     7
 10
136.65599999999989
 20
132.78100000000001
 30
0.0
 11
158.9079999999999
 21
132.78100000000001
 31
0.0
  0
LINE
  5
116
  8
0
  6
AIGENLINE001
 62
     7
 10
137.08699999999999
 20
136.28100000000001
 30
0.0
 11
139.928
 21
136.28100000000001
 31
0.0
  0
LINE
  5
117
  8
0
 62
     7
 10
123.1579999999999
 20
136.28100000000001
 30
0.0
 11
135.5739999999999
 21
136.28100000000001
 31
0.0
  0
LINE
  5
118
  8
0
 62
     7
 10
123.1579999999999
 20
111.28100000000001
 30
0.0
 11
154.011
 21
111.28100000000001
 31
0.0
  0
LINE
  5
119
  8
0
 62
     7
 10
128.90100000000001
 20
122.78100000000001
 30
0.0
 11
138.489
 21
122.78100000000001
 31
0.0
  0
LINE
  5
11A
  8
0
 62
     7
 10
128.90100000000001
 20
132.78100000000001
 30
0.0
 11
135.5739999999999
 21
132.78100000000001
 31
0.0
  0
LINE
  5
11B
  8
0
 62
     7
 10
61.2699
 20
111.28100000000001
 30
0.0
 11
61.073099999999997
 21
111.89100000000001
 31
0.0
  0
LINE
  5
11C
  8
0
 62
     7
 10
110.294
 20
238.3309999999999
 30
0.0
 11
109.702
 21
240.54199999999989
 31
0.0
  0
LINE
  5
11D
  8
0
 62
     7
 10
109.702
 20
240.54199999999989
 30
0.0
 11
109.1099999999999
 21
238.3309999999999
 31
0.0
  0
LINE
  5
11E
  8
0
 62
     7
 10
109.1099999999999
 20
238.3309999999999
 30
0.0
 11
110.294
 21
238.3309999999999
 31
0.0
  0
LINE
  5
11F
  8
0
 62
     7
 10
109.1239999999999
 20
197.352
 30
0.0
 11
109.717
 21
195.14099999999991
 31
0.0
  0
LINE
  5
120
  8
0
 62
     7
 10
109.717
 20
195.14099999999991
 30
0.0
 11
110.3089999999999
 21
197.352
 31
0.0
  0
LINE
  5
121
  8
0
 62
     7
 10
110.3089999999999
 20
197.352
 30
0.0
 11
109.1239999999999
 21
197.352
 31
0.0
  0
LINE
  5
122
  8
0
 62
     7
 10
109.709
 20
240.54199999999989
 30
0.0
 11
109.709
 21
195.14099999999991
 31
0.0
  0
LINE
  5
123
  8
0
 62
     7
 10
78.906400000000005
 20
240.54199999999989
 30
0.0
 11
110.70999999999989
 21
240.54199999999989
 31
0.0
  0
LINE
  5
124
  8
0
 62
     7
 10
71.688199999999995
 20
224.62499999999989
 30
0.0
 11
78.647900000000007
 21
224.62499999999989
 31
0.0
  0
LINE
  5
125
  8
0
 62
     7
 10
78.906400000000005
 20
195.14099999999991
 30
0.0
 11
110.70999999999989
 21
195.14099999999991
 31
0.0
  0
LINE
  5
126
  8
0
 62
     7
 10
29.615400000000001
 20
181.8549999999999
 30
0.0
 11
27.405000000000001
 21
181.26300000000001
 31
0.0
  0
LINE
  5
127
  8
0
 62
     7
 10
27.405000000000001
 20
181.26300000000001
 30
0.0
 11
29.615400000000001
 21
180.67099999999991
 31
0.0
  0
LINE
  5
128
  8
0
 62
     7
 10
29.615400000000001
 20
180.67099999999991
 30
0.0
 11
29.615400000000001
 21
181.8549999999999
 31
0.0
  0
LINE
  5
129
  8
0
 62
     7
 10
100.19499999999989
 20
180.685
 30
0.0
 11
102.40599999999991
 21
181.27799999999999
 31
0.0
  0
LINE
  5
12A
  8
0
 62
     7
 10
102.40599999999991
 20
181.27799999999999
 30
0.0
 11
100.19499999999989
 21
181.86999999999989
 31
0.0
  0
LINE
  5
12B
  8
0
 62
     7
 10
100.19499999999989
 20
181.86999999999989
 30
0.0
 11
100.19499999999989
 21
180.685
 31
0.0
  0
LINE
  5
12C
  8
0
 62
     7
 10
27.404900000000001
 20
181.27000000000001
 30
0.0
 11
102.40599999999991
 21
181.27000000000001
 31
0.0
  0
ARC
  5
12D
  8
0
 62
     7
 10
76.858990000000006
 20
130.79792
 30
0.0
 40
107.079386
 50
104.91528199999991
 51
107.23268999999991
  0
ARC
  5
12E
  8
0
 62
     7
 10
64.233314000000007
 20
177.13266499999989
 30
0.0
 40
59.056682999999992
 50
89.348174000000014
 51
104.649304
  0
ARC
  5
12F
  8
0
 62
     7
 10
52.951306000000002
 20
130.79792
 30
0.0
 40
107.079386
 50
72.767290000000003
 51
75.084699000000001
  0
ARC
  5
130
  8
0
 62
     7
 10
65.576982000000001
 20
177.13266499999989
 30
0.0
 40
59.056682999999992
 50
75.350676000000007
 51
90.651806000000008
  0
ARC
  5
131
  8
0
 62
     7
 10
157.88865699999991
 20
130.85043200000001
 30
0.0
 40
19.936160000000001
 50
203.875631
 51
221.36906400000001
  0
ARC
  5
132
  8
0
 62
     7
 10
155.21436299999991
 20
128.8942429999999
 30
0.0
 40
16.639022000000001
 50
222.400094
 51
250.9084859999999
  0
ARC
  5
133
  8
0
 62
     7
 10
157.2651449999999
 20
134.01801499999991
 30
0.0
 40
22.153289999999998
 50
250.23056699999989
 51
262.31127400000003
  0
ARC
  5
134
  8
0
 62
     7
 10
158.69487899999999
 20
142.7156019999999
 30
0.0
 40
30.965002999999999
 50
261.84272900000002
 51
270.39518299999997
  0
ARC
  5
135
  8
0
 62
     7
 10
59.149595999999988
 20
145.70977400000001
 30
0.0
 40
32.899848999999989
 50
224.17956499999991
 51
245.40487999999999
  0
ARC
  5
136
  8
0
 62
     7
 10
62.510918000000011
 20
152.27447799999999
 30
0.0
 40
40.269244999999991
 50
244.943737
 51
258.59336399999989
  0
ARC
  5
137
  8
0
 62
     7
 10
64.699565000000007
 20
161.37405499999991
 30
0.0
 40
49.623145000000001
 50
258.19411200000002
 51
270.23737999999992
  0
ARC
  5
138
  8
0
 62
     7
 10
76.858990000000006
 20
304.88538899999998
 30
0.0
 40
107.079386
 50
252.76731000000001
 51
255.0847179999999
  0
ARC
  5
139
  8
0
 62
     7
 10
64.233314000000007
 20
258.55064499999997
 30
0.0
 40
59.056682999999992
 50
255.35069599999991
 51
270.65182599999991
  0
ARC
  5
13A
  8
0
 62
     7
 10
52.951306000000002
 20
304.88538899999998
 30
0.0
 40
107.079386
 50
284.915301
 51
287.23271
  0
ARC
  5
13B
  8
0
 62
     7
 10
65.576982000000001
 20
258.55064499999997
 30
0.0
 40
59.056682999999992
 50
269.34819399999992
 51
284.64932399999998
  0
ARC
  5
13C
  8
0
 62
     7
 10
80.447769999999991
 20
217.82752499999989
 30
0.0
 40
21.957829
 50
346.36166299999991
 51
0.036869
  0
ARC
  5
13D
  8
0
 62
     7
 10
84.281547999999987
 20
217.12472
 30
0.0
 40
18.067785999999991
 50
308.91836699999999
 51
345.66086000000001
  0
ARC
  5
13E
  8
0
 62
     7
 10
80.179261999999994
 20
221.754977
 30
0.0
 40
24.249077
 50
296.52695
 51
309.58697299999989
  0
ARC
  5
13F
  8
0
 62
     7
 10
75.447648000000001
 20
230.55555499999991
 30
0.0
 40
34.237737000000003
 50
286.84283399999993
 51
297.03399799999988
  0
ARC
  5
140
  8
0
 62
     7
 10
70.716504
 20
244.8408269999999
 30
0.0
 40
49.282587999999997
 50
279.45040999999998
 51
287.29517499999997
  0
ARC
  5
141
  8
0
 62
     7
 10
66.840116000000009
 20
265.623896
 30
0.0
 40
70.42127099999999
 50
272.94389899999999
 51
279.78507500000001
  0
ARC
  5
142
  8
0
 62
     7
 10
65.047956999999997
 20
290.06070999999997
 30
0.0
 40
94.919383999999994
 50
269.91380699999991
 51
273.2667009999999
  0
ARC
  5
143
  8
0
 62
     7
 10
49.362833000000002
 20
217.82751899999991
 30
0.0
 40
21.957962999999999
 50
179.9630949999999
 51
193.63825499999999
  0
ARC
  5
144
  8
0
 62
     7
 10
45.529100999999997
 20
217.1247689999999
 30
0.0
 40
18.067976999999988
 50
194.33916400000001
 51
231.08114599999999
  0
ARC
  5
145
  8
0
 62
     7
 10
49.632061999999998
 20
221.75631299999989
 30
0.0
 40
24.250692999999998
 50
230.41338300000001
 51
243.47248999999991
  0
ARC
  5
146
  8
0
 62
     7
 10
54.362557000000002
 20
230.55495099999999
 30
0.0
 40
34.237118000000002
 50
242.96582599999999
 51
253.157116
  0
ARC
  5
147
  8
0
 62
     7
 10
59.093640000000001
 20
244.839845
 30
0.0
 40
49.281590999999999
 50
252.7047279999999
 51
260.549621
  0
ARC
  5
148
  8
0
 62
     7
 10
62.970084
 20
265.62277799999998
 30
0.0
 40
70.420150000000007
 50
260.21488499999992
 51
267.05615599999987
  0
ARC
  5
149
  8
0
 62
     7
 10
64.762343999999999
 20
290.06070399999999
 30
0.0
 40
94.919379000000006
 50
266.73331799999988
 51
270.08620999999999
  0
ARC
  5
14A
  8
0
 62
     7
 10
80.447769999999991
 20
217.855785
 30
0.0
 40
21.957829
 50
359.96313099999998
 51
13.638337
  0
ARC
  5
14B
  8
0
 62
     7
 10
84.281547999999987
 20
218.5585899999999
 30
0.0
 40
18.067785999999991
 50
14.33913999999999
 51
51.081633000000011
  0
ARC
  5
14C
  8
0
 62
     7
 10
80.179261999999994
 20
213.92833300000001
 30
0.0
 40
24.249077
 50
50.413027
 51
63.473050000000008
  0
ARC
  5
14D
  8
0
 62
     7
 10
75.447648000000001
 20
205.12775500000001
 30
0.0
 40
34.237737000000003
 50
62.96600200000001
 51
73.157166000000004
  0
ARC
  5
14E
  8
0
 62
     7
 10
70.716504
 20
190.84248299999999
 30
0.0
 40
49.282587999999997
 50
72.704824999999985
 51
80.549590000000009
  0
ARC
  5
14F
  8
0
 62
     7
 10
66.840116000000009
 20
170.05941399999989
 30
0.0
 40
70.42127099999999
 50
80.214924999999994
 51
87.056100999999984
  0
ARC
  5
150
  8
0
 62
     7
 10
65.047956999999997
 20
145.62260000000001
 30
0.0
 40
94.919383999999994
 50
86.733299000000002
 51
90.086193000000009
  0
ARC
  5
151
  8
0
 62
     7
 10
49.362833000000002
 20
217.85579100000001
 30
0.0
 40
21.957962999999999
 50
166.3617449999999
 51
180.03690499999999
  0
ARC
  5
152
  8
0
 62
     7
 10
45.529100999999997
 20
218.55854099999999
 30
0.0
 40
18.067976999999988
 50
128.91885400000001
 51
165.66083599999999
  0
ARC
  5
153
  8
0
 62
     7
 10
49.632061999999998
 20
213.926997
 30
0.0
 40
24.250692999999998
 50
116.52751000000001
 51
129.5866169999999
  0
ARC
  5
154
  8
0
 62
     7
 10
54.362557000000002
 20
205.12835899999999
 30
0.0
 40
34.237118000000002
 50
106.8428839999999
 51
117.03417399999999
  0
ARC
  5
155
  8
0
 62
     7
 10
59.093640000000001
 20
190.8434649999999
 30
0.0
 40
49.281590999999999
 50
99.450379000000027
 51
107.2952719999999
  0
ARC
  5
156
  8
0
 62
     7
 10
62.970084
 20
170.06053199999999
 30
0.0
 40
70.420150000000007
 50
92.943843999999999
 51
99.785115000000005
  0
ARC
  5
157
  8
0
 62
     7
 10
64.762343999999999
 20
145.62260599999999
 30
0.0
 40
94.919379000000006
 50
89.913790000000006
 51
93.266681999999975
  0
ARC
  5
158
  8
0
 62
     7
 10
64.905146999999999
 20
217.84165499999989
 30
0.0
 40
3.4998949999999991
 50
270.00002000000001
 51
359.99998999999991
  0
ARC
  5
159
  8
0
 62
     7
 10
64.905146999999999
 20
217.84165400000001
 30
0.0
 40
3.4998939999999998
 50
179.99996999999991
 51
270.00002000000001
  0
ARC
  5
15A
  8
0
 62
     7
 10
64.905148999999994
 20
217.84165400000001
 30
0.0
 40
3.4998949999999991
 50
90.0
 51
179.99996999999991
  0
ARC
  5
15B
  8
0
 62
     7
 10
64.905146999999999
 20
217.84165400000001
 30
0.0
 40
3.4998949999999991
 50
0.00001
 51
89.999980000000008
  0
ARC
  5
15C
  8
0
 62
     7
 10
64.905147999999997
 20
217.84165499999989
 30
0.0
 40
2.2500059999999991
 50
270.00002000000001
 51
359.99998999999991
  0
ARC
  5
15D
  8
0
 62
     7
 10
64.905147999999997
 20
217.84165400000001
 30
0.0
 40
2.2500059999999991
 50
179.99996999999991
 51
270.00002000000001
  0
ARC
  5
15E
  8
0
 62
     7
 10
64.905147999999997
 20
217.84165400000001
 30
0.0
 40
2.2500059999999991
 50
90.0
 51
179.99996999999991
  0
ARC
  5
15F
  8
0
 62
     7
 10
64.905147999999997
 20
217.84165400000001
 30
0.0
 40
2.2500059999999991
 50
0.00001
 51
89.999980000000008
  0
LINE
  5
160
  8
0
 62
     7
 10
67.645200000000003
 20
221.40899999999999
 30
0.0
 11
66.500900000000001
 21
219.42699999999999
 31
0.0
  0
LINE
  5
161
  8
0
 62
     7
 10
66.500900000000001
 20
219.42699999999999
 30
0.0
 11
68.482900000000001
 21
220.57099999999991
 31
0.0
  0
LINE
  5
162
  8
0
 62
     7
 10
68.482900000000001
 20
220.57099999999991
 30
0.0
 11
67.645200000000003
 21
221.40899999999999
 31
0.0
  0
LINE
  5
163
  8
0
 62
     7
 10
62.169699999999992
 20
214.26899999999989
 30
0.0
 11
63.313999999999993
 21
216.25099999999989
 31
0.0
  0
LINE
  5
164
  8
0
 62
     7
 10
63.313999999999993
 20
216.25099999999989
 30
0.0
 11
61.332000000000001
 21
215.107
 31
0.0
  0
LINE
  5
165
  8
0
 62
     7
 10
61.332000000000001
 20
215.107
 30
0.0
 11
62.169699999999992
 21
214.26899999999989
 31
0.0
  0
LINE
  5
166
  8
0
 62
     7
 10
59.006399999999999
 20
211.9429999999999
 30
0.0
 11
71.688199999999995
 21
224.62499999999989
 31
0.0
  0
LINE
  5
167
  8
0
 62
     7
 10
102.40599999999991
 20
180.27000000000001
 30
0.0
 11
102.40599999999991
 21
209.904
 31
0.0
  0
LINE
  5
168
  8
0
 62
     7
 10
27.404900000000001
 20
180.27000000000001
 30
0.0
 11
27.404900000000001
 21
209.904
 31
0.0
  0
LINE
  5
169
  8
0
  6
AIGENLINE002
 62
     7
 10
64.905100000000004
 20
108.621
 30
0.0
 11
64.905100000000004
 21
140.9379999999999
 31
0.0
  0
LINE
  5
16A
  8
0
  6
AIGENLINE002
 62
     7
 10
64.905100000000004
 20
191.77999999999989
 30
0.0
 11
64.905100000000004
 21
243.75599999999989
 31
0.0
  0
LINE
  5
16B
  8
0
 62
     7
 10
35.555199999999999
 20
122.782
 30
0.0
 11
64.905100000000004
 21
122.782
 31
0.0
  0
LINE
  5
16C
  8
0
 62
     7
 10
61.2699
 20
111.28100000000001
 30
0.0
 11
64.905100000000004
 21
111.28100000000001
 31
0.0
  0
LINE
  5
16D
  8
0
  6
AIGENLINE002
 62
     7
 10
24.247299999999999
 20
217.84200000000001
 30
0.0
 11
104.562
 21
217.84200000000001
 31
0.0
  0
TEXT
  5
16E
  8
_________2
 62
     7
 10
49.446199999999997
 20
70.854699999999994
 30
0.0
 40
3.9357000000000002
  1
※カウンターを別途ご用意される際は、厚み100mm以上のカウンターもしくは
 41
0.5
  0
TEXT
  5
16F
  8
_________2
 62
     7
 10
49.446199999999997
 20
65.935100000000006
 30
0.0
 40
3.9357000000000002
  1
　100mm以上のエプロン付カウンターをご用意ください。
 41
0.5
  0
TEXT
  5
170
  8
_________2
 62
     7
 10
29.525700000000001
 20
22.226900000000001
 30
0.0
 40
3.9357000000000002
  1
オーバーフローなし、重量：22kg
 41
0.5
  0
LINE
  5
171
  8
_________2
 62
     7
 10
210.24000000000001
 20
148.93100000000001
 30
0.0
 11
188.49000000000001
 21
148.93100000000001
 31
0.0
  0
LINE
  5
172
  8
_________2
 62
     7
 10
105.2389999999999
 20
17.428499999999989
 30
0.0
 11
105.2389999999999
 21
0.4482100000000001
 31
0.0
  0
LINE
  5
173
  8
_________2
 62
     7
 10
105.2389999999999
 20
297.44999999999987
 30
0.0
 11
105.2389999999999
 21
280.42999999999989
 31
0.0
  0
LINE
  5
174
  8
_________2
 62
     7
 10
21.988499999999991
 20
148.93100000000001
 30
0.0
 11
0.238058
 21
148.93100000000001
 31
0.0
  0
LINE
  5
175
  8
_________2
 62
     7
 10
81.679900000000004
 20
51.324300000000001
 30
0.0
 11
79.493700000000004
 21
51.324300000000001
 31
0.0
  0
LINE
  5
176
  8
_________2
 62
     7
 10
82.172600000000017
 20
51.324300000000001
 30
0.0
 11
81.920400000000001
 21
51.324300000000001
 31
0.0
  0
LINE
  5
177
  8
_________2
 62
     7
 10
82.665199999999984
 20
51.324300000000001
 30
0.0
 11
85.590100000000007
 21
51.324300000000001
 31
0.0
  0
LINE
  5
178
  8
_________2
 62
     7
 10
82.172600000000017
 20
51.324300000000001
 30
0.0
 11
82.424800000000005
 21
51.324300000000001
 31
0.0
  0
LINE
  5
179
  8
_________2
 62
     7
 10
75.776399999999995
 20
51.324300000000001
 30
0.0
 11
73.589399999999998
 21
51.324300000000001
 31
0.0
  0
LINE
  5
17A
  8
_________2
 62
     7
 10
76.2684
 20
51.324300000000001
 30
0.0
 11
76.016900000000007
 21
51.324300000000001
 31
0.0
  0
LINE
  5
17B
  8
_________2
 62
     7
 10
76.2684
 20
51.817
 30
0.0
 11
76.2684
 21
54.003900000000002
 31
0.0
  0
LINE
  5
17C
  8
_________2
 62
     7
 10
76.2684
 20
51.324300000000001
 30
0.0
 11
76.2684
 21
51.576500000000003
 31
0.0
  0
LINE
  5
17D
  8
_________2
 62
     7
 10
76.76100000000001
 20
51.324300000000001
 30
0.0
 11
78.947999999999993
 21
51.324300000000001
 31
0.0
  0
LINE
  5
17E
  8
_________2
 62
     7
 10
76.2684
 20
51.324300000000001
 30
0.0
 11
76.520499999999998
 21
51.324300000000001
 31
0.0
  0
LINE
  5
17F
  8
_________2
 62
     7
 10
76.2684
 20
50.832399999999993
 30
0.0
 11
76.2684
 21
48.645400000000002
 31
0.0
  0
LINE
  5
180
  8
_________2
 62
     7
 10
76.2684
 20
51.324300000000001
 30
0.0
 11
76.2684
 21
51.072800000000001
 31
0.0
  0
LINE
  5
181
  8
_________2
 62
     7
 10
79.979399999999984
 20
50.104799999999997
 30
0.0
 11
85.157399999999996
 21
49.240000000000002
 31
0.0
  0
LINE
  5
182
  8
_________2
 62
     7
 10
79.979399999999984
 20
52.543900000000001
 30
0.0
 11
85.157399999999996
 21
53.409300000000002
 31
0.0
  0
LINE
  5
183
  8
_________2
 62
     7
 10
85.157399999999996
 20
49.240000000000002
 30
0.0
 11
85.157399999999996
 21
53.409300000000002
 31
0.0
  0
LINE
  5
184
  8
_________2
 62
     7
 10
79.979399999999984
 20
50.104799999999997
 30
0.0
 11
79.979399999999984
 21
52.543900000000001
 31
0.0
  0
ARC
  5
185
  8
_________2
 62
     7
 10
76.222110000000001
 20
51.277366999999991
 30
0.0
 40
1.2673709999999989
 50
2.1232950000000002
 51
87.909056000000007
  0
ARC
  5
186
  8
_________2
 62
     7
 10
76.315273000000005
 20
51.277400999999998
 30
0.0
 40
1.267363
 50
92.121785999999986
 51
177.878185
  0
ARC
  5
187
  8
_________2
 62
     7
 10
76.315273000000005
 20
51.371245999999992
 30
0.0
 40
1.267363
 50
182.12181499999991
 51
267.87821400000001
  0
ARC
  5
188
  8
_________2
 62
     7
 10
76.221461000000005
 20
51.371928999999987
 30
0.0
 40
1.2680439999999991
 50
272.11916400000001
 51
357.84848499999993
  0
ARC
  5
189
  8
_________2
 62
     7
 10
76.268349999999984
 20
51.324323
 30
0.0
 40
2.0849849999999992
 50
0.00001
 51
89.999980000000008
  0
ARC
  5
18A
  8
_________2
 62
     7
 10
76.348388
 20
51.245001999999992
 30
0.0
 40
2.1657860000000002
 50
92.117855000000034
 51
177.90105299999991
  0
ARC
  5
18B
  8
_________2
 62
     7
 10
76.348354
 20
51.404327000000002
 30
0.0
 40
2.1657779999999991
 50
182.11700400000001
 51
267.88302499999992
  0
ARC
  5
18C
  8
_________2
 62
     7
 10
76.188378999999983
 20
51.405009999999997
 30
0.0
 40
2.1664590000000001
 50
272.11546800000002
 51
357.86560400000002
  0
TEXT
  5
18D
  8
_________2
 62
     7
 10
109.5439999999999
 20
23.199100000000001
 30
0.0
 40
3.0923400000000001
  1
図番
 41
0.5
  0
LINE
  5
18E
  8
_________2
 62
     7
 10
108.4889999999999
 20
27.4283
 30
0.0
 11
188.49000000000001
 21
27.4283
 31
0.0
  0
TEXT
  5
18F
  8
_________2
 62
     7
 10
109.5439999999999
 20
33.198900000000002
 30
0.0
 40
3.0923400000000001
  1
品番
 41
0.5
  0
TEXT
  5
190
  8
_________2
 62
     7
 10
109.5439999999999
 20
53.337699999999998
 30
0.0
 40
3.0923400000000001
  1
名称
 41
0.5
  0
TEXT
  5
191
  8
_________2
 62
     7
 10
96.784058333333334
 20
48.341500000000011
 30
0.0
 40
3.6545800000000002
  1
mm
 41
0.5
 72
     1
 11
98.306799999999996
 21
48.341500000000011
 31
0.0
  0
TEXT
  5
192
  8
_________2
 62
     7
 10
90.582099999999997
 20
53.337699999999998
 30
0.0
 40
3.0923400000000001
  1
単位
 41
0.5
  0
TEXT
  5
193
  8
_________2
 62
     7
 10
90.582099999999997
 20
40.930399999999999
 30
0.0
 40
3.0923400000000001
  1
尺度
 41
0.5
  0
TEXT
  5
194
  8
_________2
 62
     7
 10
95.030836166666674
 20
34.73749999999999
 30
0.0
 40
3.6545800000000002
  1
1 ： 10
 41
0.5
 72
     1
 11
98.898600000000002
 21
34.73749999999999
 31
0.0
  0
TEXT
  5
195
  8
_________2
 62
     7
 10
142.9134249999999
 20
30.627400000000002
 30
0.0
 40
3.9357000000000002
  1
FL4275
 41
0.5
 72
     1
 11
148.489
 21
30.627400000000002
 31
0.0
  0
TEXT
  5
196
  8
_________2
 62
     7
 10
142.9134249999999
 20
20.626999999999988
 30
0.0
 40
3.9357000000000002
  1
FL4275
 41
0.5
 72
     1
 11
148.489
 21
20.626999999999988
 31
0.0
  0
TEXT
  5
197
  8
_________2
 62
     7
 10
114.11799999999999
 20
45.7453
 30
0.0
 40
3.9357000000000002
  1
アイオー　洗面器
 41
0.5
  0
TEXT
  5
198
  8
_________2
 62
     7
 10
44.303290666666669
 20
35.122599999999991
 30
0.0
 40
3.6545800000000002
  1
高橋
 41
0.5
 72
     1
 11
46.252400000000002
 21
35.122599999999991
 31
0.0
  0
TEXT
  5
199
  8
_________2
 62
     7
 10
25.72929066666666
 20
35.122599999999991
 30
0.0
 40
3.6545800000000002
  1
石原
 41
0.5
 72
     1
 11
27.6784
 21
35.122599999999991
 31
0.0
  0
TEXT
  5
19A
  8
_________2
 62
     7
 10
72.724699999999999
 20
34.73749999999999
 30
0.0
 40
3.6545800000000002
  1
06.12.26
 41
0.5
  0
TEXT
  5
19B
  8
_________2
 62
     7
 10
71.531999999999996
 20
40.930399999999999
 30
0.0
 40
3.0923400000000001
  1
日付
 41
0.5
  0
TEXT
  5
19C
  8
_________2
 62
     7
 10
34.578299999999992
 20
40.930399999999999
 30
0.0
 40
3.0923400000000001
  1
検図
 41
0.5
  0
TEXT
  5
19D
  8
_________2
 62
     7
 10
22.960000000000001
 20
26.730999999999991
 30
0.0
 40
3.0923400000000001
  1
備考
 41
0.5
  0
TEXT
  5
19E
  8
_________2
 62
     7
 10
22.960000000000001
 20
40.930399999999999
 30
0.0
 40
3.0923400000000001
  1
製図
 41
0.5
  0
TEXT
  5
19F
  8
_________2
 62
     7
 10
28.727365333333339
 20
49.456400000000002
 30
0.0
 40
4.4979399999999989
  1
セラトレーディング株式会社
 41
0.5
 72
     1
 11
46.119399999999992
 21
49.456400000000002
 31
0.0
  0
LINE
  5
1A0
  8
_________2
 62
     7
 10
188.49000000000001
 20
17.428499999999989
 30
0.0
 11
21.988499999999991
 21
17.428499999999989
 31
0.0
  0
LINE
  5
1A1
  8
_________2
 62
     7
 10
21.988499999999991
 20
17.428499999999989
 30
0.0
 11
21.988499999999991
 21
280.42999999999989
 31
0.0
  0
LINE
  5
1A2
  8
_________2
 62
     7
 10
21.988499999999991
 20
280.42999999999989
 30
0.0
 11
188.49000000000001
 21
280.42999999999989
 31
0.0
  0
LINE
  5
1A3
  8
_________2
 62
     7
 10
188.49000000000001
 20
280.42999999999989
 30
0.0
 11
188.49000000000001
 21
17.428499999999989
 31
0.0
  0
LINE
  5
1A4
  8
_________2
 62
     7
 10
70.488799999999998
 20
30.9285
 30
0.0
 11
70.488799999999998
 21
57.428400000000011
 31
0.0
  0
LINE
  5
1A5
  8
_________2
 62
     7
 10
89.488600000000005
 20
30.9285
 30
0.0
 11
89.488600000000005
 21
57.428400000000011
 31
0.0
  0
LINE
  5
1A6
  8
_________2
 62
     7
 10
108.4889999999999
 20
17.428499999999989
 30
0.0
 11
108.4889999999999
 21
57.428400000000011
 31
0.0
  0
LINE
  5
1A7
  8
_________2
 62
     7
 10
33.488300000000002
 20
30.9285
 30
0.0
 11
33.488300000000002
 21
44.928800000000003
 31
0.0
  0
LINE
  5
1A8
  8
_________2
 62
     7
 10
21.988499999999991
 20
30.9285
 30
0.0
 11
108.4889999999999
 21
30.9285
 31
0.0
  0
LINE
  5
1A9
  8
_________2
 62
     7
 10
21.988499999999991
 20
44.928800000000003
 30
0.0
 11
108.4889999999999
 21
44.928800000000003
 31
0.0
  0
LINE
  5
1AA
  8
_________2
 62
     7
 10
108.4889999999999
 20
37.428100000000001
 30
0.0
 11
188.49000000000001
 21
37.428100000000001
 31
0.0
  0
LINE
  5
1AB
  8
_________2
 62
     7
 10
21.988499999999991
 20
57.428400000000011
 30
0.0
 11
188.49000000000001
 21
57.428400000000011
 31
0.0
  0
ENDSEC
  0
EOF
