  0
SECTION
  2
HEADER
  9
$ACADVER
  1
AC1009
  9
$INSBASE
 10
0.0
 20
0.0
 30
0.0
  9
$EXTMIN
 10
0.238058
 20
0.4482100000000001
 30
0.0
  9
$EXTMAX
 10
210.24000000000001
 20
297.44999999999999
 30
0.0
  9
$LIMMIN
 10
0.0
 20
0.0
  9
$LIMMAX
 10
12.0
 20
9.0
  9
$ORTHOMODE
 70
     0
  9
$REGENMODE
 70
     1
  9
$FILLMODE
 70
     1
  9
$QTEXTMODE
 70
     0
  9
$MIRRTEXT
 70
     1
  9
$DRAGMODE
 70
     2
  9
$LTSCALE
 40
1.0
  9
$OSMODE
 70
    37
  9
$ATTMODE
 70
     1
  9
$TEXTSIZE
 40
0.0
  9
$TRACEWID
 40
0.05
  9
$TEXTSTYLE
  7
STANDARD
  9
$CLAYER
  8
0
  9
$CELTYPE
  6
CONTINUOUS
  9
$CECOLOR
 62
   256
  9
$DIMSCALE
 40
1.0
  9
$DIMASZ
 40
0.18
  9
$DIMEXO
 40
0.0625
  9
$DIMDLI
 40
0.38
  9
$DIMRND
 40
0.0
  9
$DIMDLE
 40
0.0
  9
$DIMEXE
 40
0.18
  9
$DIMTP
 40
0.0
  9
$DIMTM
 40
0.0
  9
$DIMTXT
 40
0.18
  9
$DIMCEN
 40
0.09
  9
$DIMTSZ
 40
0.0
  9
$DIMTOL
 70
     0
  9
$DIMLIM
 70
     0
  9
$DIMTIH
 70
     1
  9
$DIMTOH
 70
     1
  9
$DIMSE1
 70
     0
  9
$DIMSE2
 70
     0
  9
$DIMTAD
 70
     0
  9
$DIMZIN
 70
     0
  9
$DIMBLK
  1

  9
$DIMASO
 70
     1
  9
$DIMSHO
 70
     1
  9
$DIMPOST
  1

  9
$DIMAPOST
  1

  9
$DIMALT
 70
     0
  9
$DIMALTD
 70
     2
  9
$DIMALTF
 40
25.399999999999999
  9
$DIMLFAC
 40
1.0
  9
$DIMTOFL
 70
     0
  9
$DIMTVP
 40
0.0
  9
$DIMTIX
 70
     0
  9
$DIMSOXD
 70
     0
  9
$DIMSAH
 70
     0
  9
$DIMBLK1
  1

  9
$DIMBLK2
  1

  9
$DIMSTYLE
  2
STANDARD
  9
$DIMCLRD
 70
     0
  9
$DIMCLRE
 70
     0
  9
$DIMCLRT
 70
     0
  9
$DIMTFAC
 40
1.0
  9
$DIMGAP
 40
0.09
  9
$LUNITS
 70
     2
  9
$LUPREC
 70
     4
  9
$SKETCHINC
 40
0.1
  9
$FILLETRAD
 40
0.0
  9
$AUNITS
 70
     0
  9
$AUPREC
 70
     0
  9
$MENU
  1
.
  9
$ELEVATION
 40
0.0
  9
$PELEVATION
 40
0.0
  9
$THICKNESS
 40
0.0
  9
$LIMCHECK
 70
     0
  9
$BLIPMODE
 70
     0
  9
$CHAMFERA
 40
0.0
  9
$CHAMFERB
 40
0.0
  9
$SKPOLY
 70
     0
  9
$TDCREATE
 40
2444972.375
  9
$TDUPDATE
 40
2459326.2060634028
  9
$TDINDWG
 40
0.0000427546
  9
$TDUSRTIMER
 40
0.0000427546
  9
$USRTIMER
 70
     1
  9
$ANGBASE
 50
0.0
  9
$ANGDIR
 70
     0
  9
$PDMODE
 70
     0
  9
$PDSIZE
 40
0.0
  9
$PLINEWID
 40
0.0
  9
$COORDS
 70
     1
  9
$SPLFRAME
 70
     0
  9
$SPLINETYPE
 70
     6
  9
$SPLINESEGS
 70
     8
  9
$ATTDIA
 70
     1
  9
$ATTREQ
 70
     1
  9
$HANDLING
 70
     1
  9
$HANDSEED
  5
260
  9
$SURFTAB1
 70
     6
  9
$SURFTAB2
 70
     6
  9
$SURFTYPE
 70
     6
  9
$SURFU
 70
     6
  9
$SURFV
 70
     6
  9
$UCSNAME
  2

  9
$UCSORG
 10
0.0
 20
0.0
 30
0.0
  9
$UCSXDIR
 10
1.0
 20
0.0
 30
0.0
  9
$UCSYDIR
 10
0.0
 20
1.0
 30
0.0
  9
$PUCSNAME
  2

  9
$PUCSORG
 10
0.0
 20
0.0
 30
0.0
  9
$PUCSXDIR
 10
1.0
 20
0.0
 30
0.0
  9
$PUCSYDIR
 10
0.0
 20
1.0
 30
0.0
  9
$USERI1
 70
     0
  9
$USERI2
 70
     0
  9
$USERI3
 70
     0
  9
$USERI4
 70
     0
  9
$USERI5
 70
     0
  9
$USERR1
 40
0.0
  9
$USERR2
 40
0.0
  9
$USERR3
 40
0.0
  9
$USERR4
 40
0.0
  9
$USERR5
 40
0.0
  9
$WORLDVIEW
 70
     1
  9
$SHADEDGE
 70
     3
  9
$SHADEDIF
 70
    70
  9
$TILEMODE
 70
     1
  9
$MAXACTVP
 70
    48
  9
$PLIMCHECK
 70
     0
  9
$PEXTMIN
 10
1.0000000000000000E+020
 20
1.0000000000000000E+020
 30
1.0000000000000000E+020
  9
$PEXTMAX
 10
-1.0000000000000000E+020
 20
-1.0000000000000000E+020
 30
-1.0000000000000000E+020
  9
$PLIMMIN
 10
0.0
 20
0.0
  9
$PLIMMAX
 10
12.0
 20
9.0
  9
$UNITMODE
 70
     0
  9
$VISRETAIN
 70
     1
  9
$PLINEGEN
 70
     0
  9
$PSLTSCALE
 70
     1
  0
ENDSEC
  0
SECTION
  2
TABLES
  0
TABLE
  2
VPORT
 70
     1
  0
VPORT
  2
*ACTIVE
 70
     0
 10
0.0
 20
0.0
 11
1.0
 21
1.0
 12
159.54780818418419
 22
148.72499999999991
 13
0.0
 23
0.0
 14
1.0
 24
1.0
 15
0.0
 25
0.0
 16
0.0
 26
0.0
 36
1.0
 17
0.0
 27
0.0
 37
0.0
 40
257.58312629693847
 41
2.2294736842105261
 42
50.0
 43
0.0
 44
0.0
 50
0.0
 51
0.0
 71
     0
 72
   100
 73
     1
 74
     1
 75
     0
 76
     0
 77
     0
 78
     0
  0
ENDTAB
  0
TABLE
  2
LTYPE
 70
     3
  0
LTYPE
  2
CONTINUOUS
 70
     0
  3
Solid line
 72
    65
 73
     0
 40
0.0
  0
LTYPE
  2
AIGENLINE001
 70
     0
  3
generate AI->DXF Converter
 72
    65
 73
     2
 40
1.5522299999999991
 49
0.776115
 49
-0.776115
  0
LTYPE
  2
AIGENLINE002
 70
     0
  3
generate AI->DXF Converter
 72
    65
 73
     4
 40
5.8561449999999988
 49
3.5278
 49
-0.776115
 49
0.776115
 49
-0.776115
  0
ENDTAB
  0
TABLE
  2
LAYER
 70
     4
  0
LAYER
  2
0
 70
     0
 62
     7
  6
CONTINUOUS
  0
LAYER
  2
____
 70
     0
 62
     7
  6
CONTINUOUS
  0
LAYER
  2
_________1
 70
     0
 62
     7
  6
CONTINUOUS
  0
LAYER
  2
_________2
 70
     0
 62
     7
  6
CONTINUOUS
  0
ENDTAB
  0
TABLE
  2
STYLE
 70
     1
  0
STYLE
  2
STANDARD
 70
     0
 40
0.0
 41
0.0
 50
0.0
 71
     0
 42
0.0
  3
TXT
  4
EXTFONT.SHX
  0
ENDTAB
  0
TABLE
  2
VIEW
 70
     0
  0
ENDTAB
  0
TABLE
  2
UCS
 70
     0
  0
ENDTAB
  0
TABLE
  2
APPID
 70
     3
  0
APPID
  2
ACAD
 70
     0
  0
APPID
  2
ACAD_NAV_VCDISPLAY
 70
     0
  0
APPID
  2
ACAD_MLEADERVER
 70
     0
  0
ENDTAB
  0
TABLE
  2
DIMSTYLE
 70
     1
  0
DIMSTYLE
  2
STANDARD
 70
     0
  3

  4

  5

  6

  7

 40
1.0
 41
0.18
 42
0.0625
 43
0.38
 44
0.18
 45
0.0
 46
0.0
 47
0.0
 48
0.0
140
0.18
141
0.09
142
0.0
143
25.399999999999999
144
1.0
145
0.0
146
1.0
147
0.09
 71
     0
 72
     0
 73
     1
 74
     1
 75
     0
 76
     0
 77
     0
 78
     0
170
     0
171
     2
172
     0
173
     0
174
     0
175
     0
176
     0
177
     0
178
     0
  0
ENDTAB
  0
ENDSEC
  0
SECTION
  2
BLOCKS
  0
BLOCK
  8
0
  2
$MODEL_SPACE
 70
     0
 10
0.0
 20
0.0
 30
0.0
  3
$MODEL_SPACE
  1

  0
ENDBLK
  5
1A
  8
0
  0
BLOCK
 67
     1
  8
0
  2
$PAPER_SPACE
 70
     0
 10
0.0
 20
0.0
 30
0.0
  3
$PAPER_SPACE
  1

  0
ENDBLK
  5
17
 67
     1
  8
0
  0
BLOCK
  8
_________1
  2
AIGNBL02010002
 70
     0
 10
0.0
 20
0.0
 30
0.0
  3
AIGNBL02010002
  1

  0
LINE
  5
27
  8
_________1
 62
     7
 10
39.0242
 20
200.04300000000001
 30
0.0
 11
39.616399999999999
 21
197.83199999999999
 31
0.0
  0
LINE
  5
28
  8
_________1
 62
     7
 10
39.616399999999999
 20
197.83199999999999
 30
0.0
 11
40.209000000000003
 21
200.04300000000001
 31
0.0
  0
LINE
  5
29
  8
_________1
 62
     7
 10
40.209000000000003
 20
200.04300000000001
 30
0.0
 11
39.0242
 21
200.04300000000001
 31
0.0
  0
LINE
  5
2A
  8
_________1
 62
     7
 10
40.194200000000002
 20
212.62100000000001
 30
0.0
 11
39.601999999999997
 21
214.83199999999999
 31
0.0
  0
LINE
  5
2B
  8
_________1
 62
     7
 10
39.601999999999997
 20
214.83199999999999
 30
0.0
 11
39.009399999999999
 21
212.62100000000001
 31
0.0
  0
LINE
  5
2C
  8
_________1
 62
     7
 10
39.009399999999999
 20
212.62100000000001
 30
0.0
 11
40.194200000000002
 21
212.62100000000001
 31
0.0
  0
LINE
  5
2D
  8
_________1
 62
     7
 10
39.609200000000001
 20
197.83199999999999
 30
0.0
 11
39.609200000000001
 21
214.83199999999999
 31
0.0
  0
ENDBLK
  5
2E
  8
_________1
  0
BLOCK
  8
_________1
  2
AIGNBL02010003
 70
     0
 10
0.0
 20
0.0
 30
0.0
  3
AIGNBL02010003
  1

  0
LINE
  5
31
  8
_________1
 62
     7
 10
87.699200000000005
 20
212.62100000000001
 30
0.0
 11
87.106999999999999
 21
214.83199999999999
 31
0.0
  0
LINE
  5
32
  8
_________1
 62
     7
 10
87.106999999999999
 20
214.83199999999999
 30
0.0
 11
86.514499999999998
 21
212.62100000000001
 31
0.0
  0
LINE
  5
33
  8
_________1
 62
     7
 10
86.514499999999998
 20
212.62100000000001
 30
0.0
 11
87.699200000000005
 21
212.62100000000001
 31
0.0
  0
LINE
  5
34
  8
_________1
 62
     7
 10
86.529300000000006
 20
211.042
 30
0.0
 11
87.121499999999983
 21
208.83199999999999
 31
0.0
  0
LINE
  5
35
  8
_________1
 62
     7
 10
87.121499999999983
 20
208.83199999999999
 30
0.0
 11
87.714100000000016
 21
211.042
 31
0.0
  0
LINE
  5
36
  8
_________1
 62
     7
 10
87.714100000000016
 20
211.042
 30
0.0
 11
86.529300000000006
 21
211.042
 31
0.0
  0
LINE
  5
37
  8
_________1
 62
     7
 10
87.1143
 20
214.83199999999999
 30
0.0
 11
87.1143
 21
208.83199999999999
 31
0.0
  0
ENDBLK
  5
38
  8
_________1
  0
BLOCK
  8
_________1
  2
AIGNBL02010004
 70
     0
 10
0.0
 20
0.0
 30
0.0
  3
AIGNBL02010004
  1

  0
LINE
  5
3B
  8
_________1
 62
     7
 10
93.867000000000004
 20
202.62200000000001
 30
0.0
 11
93.274799999999985
 21
204.83199999999999
 31
0.0
  0
LINE
  5
3C
  8
_________1
 62
     7
 10
93.274799999999985
 20
204.83199999999999
 30
0.0
 11
92.682599999999994
 21
202.62200000000001
 31
0.0
  0
LINE
  5
3D
  8
_________1
 62
     7
 10
92.682599999999994
 20
202.62200000000001
 30
0.0
 11
93.867000000000004
 21
202.62200000000001
 31
0.0
  0
LINE
  5
3E
  8
_________1
 62
     7
 10
92.697100000000006
 20
176.542
 30
0.0
 11
93.289299999999983
 21
174.33199999999999
 31
0.0
  0
LINE
  5
3F
  8
_________1
 62
     7
 10
93.289299999999983
 20
174.33199999999999
 30
0.0
 11
93.881500000000017
 21
176.542
 31
0.0
  0
LINE
  5
40
  8
_________1
 62
     7
 10
93.881500000000017
 20
176.542
 30
0.0
 11
92.697100000000006
 21
176.542
 31
0.0
  0
LINE
  5
41
  8
_________1
 62
     7
 10
93.2821
 20
204.83199999999999
 30
0.0
 11
93.2821
 21
174.33199999999999
 31
0.0
  0
ENDBLK
  5
42
  8
_________1
  0
BLOCK
  8
_________1
  2
AIGNBL02010005
 70
     0
 10
0.0
 20
0.0
 30
0.0
  3
AIGNBL02010005
  1

  0
LINE
  5
45
  8
_________1
 62
     7
 10
93.867000000000004
 20
212.62100000000001
 30
0.0
 11
93.274799999999985
 21
214.83199999999999
 31
0.0
  0
LINE
  5
46
  8
_________1
 62
     7
 10
93.274799999999985
 20
214.83199999999999
 30
0.0
 11
92.682599999999994
 21
212.62100000000001
 31
0.0
  0
LINE
  5
47
  8
_________1
 62
     7
 10
92.682599999999994
 20
212.62100000000001
 30
0.0
 11
93.867000000000004
 21
212.62100000000001
 31
0.0
  0
LINE
  5
48
  8
_________1
 62
     7
 10
92.697100000000006
 20
207.042
 30
0.0
 11
93.289299999999983
 21
204.83199999999999
 31
0.0
  0
LINE
  5
49
  8
_________1
 62
     7
 10
93.289299999999983
 20
204.83199999999999
 30
0.0
 11
93.881500000000017
 21
207.042
 31
0.0
  0
LINE
  5
4A
  8
_________1
 62
     7
 10
93.881500000000017
 20
207.042
 30
0.0
 11
92.697100000000006
 21
207.042
 31
0.0
  0
LINE
  5
4B
  8
_________1
 62
     7
 10
93.2821
 20
214.83199999999999
 30
0.0
 11
93.2821
 21
204.83199999999999
 31
0.0
  0
ENDBLK
  5
4C
  8
_________1
  0
BLOCK
  8
_________1
  2
AIGNBL02010006
 70
     0
 10
0.0
 20
0.0
 30
0.0
  3
AIGNBL02010006
  1

  0
LINE
  5
4F
  8
_________1
 62
     7
 10
100.035
 20
212.62100000000001
 30
0.0
 11
99.442599999999985
 21
214.83199999999999
 31
0.0
  0
LINE
  5
50
  8
_________1
 62
     7
 10
99.442599999999985
 20
214.83199999999999
 30
0.0
 11
98.850100000000012
 21
212.62100000000001
 31
0.0
  0
LINE
  5
51
  8
_________1
 62
     7
 10
98.850100000000012
 20
212.62100000000001
 30
0.0
 11
100.035
 21
212.62100000000001
 31
0.0
  0
LINE
  5
52
  8
_________1
 62
     7
 10
98.864900000000006
 20
174.542
 30
0.0
 11
99.457099999999997
 21
172.33099999999999
 31
0.0
  0
LINE
  5
53
  8
_________1
 62
     7
 10
99.457099999999997
 20
172.33099999999999
 30
0.0
 11
100.05
 21
174.542
 31
0.0
  0
LINE
  5
54
  8
_________1
 62
     7
 10
100.05
 20
174.542
 30
0.0
 11
98.864900000000006
 21
174.542
 31
0.0
  0
LINE
  5
55
  8
_________1
 62
     7
 10
99.4499
 20
214.83199999999999
 30
0.0
 11
99.4499
 21
172.33099999999999
 31
0.0
  0
ENDBLK
  5
56
  8
_________1
  0
BLOCK
  8
_________1
  2
AIGNBL02010007
 70
     0
 10
0.0
 20
0.0
 30
0.0
  3
AIGNBL02010007
  1

  0
LINE
  5
59
  8
_________1
 62
     7
 10
160.36699999999999
 20
206.631
 30
0.0
 11
161.512
 21
208.613
 31
0.0
  0
LINE
  5
5A
  8
_________1
 62
     7
 10
161.512
 20
208.613
 30
0.0
 11
159.53
 21
207.46899999999999
 31
0.0
  0
LINE
  5
5B
  8
_________1
 62
     7
 10
159.53
 20
207.46899999999999
 30
0.0
 11
160.36699999999999
 21
206.631
 31
0.0
  0
LINE
  5
5C
  8
_________1
 62
     7
 10
132.60900000000001
 20
180.53700000000001
 30
0.0
 11
131.465
 21
178.55600000000001
 31
0.0
  0
LINE
  5
5D
  8
_________1
 62
     7
 10
131.465
 20
178.55600000000001
 30
0.0
 11
133.447
 21
179.69999999999999
 31
0.0
  0
LINE
  5
5E
  8
_________1
 62
     7
 10
133.447
 20
179.69999999999999
 30
0.0
 11
132.60900000000001
 21
180.53700000000001
 31
0.0
  0
LINE
  5
5F
  8
_________1
 62
     7
 10
161.512
 20
208.613
 30
0.0
 11
131.465
 21
178.55600000000001
 31
0.0
  0
ENDBLK
  5
60
  8
_________1
  0
BLOCK
  8
_________1
  2
AIGNBL02010008
 70
     0
 10
0.0
 20
0.0
 30
0.0
  3
AIGNBL02010008
  1

  0
LINE
  5
63
  8
_________1
 62
     7
 10
46.927999999999997
 20
108.80200000000001
 30
0.0
 11
44.717299999999987
 21
108.20999999999999
 31
0.0
  0
LINE
  5
64
  8
_________1
 62
     7
 10
44.717299999999987
 20
108.20999999999999
 30
0.0
 11
46.927999999999997
 21
107.61799999999999
 31
0.0
  0
LINE
  5
65
  8
_________1
 62
     7
 10
46.927999999999997
 20
107.61799999999999
 30
0.0
 11
46.927999999999997
 21
108.80200000000001
 31
0.0
  0
LINE
  5
66
  8
_________1
 62
     7
 10
82.006899999999987
 20
107.63200000000001
 30
0.0
 11
84.217600000000004
 21
108.224
 31
0.0
  0
LINE
  5
67
  8
_________1
 62
     7
 10
84.217600000000004
 20
108.224
 30
0.0
 11
82.006899999999987
 21
108.816
 31
0.0
  0
LINE
  5
68
  8
_________1
 62
     7
 10
82.006899999999987
 20
108.816
 30
0.0
 11
82.006899999999987
 21
107.63200000000001
 31
0.0
  0
LINE
  5
69
  8
_________1
 62
     7
 10
44.717299999999987
 20
108.217
 30
0.0
 11
84.217600000000004
 21
108.217
 31
0.0
  0
ENDBLK
  5
6A
  8
_________1
  0
BLOCK
  8
_________1
  2
AIGNBL02010009
 70
     0
 10
0.0
 20
0.0
 30
0.0
  3
AIGNBL02010009
  1

  0
LINE
  5
6D
  8
_________1
 62
     7
 10
92.958899999999986
 20
134.04400000000001
 30
0.0
 11
92.366699999999994
 21
136.255
 31
0.0
  0
LINE
  5
6E
  8
_________1
 62
     7
 10
92.366699999999994
 20
136.255
 30
0.0
 11
91.774500000000003
 21
134.04400000000001
 31
0.0
  0
LINE
  5
6F
  8
_________1
 62
     7
 10
91.774500000000003
 20
134.04400000000001
 30
0.0
 11
92.958899999999986
 21
134.04400000000001
 31
0.0
  0
LINE
  5
70
  8
_________1
 62
     7
 10
91.788899999999998
 20
130.87
 30
0.0
 11
92.381200000000007
 21
128.65899999999999
 31
0.0
  0
LINE
  5
71
  8
_________1
 62
     7
 10
92.381200000000007
 20
128.65899999999999
 30
0.0
 11
92.973399999999998
 21
130.87
 31
0.0
  0
LINE
  5
72
  8
_________1
 62
     7
 10
92.973399999999998
 20
130.87
 30
0.0
 11
91.788899999999998
 21
130.87
 31
0.0
  0
LINE
  5
73
  8
_________1
 62
     7
 10
92.373900000000006
 20
136.255
 30
0.0
 11
92.373900000000006
 21
128.255
 31
0.0
  0
ENDBLK
  5
74
  8
_________1
  0
BLOCK
  8
_________1
  2
AIGNBL0201000A
 70
     0
 10
0.0
 20
0.0
 30
0.0
  3
AIGNBL0201000A
  1

  0
LINE
  5
77
  8
_________1
 62
     7
 10
151.447
 20
138.46600000000001
 30
0.0
 11
152.03899999999999
 21
136.255
 31
0.0
  0
LINE
  5
78
  8
_________1
 62
     7
 10
152.03899999999999
 20
136.255
 30
0.0
 11
152.631
 21
138.46600000000001
 31
0.0
  0
LINE
  5
79
  8
_________1
 62
     7
 10
152.631
 20
138.46600000000001
 30
0.0
 11
151.447
 21
138.46600000000001
 31
0.0
  0
LINE
  5
7A
  8
_________1
 62
     7
 10
152.61699999999999
 20
132.54400000000001
 30
0.0
 11
152.02500000000001
 21
134.755
 31
0.0
  0
LINE
  5
7B
  8
_________1
 62
     7
 10
152.02500000000001
 20
134.755
 30
0.0
 11
151.43299999999999
 21
132.54400000000001
 31
0.0
  0
LINE
  5
7C
  8
_________1
 62
     7
 10
151.43299999999999
 20
132.54400000000001
 30
0.0
 11
152.61699999999999
 21
132.54400000000001
 31
0.0
  0
LINE
  5
7D
  8
_________1
 62
     7
 10
152.03200000000001
 20
131.626
 30
0.0
 11
152.03200000000001
 21
142.41399999999999
 31
0.0
  0
ENDBLK
  5
7E
  8
_________1
  0
BLOCK
  8
_________1
  2
AIGNBL0201000B
 70
     0
 10
0.0
 20
0.0
 30
0.0
  3
AIGNBL0201000B
  1

  0
LINE
  5
81
  8
_________1
 62
     7
 10
162.37899999999999
 20
144.428
 30
0.0
 11
160.16900000000001
 21
143.83600000000001
 31
0.0
  0
LINE
  5
82
  8
_________1
 62
     7
 10
160.16900000000001
 20
143.83600000000001
 30
0.0
 11
162.37899999999999
 21
143.244
 31
0.0
  0
LINE
  5
83
  8
_________1
 62
     7
 10
162.37899999999999
 20
143.244
 30
0.0
 11
162.37899999999999
 21
144.428
 31
0.0
  0
LINE
  5
84
  8
_________1
 62
     7
 10
163.958
 20
143.2579999999999
 30
0.0
 11
166.16800000000001
 21
143.851
 31
0.0
  0
LINE
  5
85
  8
_________1
 62
     7
 10
166.16800000000001
 20
143.851
 30
0.0
 11
163.958
 21
144.44300000000001
 31
0.0
  0
LINE
  5
86
  8
_________1
 62
     7
 10
163.958
 20
144.44300000000001
 30
0.0
 11
163.958
 21
143.2579999999999
 31
0.0
  0
LINE
  5
87
  8
_________1
 62
     7
 10
160.16900000000001
 20
143.84299999999999
 30
0.0
 11
166.16800000000001
 21
143.84299999999999
 31
0.0
  0
ENDBLK
  5
88
  8
_________1
  0
BLOCK
  8
_________1
  2
AIGNBL0201000C
 70
     0
 10
0.0
 20
0.0
 30
0.0
  3
AIGNBL0201000C
  1

  0
LINE
  5
8B
  8
_________1
 62
     7
 10
151.37899999999999
 20
108.80200000000001
 30
0.0
 11
149.16800000000001
 21
108.20999999999999
 31
0.0
  0
LINE
  5
8C
  8
_________1
 62
     7
 10
149.16800000000001
 20
108.20999999999999
 30
0.0
 11
151.37899999999999
 21
107.61799999999999
 31
0.0
  0
LINE
  5
8D
  8
_________1
 62
     7
 10
151.37899999999999
 20
107.61799999999999
 30
0.0
 11
151.37899999999999
 21
108.80200000000001
 31
0.0
  0
LINE
  5
8E
  8
_________1
 62
     7
 10
163.958
 20
107.63200000000001
 30
0.0
 11
166.16800000000001
 21
108.224
 31
0.0
  0
LINE
  5
8F
  8
_________1
 62
     7
 10
166.16800000000001
 20
108.224
 30
0.0
 11
163.958
 21
108.816
 31
0.0
  0
LINE
  5
90
  8
_________1
 62
     7
 10
163.958
 20
108.816
 30
0.0
 11
163.958
 21
107.63200000000001
 31
0.0
  0
LINE
  5
91
  8
_________1
 62
     7
 10
149.16800000000001
 20
108.217
 30
0.0
 11
166.16800000000001
 21
108.217
 31
0.0
  0
ENDBLK
  5
92
  8
_________1
  0
BLOCK
  8
_________1
  2
AIGNBL0201000D
 70
     0
 10
0.0
 20
0.0
 30
0.0
  3
AIGNBL0201000D
  1

  0
LINE
  5
95
  8
_________1
 62
     7
 10
58.166699999999999
 20
138.46600000000001
 30
0.0
 11
58.758899999999997
 21
136.255
 31
0.0
  0
LINE
  5
96
  8
_________1
 62
     7
 10
58.758899999999997
 20
136.255
 30
0.0
 11
59.351100000000002
 21
138.46600000000001
 31
0.0
  0
LINE
  5
97
  8
_________1
 62
     7
 10
59.351100000000002
 20
138.46600000000001
 30
0.0
 11
58.166699999999999
 21
138.46600000000001
 31
0.0
  0
LINE
  5
98
  8
_________1
 62
     7
 10
59.33659999999999
 20
132.54400000000001
 30
0.0
 11
58.744399999999992
 21
134.755
 31
0.0
  0
LINE
  5
99
  8
_________1
 62
     7
 10
58.744399999999992
 20
134.755
 30
0.0
 11
58.152200000000001
 21
132.54400000000001
 31
0.0
  0
LINE
  5
9A
  8
_________1
 62
     7
 10
58.152200000000001
 20
132.54400000000001
 30
0.0
 11
59.33659999999999
 21
132.54400000000001
 31
0.0
  0
LINE
  5
9B
  8
_________1
 62
     7
 10
58.7517
 20
131.37200000000001
 30
0.0
 11
58.7517
 21
142.977
 31
0.0
  0
ENDBLK
  5
9C
  8
_________1
  0
BLOCK
  8
_________1
  2
AIGNBL0201000E
 70
     0
 10
0.0
 20
0.0
 30
0.0
  3
AIGNBL0201000E
  1

  0
LINE
  5
9F
  8
_________1
 62
     7
 10
99.442599999999985
 20
134.04400000000001
 30
0.0
 11
98.850399999999993
 21
136.255
 31
0.0
  0
LINE
  5
A0
  8
_________1
 62
     7
 10
98.850399999999993
 20
136.255
 30
0.0
 11
98.258200000000002
 21
134.04400000000001
 31
0.0
  0
LINE
  5
A1
  8
_________1
 62
     7
 10
98.258200000000002
 20
134.04400000000001
 30
0.0
 11
99.442599999999985
 21
134.04400000000001
 31
0.0
  0
LINE
  5
A2
  8
_________1
 62
     7
 10
98.2727
 20
122.87
 30
0.0
 11
98.864900000000006
 21
120.65900000000001
 31
0.0
  0
LINE
  5
A3
  8
_________1
 62
     7
 10
98.864900000000006
 20
120.65900000000001
 30
0.0
 11
99.457099999999997
 21
122.87
 31
0.0
  0
LINE
  5
A4
  8
_________1
 62
     7
 10
99.457099999999997
 20
122.87
 30
0.0
 11
98.2727
 21
122.87
 31
0.0
  0
LINE
  5
A5
  8
_________1
 62
     7
 10
98.857600000000005
 20
136.255
 30
0.0
 11
98.857600000000005
 21
120.255
 31
0.0
  0
ENDBLK
  5
A6
  8
_________1
  0
BLOCK
  8
_________1
  2
AIGNBL0201000F
 70
     0
 10
0.0
 20
0.0
 30
0.0
  3
AIGNBL0201000F
  1

  0
LINE
  5
A9
  8
_________1
 62
     7
 10
106.89700000000001
 20
134.04400000000001
 30
0.0
 11
106.30500000000001
 21
136.255
 31
0.0
  0
LINE
  5
AA
  8
_________1
 62
     7
 10
106.30500000000001
 20
136.255
 30
0.0
 11
105.71299999999999
 21
134.04400000000001
 31
0.0
  0
LINE
  5
AB
  8
_________1
 62
     7
 10
105.71299999999999
 20
134.04400000000001
 30
0.0
 11
106.89700000000001
 21
134.04400000000001
 31
0.0
  0
LINE
  5
AC
  8
_________1
 62
     7
 10
105.727
 20
118.87
 30
0.0
 11
106.319
 21
116.65900000000001
 31
0.0
  0
LINE
  5
AD
  8
_________1
 62
     7
 10
106.319
 20
116.65900000000001
 30
0.0
 11
106.91200000000001
 21
118.87
 31
0.0
  0
LINE
  5
AE
  8
_________1
 62
     7
 10
106.91200000000001
 20
118.87
 30
0.0
 11
105.727
 21
118.87
 31
0.0
  0
LINE
  5
AF
  8
_________1
 62
     7
 10
106.312
 20
136.255
 30
0.0
 11
106.312
 21
116.255
 31
0.0
  0
ENDBLK
  5
B0
  8
_________1
  0
BLOCK
  8
_________2
  2
AIGNBL03010002
 70
     0
 10
0.0
 20
0.0
 30
0.0
  3
AIGNBL03010002
  1

  0
LINE
  5
B3
  8
_________2
 62
     7
 10
81.679900000000004
 20
51.324300000000001
 30
0.0
 11
79.493700000000004
 21
51.324300000000001
 31
0.0
  0
LINE
  5
B4
  8
_________2
 62
     7
 10
82.172600000000017
 20
51.324300000000001
 30
0.0
 11
81.920400000000001
 21
51.324300000000001
 31
0.0
  0
LINE
  5
B5
  8
_________2
 62
     7
 10
82.665199999999984
 20
51.324300000000001
 30
0.0
 11
85.590100000000007
 21
51.324300000000001
 31
0.0
  0
LINE
  5
B6
  8
_________2
 62
     7
 10
82.172600000000017
 20
51.324300000000001
 30
0.0
 11
82.424800000000005
 21
51.324300000000001
 31
0.0
  0
LINE
  5
B7
  8
_________2
 62
     7
 10
75.776399999999995
 20
51.324300000000001
 30
0.0
 11
73.589399999999998
 21
51.324300000000001
 31
0.0
  0
LINE
  5
B8
  8
_________2
 62
     7
 10
76.2684
 20
51.324300000000001
 30
0.0
 11
76.016900000000007
 21
51.324300000000001
 31
0.0
  0
LINE
  5
B9
  8
_________2
 62
     7
 10
76.2684
 20
51.817
 30
0.0
 11
76.2684
 21
54.003900000000002
 31
0.0
  0
LINE
  5
BA
  8
_________2
 62
     7
 10
76.2684
 20
51.324300000000001
 30
0.0
 11
76.2684
 21
51.576500000000003
 31
0.0
  0
LINE
  5
BB
  8
_________2
 62
     7
 10
76.76100000000001
 20
51.324300000000001
 30
0.0
 11
78.947999999999993
 21
51.324300000000001
 31
0.0
  0
LINE
  5
BC
  8
_________2
 62
     7
 10
76.2684
 20
51.324300000000001
 30
0.0
 11
76.520499999999998
 21
51.324300000000001
 31
0.0
  0
LINE
  5
BD
  8
_________2
 62
     7
 10
76.2684
 20
50.832399999999993
 30
0.0
 11
76.2684
 21
48.645400000000002
 31
0.0
  0
LINE
  5
BE
  8
_________2
 62
     7
 10
76.2684
 20
51.324300000000001
 30
0.0
 11
76.2684
 21
51.072800000000001
 31
0.0
  0
LINE
  5
BF
  8
_________2
 62
     7
 10
79.979399999999984
 20
50.104799999999997
 30
0.0
 11
85.157399999999996
 21
49.240000000000002
 31
0.0
  0
LINE
  5
C0
  8
_________2
 62
     7
 10
79.979399999999984
 20
52.543900000000001
 30
0.0
 11
85.157399999999996
 21
53.409300000000002
 31
0.0
  0
LINE
  5
C1
  8
_________2
 62
     7
 10
85.157399999999996
 20
49.240000000000002
 30
0.0
 11
85.157399999999996
 21
53.409300000000002
 31
0.0
  0
LINE
  5
C2
  8
_________2
 62
     7
 10
79.979399999999984
 20
50.104799999999997
 30
0.0
 11
79.979399999999984
 21
52.543900000000001
 31
0.0
  0
ARC
  5
C3
  8
_________2
 62
     7
 10
76.222110000000001
 20
51.277366999999991
 30
0.0
 40
1.2673709999999989
 50
2.1232950000000002
 51
87.909056000000007
  0
ARC
  5
C4
  8
_________2
 62
     7
 10
76.315273000000005
 20
51.277400999999998
 30
0.0
 40
1.267363
 50
92.121785999999986
 51
177.878185
  0
ARC
  5
C5
  8
_________2
 62
     7
 10
76.315273000000005
 20
51.371245999999992
 30
0.0
 40
1.267363
 50
182.121815
 51
267.87821400000001
  0
ARC
  5
C6
  8
_________2
 62
     7
 10
76.221461000000005
 20
51.371928999999987
 30
0.0
 40
1.2680439999999991
 50
272.11916400000001
 51
357.84848499999998
  0
ARC
  5
C7
  8
_________2
 62
     7
 10
76.268349999999984
 20
51.324323
 30
0.0
 40
2.0849849999999992
 50
0.00001
 51
89.999980000000008
  0
ARC
  5
C8
  8
_________2
 62
     7
 10
76.348388
 20
51.245001999999992
 30
0.0
 40
2.1657860000000002
 50
92.117855000000034
 51
177.90105299999999
  0
ARC
  5
C9
  8
_________2
 62
     7
 10
76.348354
 20
51.404327000000002
 30
0.0
 40
2.1657779999999991
 50
182.11700400000001
 51
267.88302499999998
  0
ARC
  5
CA
  8
_________2
 62
     7
 10
76.188378999999983
 20
51.405009999999997
 30
0.0
 40
2.1664590000000001
 50
272.11546800000002
 51
357.86560400000002
  0
ENDBLK
  5
CB
  8
_________2
  0
ENDSEC
  0
SECTION
  2
ENTITIES
  0
TEXT
  5
CC
  8
____
 62
     7
 10
137.65882118022131
 20
185.9908211802213
 30
0.0
 40
3.0923400000000001
  1
%%c400
 50
45.0
 41
0.5
 72
     1
 11
139.48099999999999
 21
187.81299999999999
 31
0.0
  0
TEXT
  5
CD
  8
____
 62
     7
 10
50.3232
 20
191.072
 30
0.0
 40
3.0923400000000001
  1
%%c45
 41
0.5
  0
TEXT
  5
CE
  8
____
 62
     7
 10
138.24476000000001
 20
161.30199999999999
 30
0.0
 40
3.0923400000000001
  1
カウンター開口寸法
 41
0.5
 72
     1
 11
146.49100000000001
 21
161.30199999999999
 31
0.0
  0
TEXT
  5
CF
  8
____
 62
     7
 10
155.99398249999999
 20
109.14
 30
0.0
 40
3.0923400000000001
  1
170
 41
0.5
 72
     1
 11
157.66900000000001
 21
109.14
 31
0.0
  0
TEXT
  5
D0
  8
____
 62
     7
 10
162.0373725
 20
144.99600000000001
 30
0.0
 40
3.0923400000000001
  1
60
 41
0.5
 72
     1
 11
163.197
 21
144.99600000000001
 31
0.0
  0
TEXT
  5
D1
  8
____
 62
     7
 10
62.524940000000001
 20
109.083
 30
0.0
 40
3.0923400000000001
  1
395
 41
0.5
 72
     1
 11
64.586500000000001
 21
109.083
 31
0.0
  0
TEXT
  5
D2
  8
____
 62
     7
 10
49.277900000000002
 20
217.74000000000001
 30
0.0
 40
3.0923400000000001
  1
%%c37
 41
0.5
  0
TEXT
  5
D3
  8
____
 62
     7
 10
38.781700000000001
 20
204.4969825
 30
0.0
 40
3.0923400000000001
  1
170
 50
90.0
 41
0.5
 72
     1
 11
38.781700000000001
 21
206.172
 31
0.0
  0
TEXT
  5
D4
  8
____
 62
     7
 10
151.33199999999999
 20
140.35244
 30
0.0
 40
3.0923400000000001
  1
15
 50
90.0
 41
0.5
 72
     2
 11
151.33199999999999
 21
142.41399999999999
 31
0.0
  0
TEXT
  5
D5
  8
____
 62
     7
 10
58.051600000000001
 20
140.91543999999999
 30
0.0
 40
3.0923400000000001
  1
15
 50
90.0
 41
0.5
 72
     2
 11
58.051600000000001
 21
142.977
 31
0.0
  0
TEXT
  5
D6
  8
____
 62
     7
 10
105.304
 20
124.45113499999999
 30
0.0
 40
3.0923400000000001
  1
200
 50
90.0
 41
0.5
 72
     1
 11
105.304
 21
126.255
 31
0.0
  0
TEXT
  5
D7
  8
____
 62
     7
 10
97.907600000000002
 20
126.5799825
 30
0.0
 40
3.0923400000000001
  1
160
 50
90.0
 41
0.5
 72
     1
 11
97.907600000000002
 21
128.255
 31
0.0
  0
TEXT
  5
D8
  8
____
 62
     7
 10
91.673900000000003
 20
131.0953725
 30
0.0
 40
3.0923400000000001
  1
80
 50
90.0
 41
0.5
 72
     1
 11
91.673900000000003
 21
132.255
 31
0.0
  0
TEXT
  5
D9
  8
____
 62
     7
 10
86.0411
 20
210.79537250000001
 30
0.0
 40
3.0923400000000001
  1
60
 50
90.0
 41
0.5
 72
     1
 11
86.0411
 21
211.95500000000001
 31
0.0
  0
TEXT
  5
DA
  8
____
 62
     7
 10
92.581999999999994
 20
187.64928750000001
 30
0.0
 40
3.0923400000000001
  1
305
 50
90.0
 41
0.5
 72
     1
 11
92.581999999999994
 21
189.58199999999999
 31
0.0
  0
TEXT
  5
DB
  8
____
 62
     7
 10
92.221699999999998
 20
207.94483
 30
0.0
 40
3.0923400000000001
  1
100
 50
90.0
 41
0.5
 72
     1
 11
92.221699999999998
 21
209.49100000000001
 31
0.0
  0
TEXT
  5
DC
  8
____
 62
     7
 10
98.749799999999993
 20
191.07235499999999
 30
0.0
 40
3.0923400000000001
  1
%%c425
 50
90.0
 41
0.5
 72
     1
 11
98.749799999999993
 21
193.90700000000001
 31
0.0
  0
ARC
  5
DD
  8
_________1
 62
     7
 10
64.467528999999985
 20
193.581918
 30
0.0
 40
19.250198999999999
 50
269.99976299999997
 51
359.99973399999999
  0
ARC
  5
DE
  8
_________1
 62
     7
 10
64.467356000000009
 20
193.58191099999999
 30
0.0
 40
19.250191999999998
 50
180.00026600000001
 51
270.00027599999999
  0
ARC
  5
DF
  8
_________1
 62
     7
 10
64.467449000000002
 20
193.58182500000001
 30
0.0
 40
19.250285000000002
 50
90.0
 51
179.99996999999999
  0
ARC
  5
E0
  8
_________1
 62
     7
 10
64.467443000000003
 20
193.58182500000001
 30
0.0
 40
19.250285000000002
 50
0.00001
 51
89.999980000000008
  0
LINE
  5
E1
  8
_________1
 62
     7
 10
69.017799999999994
 20
174.33199999999999
 30
0.0
 11
93.992099999999994
 21
174.33199999999999
 31
0.0
  0
LINE
  5
E2
  8
_________1
  6
AIGENLINE001
 62
     7
 10
153.36099999999999
 20
121.255
 30
0.0
 11
152.91800000000001
 21
121.255
 31
0.0
  0
LINE
  5
E3
  8
_________1
  6
AIGENLINE001
 62
     7
 10
145.41800000000001
 20
121.255
 30
0.0
 11
146.91800000000001
 21
120.255
 31
0.0
  0
LINE
  5
E4
  8
_________1
  6
AIGENLINE001
 62
     7
 10
152.91800000000001
 20
121.255
 30
0.0
 11
151.41800000000001
 21
120.255
 31
0.0
  0
ARC
  5
E5
  8
_________1
  6
AIGENLINE001
 62
     7
 10
125.02745
 20
135.74299300000001
 30
0.0
 40
0.5121560000000001
 50
21.730414
 51
89.037614999999988
  0
ARC
  5
E6
  8
_________1
  6
AIGENLINE001
 62
     7
 10
34.323240000000013
 20
134.236446
 30
0.0
 40
121.845305
 50
358.470912
 51
0.00865
  0
ARC
  5
E7
  8
_________1
  6
AIGENLINE001
 62
     7
 10
83.994049000000004
 20
133.00948
 30
0.0
 40
72.159509999999997
 50
356.11713500000002
 51
358.39237600000001
  0
ARC
  5
E8
  8
_________1
  6
AIGENLINE001
 62
     7
 10
115.259874
 20
130.974234
 30
0.0
 40
40.827724999999987
 50
352.99438400000003
 51
355.99553300000002
  0
ARC
  5
E9
  8
_________1
  6
AIGENLINE001
 62
     7
 10
132.69582399999999
 20
128.910009
 30
0.0
 40
23.270311
 50
349.19210399999997
 51
352.80284899999998
  0
ARC
  5
EA
  8
_________1
  6
AIGENLINE001
 62
     7
 10
142.63030800000001
 20
127.063979
 30
0.0
 40
13.165983000000001
 50
343.88949000000002
 51
348.97626200000008
  0
ARC
  5
EB
  8
_________1
  6
AIGENLINE001
 62
     7
 10
148.48307700000001
 20
125.417479
 30
0.0
 40
7.0862999999999987
 50
336.16425500000003
 51
343.54786899999999
  0
ARC
  5
EC
  8
_________1
  6
AIGENLINE001
 62
     7
 10
151.33666099999999
 20
124.202708
 30
0.0
 40
3.9854180000000001
 50
328.51704100000001
 51
335.5601759999999
  0
ARC
  5
ED
  8
_________1
  6
AIGENLINE001
 62
     7
 10
152.63318000000001
 20
123.41773999999999
 30
0.0
 40
2.4698180000000001
 50
314.50155899999999
 51
328.33879200000013
  0
ARC
  5
EE
  8
_________1
  6
AIGENLINE001
 62
     7
 10
153.35561899999999
 20
122.723842
 30
0.0
 40
1.468815
 50
270.20107200000001
 51
313.37441799999999
  0
ARC
  5
EF
  8
_________1
  6
AIGENLINE001
 62
     7
 10
140.713472
 20
139.80222499999999
 30
0.0
 40
15.694774000000001
 50
194.27371400000001
 51
210.52521899999999
  0
ARC
  5
F0
  8
_________1
  6
AIGENLINE001
 62
     7
 10
143.61235099999999
 20
141.357248
 30
0.0
 40
18.982174000000001
 50
210.12411599999999
 51
225.077856
  0
ARC
  5
F1
  8
_________1
  6
AIGENLINE001
 62
     7
 10
146.468242
 20
144.05751000000001
 30
0.0
 40
22.911104999999999
 50
224.78930500000001
 51
259.31706500000001
  0
ARC
  5
F2
  8
_________1
  6
AIGENLINE001
 62
     7
 10
145.499619
 20
140.018553
 30
0.0
 40
18.763691999999999
 50
259.93730299999999
 51
269.752004
  0
LINE
  5
F3
  8
_________1
  6
AIGENLINE001
 62
     7
 10
145.41800000000001
 20
121.255
 30
0.0
 11
152.91800000000001
 21
121.255
 31
0.0
  0
LINE
  5
F4
  8
_________1
  6
AIGENLINE001
 62
     7
 10
151.41800000000001
 20
116.255
 30
0.0
 11
151.41800000000001
 21
120.255
 31
0.0
  0
LINE
  5
F5
  8
_________1
  6
AIGENLINE001
 62
     7
 10
146.91800000000001
 20
116.255
 30
0.0
 11
146.91800000000001
 21
120.255
 31
0.0
  0
LINE
  5
F6
  8
_________1
 62
     7
 10
61.727499999999999
 20
194.26400000000001
 30
0.0
 11
62.87169999999999
 21
196.24600000000001
 31
0.0
  0
LINE
  5
F7
  8
_________1
 62
     7
 10
62.87169999999999
 20
196.24600000000001
 30
0.0
 11
60.890000000000001
 21
195.102
 31
0.0
  0
LINE
  5
F8
  8
_________1
 62
     7
 10
60.890000000000001
 20
195.102
 30
0.0
 11
61.727499999999999
 21
194.26400000000001
 31
0.0
  0
LINE
  5
F9
  8
_________1
 62
     7
 10
67.2029
 20
201.404
 30
0.0
 11
66.058400000000006
 21
199.423
 31
0.0
  0
LINE
  5
FA
  8
_________1
 62
     7
 10
66.058400000000006
 20
199.423
 30
0.0
 11
68.040700000000001
 21
200.56700000000001
 31
0.0
  0
LINE
  5
FB
  8
_________1
 62
     7
 10
68.040700000000001
 20
200.56700000000001
 30
0.0
 11
67.2029
 21
201.404
 31
0.0
  0
LINE
  5
FC
  8
_________1
 62
     7
 10
38.8992
 20
197.83199999999999
 30
0.0
 11
57.323700000000002
 21
197.83199999999999
 31
0.0
  0
LINE
  5
FD
  8
_________1
 62
     7
 10
38.8992
 20
214.83199999999999
 30
0.0
 11
59.804099999999998
 21
214.83199999999999
 31
0.0
  0
INSERT
  5
FE
  8
_________1
 62
     7
  2
AIGNBL02010002
 10
0.0
 20
0.0
 30
0.0
  0
LINE
  5
FF
  8
_________1
 62
     7
 10
67.757499999999993
 20
206.38
 30
0.0
 11
65.775599999999997
 21
207.524
 31
0.0
  0
LINE
  5
100
  8
_________1
 62
     7
 10
65.775599999999997
 20
207.524
 30
0.0
 11
66.919700000000006
 21
205.542
 31
0.0
  0
LINE
  5
101
  8
_________1
 62
     7
 10
66.919700000000006
 20
205.542
 30
0.0
 11
67.757499999999993
 21
206.38
 31
0.0
  0
LINE
  5
102
  8
_________1
 62
     7
 10
61.177399999999999
 20
211.28399999999999
 30
0.0
 11
63.159300000000002
 21
210.13999999999999
 31
0.0
  0
LINE
  5
103
  8
_________1
 62
     7
 10
63.159300000000002
 20
210.13999999999999
 30
0.0
 11
62.0152
 21
212.12200000000001
 31
0.0
  0
LINE
  5
104
  8
_________1
 62
     7
 10
62.0152
 20
212.12200000000001
 30
0.0
 11
61.177399999999999
 21
211.28399999999999
 31
0.0
  0
INSERT
  5
105
  8
_________1
 62
     7
  2
AIGNBL02010003
 10
0.0
 20
0.0
 30
0.0
  0
INSERT
  5
106
  8
_________1
 62
     7
  2
AIGNBL02010004
 10
0.0
 20
0.0
 30
0.0
  0
INSERT
  5
107
  8
_________1
 62
     7
  2
AIGNBL02010005
 10
0.0
 20
0.0
 30
0.0
  0
INSERT
  5
108
  8
_________1
 62
     7
  2
AIGNBL02010006
 10
0.0
 20
0.0
 30
0.0
  0
LINE
  5
109
  8
_________1
 62
     7
 10
69.630600000000001
 20
172.33099999999999
 30
0.0
 11
100.16
 21
172.33099999999999
 31
0.0
  0
LINE
  5
10A
  8
_________1
 62
     7
 10
81.710899999999995
 20
204.83199999999999
 30
0.0
 11
93.992099999999994
 21
204.83199999999999
 31
0.0
  0
LINE
  5
10B
  8
_________1
 62
     7
 10
69.630600000000001
 20
214.83199999999999
 30
0.0
 11
100.16
 21
214.83199999999999
 31
0.0
  0
LINE
  5
10C
  8
_________1
 62
     7
 10
68.485500000000002
 20
208.83199999999999
 30
0.0
 11
87.824299999999994
 21
208.83199999999999
 31
0.0
  0
ARC
  5
10D
  8
_________1
 62
     7
 10
43.73680499999999
 20
135.73553200000001
 30
0.0
 40
0.519904
 50
92.127519000000007
 51
177.832978
  0
ARC
  5
10E
  8
_________1
 62
     7
 10
85.211281
 20
135.75251
 30
0.0
 40
0.5063439999999999
 50
0.303288
 51
44.698316999999989
  0
ARC
  5
10F
  8
_________1
 62
     7
 10
85.214934
 20
135.748457
 30
0.0
 40
0.506628
 50
45.314751999999999
 51
89.683622999999997
  0
LINE
  5
110
  8
_________1
 62
     7
 10
43.217300000000002
 20
128.255
 30
0.0
 11
43.217300000000002
 21
135.755
 31
0.0
  0
LINE
  5
111
  8
_________1
 62
     7
 10
85.717600000000004
 20
135.755
 30
0.0
 11
85.717600000000004
 21
128.255
 31
0.0
  0
LINE
  5
112
  8
_________1
 62
     7
 10
43.717500000000001
 20
136.255
 30
0.0
 11
85.217699999999994
 21
136.255
 31
0.0
  0
ARC
  5
113
  8
_________1
 62
     7
 10
83.698387999999994
 20
120.774131
 30
0.0
 40
0.519573
 50
272.13313399999998
 51
357.90634899999998
  0
ARC
  5
114
  8
_________1
 62
     7
 10
45.217508999999993
 20
120.75515
 30
0.0
 40
0.5002310000000002
 50
179.99996999999999
 51
270.00002000000001
  0
LINE
  5
115
  8
_________1
 62
     7
 10
83.717699999999994
 20
120.255
 30
0.0
 11
45.217499999999987
 21
120.255
 31
0.0
  0
INSERT
  5
116
  8
_________1
 62
     7
  2
AIGNBL02010007
 10
0.0
 20
0.0
 30
0.0
  0
LINE
  5
117
  8
_________1
  6
AIGENLINE002
 62
     7
 10
172.352
 20
193.58199999999999
 30
0.0
 11
120.152
 21
193.58199999999999
 31
0.0
  0
ARC
  5
118
  8
_________1
 62
     7
 10
146.49094700000001
 20
193.581738
 30
0.0
 40
21.25009
 50
0.000242
 51
90.000212000000005
  0
ARC
  5
119
  8
_________1
 62
     7
 10
146.49095500000001
 20
193.58191099999999
 30
0.0
 40
21.249918000000001
 50
90.000232000000011
 51
180.00024199999999
  0
ARC
  5
11A
  8
_________1
 62
     7
 10
146.49103299999999
 20
193.58165199999999
 30
0.0
 40
21.249995999999999
 50
179.999506
 51
269.99955499999999
  0
ARC
  5
11B
  8
_________1
 62
     7
 10
146.490861
 20
193.58183199999999
 30
0.0
 40
21.250176
 50
270.00002000000001
 51
359.99999000000003
  0
LINE
  5
11C
  8
_________1
  6
AIGENLINE002
 62
     7
 10
146.49100000000001
 20
166.37899999999999
 30
0.0
 11
146.49100000000001
 21
219.75200000000001
 31
0.0
  0
LINE
  5
11D
  8
_________1
 62
     7
 10
163.869
 20
120.755
 30
0.0
 11
163.869
 21
128.255
 31
0.0
  0
LINE
  5
11E
  8
_________1
 62
     7
 10
125.16800000000001
 20
120.755
 30
0.0
 11
125.16800000000001
 21
128.255
 31
0.0
  0
ARC
  5
11F
  8
_________1
 62
     7
 10
163.34949900000001
 20
120.774131
 30
0.0
 40
0.519573
 50
272.13313399999998
 51
357.90634899999998
  0
ARC
  5
120
  8
_________1
 62
     7
 10
125.668576
 20
120.75515
 30
0.0
 40
0.5002310000000002
 50
179.99996999999999
 51
270.00002000000001
  0
LINE
  5
121
  8
_________1
 62
     7
 10
163.369
 20
120.255
 30
0.0
 11
125.669
 21
120.255
 31
0.0
  0
ARC
  5
122
  8
_________1
 62
     7
 10
165.649494
 20
135.73588599999999
 30
0.0
 40
0.51955
 50
2.1293950000000001
 51
87.870594999999994
  0
LINE
  5
123
  8
_________1
 62
     7
 10
165.66900000000001
 20
136.255
 30
0.0
 11
165.66800000000001
 21
136.255
 31
0.0
  0
ARC
  5
124
  8
_________1
 62
     7
 10
124.18786799999999
 20
135.73553699999999
 30
0.0
 40
0.519898
 50
92.126972999999978
 51
177.83352400000001
  0
LINE
  5
125
  8
_________1
 62
     7
 10
123.66800000000001
 20
128.255
 30
0.0
 11
123.66800000000001
 21
135.755
 31
0.0
  0
LINE
  5
126
  8
_________1
 62
     7
 10
166.16900000000001
 20
128.255
 30
0.0
 11
123.66800000000001
 21
128.255
 31
0.0
  0
LINE
  5
127
  8
_________1
 62
     7
 10
166.16900000000001
 20
135.755
 30
0.0
 11
166.16900000000001
 21
128.255
 31
0.0
  0
LINE
  5
128
  8
_________1
 62
     7
 10
124.169
 20
136.255
 30
0.0
 11
165.66900000000001
 21
136.255
 31
0.0
  0
INSERT
  5
129
  8
_________1
 62
     7
  2
AIGNBL02010008
 10
0.0
 20
0.0
 30
0.0
  0
LINE
  5
12A
  8
_________1
 62
     7
 10
84.217600000000004
 20
107.50700000000001
 30
0.0
 11
84.217600000000004
 21
119.65000000000001
 31
0.0
  0
LINE
  5
12B
  8
_________1
 62
     7
 10
44.717299999999987
 20
107.50700000000001
 30
0.0
 11
44.717299999999987
 21
119.65000000000001
 31
0.0
  0
LINE
  5
12C
  8
_________1
 62
     7
 10
67.967699999999994
 20
116.55500000000001
 30
0.0
 11
74.467600000000004
 21
120.255
 31
0.0
  0
LINE
  5
12D
  8
_________1
 62
     7
 10
60.96759999999999
 20
116.55500000000001
 30
0.0
 11
54.467300000000002
 21
120.255
 31
0.0
  0
LINE
  5
12E
  8
_________1
 62
     7
 10
84.217600000000004
 20
120.755
 30
0.0
 11
84.217600000000004
 21
128.255
 31
0.0
  0
LINE
  5
12F
  8
_________1
 62
     7
 10
44.717299999999987
 20
120.755
 30
0.0
 11
44.717299999999987
 21
128.255
 31
0.0
  0
INSERT
  5
130
  8
_________1
 62
     7
  2
AIGNBL02010009
 10
0.0
 20
0.0
 30
0.0
  0
LINE
  5
131
  8
_________1
 62
     7
 10
86.837299999999999
 20
128.255
 30
0.0
 11
93.084000000000003
 21
128.255
 31
0.0
  0
LINE
  5
132
  8
_________1
  6
AIGENLINE001
 62
     7
 10
69.467699999999994
 20
207.83199999999999
 30
0.0
 11
69.467699999999994
 21
209.71000000000001
 31
0.0
  0
ARC
  5
133
  8
_________1
  6
AIGENLINE001
 62
     7
 10
66.364968999999988
 20
209.61954900000001
 30
0.0
 40
3.1040519999999998
 50
1.678852999999999
 51
81.368971000000002
  0
LINE
  5
134
  8
_________1
  6
AIGENLINE001
 62
     7
 10
59.467500000000001
 20
207.83199999999999
 30
0.0
 11
59.467500000000001
 21
209.71000000000001
 31
0.0
  0
ARC
  5
135
  8
_________1
  6
AIGENLINE001
 62
     7
 10
62.569668999999998
 20
209.62000800000001
 30
0.0
 40
3.1034410000000001
 50
98.634423000000027
 51
178.32928699999999
  0
LINE
  5
136
  8
_________1
  6
AIGENLINE001
 62
     7
 10
61.467399999999998
 20
205.83199999999999
 30
0.0
 11
67.467500000000001
 21
205.83199999999999
 31
0.0
  0
ARC
  5
137
  8
_________1
  6
AIGENLINE001
 62
     7
 10
67.46754
 20
207.831953
 30
0.0
 40
2.0001489999999991
 50
269.99755299999998
 51
359.997523
  0
ARC
  5
138
  8
_________1
  6
AIGENLINE001
 62
     7
 10
61.467523999999997
 20
207.83178000000001
 30
0.0
 40
1.9999759999999991
 50
179.99750299999999
 51
269.99755199999998
  0
LINE
  5
139
  8
_________1
 62
     7
 10
157.16800000000001
 20
117.05500000000001
 30
0.0
 11
157.16800000000001
 21
120.255
 31
0.0
  0
LINE
  5
13A
  8
_________1
 62
     7
 10
152.66800000000001
 20
116.55500000000001
 30
0.0
 11
156.66800000000001
 21
116.55500000000001
 31
0.0
  0
ARC
  5
13B
  8
_________1
 62
     7
 10
156.649091
 20
117.07407499999999
 30
0.0
 40
0.519573
 50
272.13313399999998
 51
357.90634899999998
  0
INSERT
  5
13C
  8
_________1
 62
     7
  2
AIGNBL0201000A
 10
0.0
 20
0.0
 30
0.0
  0
LINE
  5
13D
  8
_________1
 62
     7
 10
151.322
 20
134.755
 30
0.0
 11
155.87200000000001
 21
134.755
 31
0.0
  0
INSERT
  5
13E
  8
_________1
 62
     7
  2
AIGNBL0201000B
 10
0.0
 20
0.0
 30
0.0
  0
LINE
  5
13F
  8
_________1
 62
     7
 10
166.16800000000001
 20
137.24199999999999
 30
0.0
 11
166.16800000000001
 21
144.553
 31
0.0
  0
LINE
  5
140
  8
_________1
 62
     7
 10
160.16900000000001
 20
138.40000000000001
 30
0.0
 11
160.16900000000001
 21
144.553
 31
0.0
  0
LINE
  5
141
  8
_________1
  6
AIGENLINE002
 62
     7
 10
160.16900000000001
 20
137.70500000000001
 30
0.0
 11
160.16900000000001
 21
132.28999999999999
 31
0.0
  0
LINE
  5
142
  8
_________1
  6
AIGENLINE001
 62
     7
 10
156.66800000000001
 20
134.755
 30
0.0
 11
163.91800000000001
 21
134.755
 31
0.0
  0
ARC
  5
143
  8
_________1
  6
AIGENLINE001
 62
     7
 10
156.687735
 20
134.235882
 30
0.0
 40
0.51955
 50
92.129384999999985
 51
177.87058500000001
  0
LINE
  5
144
  8
_________1
  6
AIGENLINE001
 62
     7
 10
164.41900000000001
 20
135.755
 30
0.0
 11
164.41900000000001
 21
135.255
 31
0.0
  0
ARC
  5
145
  8
_________1
  6
AIGENLINE001
 62
     7
 10
163.89903899999999
 20
135.27461299999999
 30
0.0
 40
0.519898
 50
272.12699300000003
 51
357.83354300000002
  0
ARC
  5
146
  8
_________1
  6
AIGENLINE001
 62
     7
 10
164.937757
 20
135.73588599999999
 30
0.0
 40
0.51955
 50
92.129384999999985
 51
177.87058500000001
  0
INSERT
  5
147
  8
_________1
 62
     7
  2
AIGNBL0201000C
 10
0.0
 20
0.0
 30
0.0
  0
LINE
  5
148
  8
_________1
 62
     7
 10
166.16800000000001
 20
127.38800000000001
 30
0.0
 11
166.16800000000001
 21
107.50700000000001
 31
0.0
  0
LINE
  5
149
  8
_________1
 62
     7
 10
149.16800000000001
 20
107.50700000000001
 30
0.0
 11
149.16800000000001
 21
114.13200000000001
 31
0.0
  0
LINE
  5
14A
  8
_________1
 62
     7
 10
152.66800000000001
 20
116.55500000000001
 30
0.0
 11
152.66800000000001
 21
120.255
 31
0.0
  0
LINE
  5
14B
  8
_________1
 62
     7
 10
145.96799999999999
 20
116.255
 30
0.0
 11
152.36799999999999
 21
116.255
 31
0.0
  0
ARC
  5
14C
  8
_________1
 62
     7
 10
152.356978
 20
116.56647700000001
 30
0.0
 40
0.3115429999999999
 50
272.070739
 51
357.863452
  0
LINE
  5
14D
  8
_________1
 62
     7
 10
145.66800000000001
 20
116.55500000000001
 30
0.0
 11
145.66800000000001
 21
120.255
 31
0.0
  0
ARC
  5
14E
  8
_________1
 62
     7
 10
145.97918300000001
 20
116.566163
 30
0.0
 40
0.311218
 50
182.0808429999999
 51
267.985006
  0
LINE
  5
14F
  8
_________1
  6
AIGENLINE002
 62
     7
 10
149.16800000000001
 20
114.852
 30
0.0
 11
149.16800000000001
 21
121.782
 31
0.0
  0
INSERT
  5
150
  8
_________1
 62
     7
  2
AIGNBL0201000D
 10
0.0
 20
0.0
 30
0.0
  0
LINE
  5
151
  8
_________1
 62
     7
 10
67.967699999999994
 20
116.55500000000001
 30
0.0
 11
67.967699999999994
 21
120.255
 31
0.0
  0
LINE
  5
152
  8
_________1
 62
     7
 10
61.267600000000002
 20
116.255
 30
0.0
 11
67.667599999999993
 21
116.255
 31
0.0
  0
ARC
  5
153
  8
_________1
 62
     7
 10
67.656357999999997
 20
116.56647700000001
 30
0.0
 40
0.3115429999999999
 50
272.070739
 51
357.863452
  0
LINE
  5
154
  8
_________1
 62
     7
 10
60.96759999999999
 20
116.55500000000001
 30
0.0
 11
60.96759999999999
 21
120.255
 31
0.0
  0
ARC
  5
155
  8
_________1
 62
     7
 10
61.278956000000008
 20
116.56655600000001
 30
0.0
 40
0.3116239999999999
 50
182.15042199999999
 51
267.91542700000002
  0
LINE
  5
156
  8
_________1
  6
AIGENLINE002
 62
     7
 10
75.967600000000004
 20
129.23099999999999
 30
0.0
 11
75.967600000000004
 21
134.20099999999999
 31
0.0
  0
ARC
  5
157
  8
_________1
  6
AIGENLINE001
 62
     7
 10
75.96759200000001
 20
131.755064
 30
0.0
 40
1.0001180000000001
 50
0.00001
 51
89.999980000000008
  0
ARC
  5
158
  8
_________1
  6
AIGENLINE001
 62
     7
 10
75.96759200000001
 20
131.755064
 30
0.0
 40
1.0001180000000001
 50
90.0
 51
179.99996999999999
  0
ARC
  5
159
  8
_________1
  6
AIGENLINE001
 62
     7
 10
75.96759200000001
 20
131.755064
 30
0.0
 40
1.000116999999999
 50
179.99996999999999
 51
270.00002000000001
  0
ARC
  5
15A
  8
_________1
  6
AIGENLINE001
 62
     7
 10
75.96759200000001
 20
131.755065
 30
0.0
 40
1.0001180000000001
 50
270.00002000000001
 51
359.99999000000003
  0
ARC
  5
15B
  8
_________1
  6
AIGENLINE001
 62
     7
 10
75.96759200000001
 20
131.755064
 30
0.0
 40
1.5000039999999999
 50
0.00001
 51
89.999980000000008
  0
ARC
  5
15C
  8
_________1
  6
AIGENLINE001
 62
     7
 10
75.96759200000001
 20
131.755064
 30
0.0
 40
1.5000039999999999
 50
90.0
 51
179.99996999999999
  0
ARC
  5
15D
  8
_________1
  6
AIGENLINE001
 62
     7
 10
75.96759200000001
 20
131.755064
 30
0.0
 40
1.5000039999999999
 50
179.99996999999999
 51
270.00002000000001
  0
ARC
  5
15E
  8
_________1
  6
AIGENLINE001
 62
     7
 10
75.96759200000001
 20
131.755065
 30
0.0
 40
1.5000039999999999
 50
270.00002000000001
 51
359.99999000000003
  0
LINE
  5
15F
  8
_________1
  6
AIGENLINE002
 62
     7
 10
73.412300000000002
 20
131.755
 30
0.0
 11
78.528300000000002
 21
131.755
 31
0.0
  0
LINE
  5
160
  8
_________1
  6
AIGENLINE001
 62
     7
 10
53.467500000000001
 20
134.755
 30
0.0
 11
75.467699999999994
 21
134.755
 31
0.0
  0
INSERT
  5
161
  8
_________1
 62
     7
  2
AIGNBL0201000E
 10
0.0
 20
0.0
 30
0.0
  0
LINE
  5
162
  8
_________1
 62
     7
 10
85.257699999999986
 20
120.255
 30
0.0
 11
99.567700000000002
 21
120.255
 31
0.0
  0
INSERT
  5
163
  8
_________1
 62
     7
  2
AIGNBL0201000F
 10
0.0
 20
0.0
 30
0.0
  0
LINE
  5
164
  8
_________1
 62
     7
 10
69.3416
 20
116.255
 30
0.0
 11
107.02200000000001
 21
116.255
 31
0.0
  0
LINE
  5
165
  8
_________1
 62
     7
 10
86.837299999999999
 20
136.255
 30
0.0
 11
107.02200000000001
 21
136.255
 31
0.0
  0
LINE
  5
166
  8
_________1
 62
     7
 10
85.717600000000004
 20
128.255
 30
0.0
 11
43.217300000000002
 21
128.255
 31
0.0
  0
LINE
  5
167
  8
_________1
  6
AIGENLINE002
 62
     7
 10
64.467399999999998
 20
114.212
 30
0.0
 11
64.467399999999998
 21
138.476
 31
0.0
  0
LINE
  5
168
  8
_________1
  6
AIGENLINE002
 62
     7
 10
61.235199999999999
 20
208.83199999999999
 30
0.0
 11
67.817800000000005
 21
208.83199999999999
 31
0.0
  0
LINE
  5
169
  8
_________1
 62
     7
 10
50.3232
 20
190.37200000000001
 30
0.0
 11
57.0077
 21
190.37200000000001
 31
0.0
  0
LINE
  5
16A
  8
_________1
 62
     7
 10
69.457999999999998
 20
202.822
 30
0.0
 11
57.0077
 21
190.37200000000001
 31
0.0
  0
LINE
  5
16B
  8
_________1
 62
     7
 10
56.259099999999997
 20
217.03999999999999
 30
0.0
 11
49.277900000000002
 21
217.03999999999999
 31
0.0
  0
LINE
  5
16C
  8
_________1
 62
     7
 10
56.259099999999997
 20
217.03999999999999
 30
0.0
 11
68.375200000000007
 21
204.92400000000001
 31
0.0
  0
LINE
  5
16D
  8
_________1
  6
AIGENLINE002
 62
     7
 10
64.467399999999998
 20
170.21199999999999
 30
0.0
 11
64.467399999999998
 21
217.15100000000001
 31
0.0
  0
LINE
  5
16E
  8
_________1
  6
AIGENLINE002
 62
     7
 10
58.0867
 20
197.83199999999999
 30
0.0
 11
71.252600000000001
 21
197.83199999999999
 31
0.0
  0
LINE
  5
16F
  8
_________1
 62
     7
 10
74.667400000000001
 20
204.63200000000001
 30
0.0
 11
77.267399999999995
 21
204.63200000000001
 31
0.0
  0
ARC
  5
170
  8
_________1
 62
     7
 10
77.259402000000009
 20
204.84007
 30
0.0
 40
0.208355
 50
272.20930700000002
 51
357.74137300000001
  0
ARC
  5
171
  8
_________1
 62
     7
 10
74.675219999999996
 20
204.839495
 30
0.0
 40
0.207773
 50
182.10643099999999
 51
267.84422699999999
  0
LINE
  5
172
  8
_________1
  6
AIGENLINE002
 62
     7
 10
75.967600000000004
 20
202.172
 30
0.0
 11
75.967600000000004
 21
207.13399999999999
 31
0.0
  0
LINE
  5
173
  8
_________1
 62
     7
 10
49.103400000000001
 20
204.83199999999999
 30
0.0
 11
79.831800000000001
 21
204.83199999999999
 31
0.0
  0
ARC
  5
174
  8
_________1
 62
     7
 10
79.825783999999999
 20
204.320795
 30
0.0
 40
0.511099
 50
35.118687000000001
 51
89.324735999999987
  0
ARC
  5
175
  8
_________1
 62
     7
 10
49.108936
 20
204.321112
 30
0.0
 40
0.510776
 50
90.617749000000003
 51
144.899306
  0
ARC
  5
176
  8
_________1
 62
     7
 10
64.467444999999998
 20
197.83172400000001
 30
0.0
 40
3.7500110000000002
 50
0.00001
 51
89.999980000000008
  0
ARC
  5
177
  8
_________1
 62
     7
 10
64.467445999999995
 20
197.83172400000001
 30
0.0
 40
3.7500110000000002
 50
90.0
 51
179.99996999999999
  0
ARC
  5
178
  8
_________1
 62
     7
 10
64.467444999999998
 20
197.83172400000001
 30
0.0
 40
3.750008999999999
 50
179.99996999999999
 51
270.00002000000001
  0
ARC
  5
179
  8
_________1
 62
     7
 10
64.467444999999998
 20
197.83172500000001
 30
0.0
 40
3.7500110000000002
 50
270.00002000000001
 51
359.99999000000003
  0
ARC
  5
17A
  8
_________1
 62
     7
 10
64.467444999999998
 20
197.83172400000001
 30
0.0
 40
2.2500059999999991
 50
0.00001
 51
89.999980000000008
  0
ARC
  5
17B
  8
_________1
 62
     7
 10
64.467445999999995
 20
197.83172400000001
 30
0.0
 40
2.2500059999999991
 50
90.0
 51
179.99996999999999
  0
ARC
  5
17C
  8
_________1
 62
     7
 10
64.467444999999998
 20
197.83172400000001
 30
0.0
 40
2.2500059999999991
 50
179.99996999999999
 51
270.00002000000001
  0
ARC
  5
17D
  8
_________1
 62
     7
 10
64.467444999999998
 20
197.83172500000001
 30
0.0
 40
2.2500059999999991
 50
270.00002000000001
 51
359.99999000000003
  0
ARC
  5
17E
  8
_________1
 62
     7
 10
64.467445999999995
 20
208.83181200000001
 30
0.0
 40
1.8500279999999989
 50
0.00001
 51
89.999980000000008
  0
ARC
  5
17F
  8
_________1
 62
     7
 10
64.467445999999995
 20
208.83181200000001
 30
0.0
 40
1.8500279999999989
 50
90.0
 51
179.99996999999999
  0
ARC
  5
180
  8
_________1
 62
     7
 10
64.467445999999995
 20
208.83181200000001
 30
0.0
 40
1.8500279999999989
 50
179.99996999999999
 51
270.00002000000001
  0
ARC
  5
181
  8
_________1
 62
     7
 10
64.467445999999995
 20
208.83181200000001
 30
0.0
 40
1.8500279999999989
 50
270.00002000000001
 51
359.99999000000003
  0
ARC
  5
182
  8
_________1
 62
     7
 10
64.467528000000001
 20
193.581738
 30
0.0
 40
21.25009
 50
0.000242
 51
90.000212000000005
  0
ARC
  5
183
  8
_________1
 62
     7
 10
64.467363000000006
 20
193.581738
 30
0.0
 40
21.25009
 50
89.999768000000017
 51
179.99973799999989
  0
ARC
  5
184
  8
_________1
 62
     7
 10
64.467442000000005
 20
193.58182400000001
 30
0.0
 40
21.250169
 50
179.99996999999999
 51
270.00002000000001
  0
ARC
  5
185
  8
_________1
 62
     7
 10
64.467442000000005
 20
193.58183199999999
 30
0.0
 40
21.250176
 50
270.00002000000001
 51
359.99999000000003
  0
LINE
  5
186
  8
_________2
 62
     7
 10
210.24000000000001
 20
148.93100000000001
 30
0.0
 11
188.49000000000001
 21
148.93100000000001
 31
0.0
  0
LINE
  5
187
  8
_________2
 62
     7
 10
105.239
 20
17.4285
 30
0.0
 11
105.239
 21
0.4482100000000001
 31
0.0
  0
LINE
  5
188
  8
_________2
 62
     7
 10
105.239
 20
297.44999999999999
 30
0.0
 11
105.239
 21
280.43000000000001
 31
0.0
  0
LINE
  5
189
  8
_________2
 62
     7
 10
21.988499999999998
 20
148.93100000000001
 30
0.0
 11
0.238058
 21
148.93100000000001
 31
0.0
  0
INSERT
  5
18A
  8
_________2
 62
     7
  2
AIGNBL03010002
 10
0.0
 20
0.0
 30
0.0
  0
TEXT
  5
18B
  8
_________2
 62
     7
 10
109.544
 20
23.199100000000001
 30
0.0
 40
3.0923400000000001
  1
図番
 41
0.5
  0
LINE
  5
18C
  8
_________2
 62
     7
 10
108.489
 20
27.4283
 30
0.0
 11
188.49000000000001
 21
27.4283
 31
0.0
  0
TEXT
  5
18D
  8
_________2
 62
     7
 10
109.544
 20
33.198900000000002
 30
0.0
 40
3.0923400000000001
  1
品番
 41
0.5
  0
TEXT
  5
18E
  8
_________2
 62
     7
 10
109.544
 20
53.337699999999998
 30
0.0
 40
3.0923400000000001
  1
名称
 41
0.5
  0
TEXT
  5
18F
  8
_________2
 62
     7
 10
96.784058333333334
 20
48.341500000000011
 30
0.0
 40
3.6545800000000002
  1
mm
 41
0.5
 72
     1
 11
98.306799999999996
 21
48.341500000000011
 31
0.0
  0
TEXT
  5
190
  8
_________2
 62
     7
 10
90.582099999999997
 20
53.337699999999998
 30
0.0
 40
3.0923400000000001
  1
単位
 41
0.5
  0
TEXT
  5
191
  8
_________2
 62
     7
 10
90.582099999999997
 20
40.930399999999999
 30
0.0
 40
3.0923400000000001
  1
尺度
 41
0.5
  0
TEXT
  5
192
  8
_________2
 62
     7
 10
95.030836166666674
 20
34.737499999999997
 30
0.0
 40
3.6545800000000002
  1
1 ： 10
 41
0.5
 72
     1
 11
98.898600000000002
 21
34.737499999999997
 31
0.0
  0
TEXT
  5
193
  8
_________2
 62
     7
 10
141.10956250000001
 20
30.627400000000002
 30
0.0
 40
3.9357000000000002
  1
FL505542
 41
0.5
 72
     1
 11
148.489
 21
30.627400000000002
 31
0.0
  0
TEXT
  5
194
  8
_________2
 62
     7
 10
141.10956250000001
 20
20.626999999999999
 30
0.0
 40
3.9357000000000002
  1
FL505542
 41
0.5
 72
     1
 11
148.489
 21
20.626999999999999
 31
0.0
  0
TEXT
  5
195
  8
_________2
 62
     7
 10
29.525700000000001
 20
22.226900000000001
 30
0.0
 40
3.9357000000000002
  1
オーバーフロー付、実容量6L
 41
0.5
  0
TEXT
  5
196
  8
_________2
 62
     7
 10
114.11799999999999
 20
45.7453
 30
0.0
 40
3.9357000000000002
  1
ツインセット カウンター式洗面器
 41
0.5
  0
TEXT
  5
197
  8
_________2
 62
     7
 10
44.303290666666669
 20
35.122599999999998
 30
0.0
 40
3.6545800000000002
  1
井伊
 41
0.5
 72
     1
 11
46.252400000000002
 21
35.122599999999998
 31
0.0
  0
TEXT
  5
198
  8
_________2
 62
     7
 10
25.790200333333338
 20
35.122599999999998
 30
0.0
 40
3.6545800000000002
  1
福田
 41
0.5
 72
     1
 11
27.6784
 21
35.122599999999998
 31
0.0
  0
TEXT
  5
199
  8
_________2
 62
     7
 10
72.724699999999999
 20
34.737499999999997
 30
0.0
 40
3.6545800000000002
  1
21.04.14
 41
0.5
  0
TEXT
  5
19A
  8
_________2
 62
     7
 10
71.531999999999996
 20
40.930399999999999
 30
0.0
 40
3.0923400000000001
  1
日付
 41
0.5
  0
TEXT
  5
19B
  8
_________2
 62
     7
 10
34.578299999999999
 20
40.930399999999999
 30
0.0
 40
3.0923400000000001
  1
検図
 41
0.5
  0
TEXT
  5
19C
  8
_________2
 62
     7
 10
22.960000000000001
 20
26.731000000000002
 30
0.0
 40
3.0923400000000001
  1
備考
 41
0.5
  0
TEXT
  5
19D
  8
_________2
 62
     7
 10
22.960000000000001
 20
40.930399999999999
 30
0.0
 40
3.0923400000000001
  1
製図
 41
0.5
  0
TEXT
  5
19E
  8
_________2
 62
     7
 10
28.727365333333339
 20
49.456400000000002
 30
0.0
 40
4.4979399999999989
  1
セラトレーディング株式会社
 41
0.5
 72
     1
 11
46.119399999999992
 21
49.456400000000002
 31
0.0
  0
LINE
  5
19F
  8
_________2
 62
     7
 10
188.49000000000001
 20
17.4285
 30
0.0
 11
21.988499999999998
 21
17.4285
 31
0.0
  0
LINE
  5
1A0
  8
_________2
 62
     7
 10
21.988499999999998
 20
17.4285
 30
0.0
 11
21.988499999999998
 21
280.43000000000001
 31
0.0
  0
LINE
  5
1A1
  8
_________2
 62
     7
 10
21.988499999999998
 20
280.43000000000001
 30
0.0
 11
188.49000000000001
 21
280.43000000000001
 31
0.0
  0
LINE
  5
1A2
  8
_________2
 62
     7
 10
188.49000000000001
 20
280.43000000000001
 30
0.0
 11
188.49000000000001
 21
17.4285
 31
0.0
  0
LINE
  5
1A3
  8
_________2
 62
     7
 10
70.488799999999998
 20
30.9285
 30
0.0
 11
70.488799999999998
 21
57.428400000000011
 31
0.0
  0
LINE
  5
1A4
  8
_________2
 62
     7
 10
89.488600000000005
 20
30.9285
 30
0.0
 11
89.488600000000005
 21
57.428400000000011
 31
0.0
  0
LINE
  5
1A5
  8
_________2
 62
     7
 10
108.489
 20
17.4285
 30
0.0
 11
108.489
 21
57.428400000000011
 31
0.0
  0
LINE
  5
1A6
  8
_________2
 62
     7
 10
33.488300000000002
 20
30.9285
 30
0.0
 11
33.488300000000002
 21
44.928800000000003
 31
0.0
  0
LINE
  5
1A7
  8
_________2
 62
     7
 10
21.988499999999998
 20
30.9285
 30
0.0
 11
108.489
 21
30.9285
 31
0.0
  0
LINE
  5
1A8
  8
_________2
 62
     7
 10
21.988499999999998
 20
44.928800000000003
 30
0.0
 11
108.489
 21
44.928800000000003
 31
0.0
  0
LINE
  5
1A9
  8
_________2
 62
     7
 10
108.489
 20
37.428100000000001
 30
0.0
 11
188.49000000000001
 21
37.428100000000001
 31
0.0
  0
LINE
  5
1AA
  8
_________2
 62
     7
 10
21.988499999999998
 20
57.428400000000011
 30
0.0
 11
188.49000000000001
 21
57.428400000000011
 31
0.0
  0
ENDSEC
  0
EOF
