  0
SECTION
  2
HEADER
  9
$ACADVER
  1
AC1009
  9
$INSBASE
 10
0.0
 20
0.0
 30
0.0
  9
$EXTMIN
 10
0.238058
 20
0.4482100000000001
 30
0.0
  9
$EXTMAX
 10
210.24000000000001
 20
297.44999999999987
 30
0.0
  9
$LIMMIN
 10
0.0
 20
0.0
  9
$LIMMAX
 10
12.0
 20
9.0
  9
$ORTHOMODE
 70
     0
  9
$REGENMODE
 70
     1
  9
$FILLMODE
 70
     1
  9
$QTEXTMODE
 70
     0
  9
$MIRRTEXT
 70
     1
  9
$DRAGMODE
 70
     2
  9
$LTSCALE
 40
1.0
  9
$OSMODE
 70
    37
  9
$ATTMODE
 70
     1
  9
$TEXTSIZE
 40
0.0
  9
$TRACEWID
 40
0.05
  9
$TEXTSTYLE
  7
STANDARD
  9
$CLAYER
  8
0
  9
$CELTYPE
  6
CONTINUOUS
  9
$CECOLOR
 62
   256
  9
$DIMSCALE
 40
1.0
  9
$DIMASZ
 40
0.18
  9
$DIMEXO
 40
0.0625
  9
$DIMDLI
 40
0.38
  9
$DIMRND
 40
0.0
  9
$DIMDLE
 40
0.0
  9
$DIMEXE
 40
0.18
  9
$DIMTP
 40
0.0
  9
$DIMTM
 40
0.0
  9
$DIMTXT
 40
0.18
  9
$DIMCEN
 40
0.09
  9
$DIMTSZ
 40
0.0
  9
$DIMTOL
 70
     0
  9
$DIMLIM
 70
     0
  9
$DIMTIH
 70
     1
  9
$DIMTOH
 70
     1
  9
$DIMSE1
 70
     0
  9
$DIMSE2
 70
     0
  9
$DIMTAD
 70
     0
  9
$DIMZIN
 70
     0
  9
$DIMBLK
  1

  9
$DIMASO
 70
     1
  9
$DIMSHO
 70
     1
  9
$DIMPOST
  1

  9
$DIMAPOST
  1

  9
$DIMALT
 70
     0
  9
$DIMALTD
 70
     2
  9
$DIMALTF
 40
25.399999999999999
  9
$DIMLFAC
 40
1.0
  9
$DIMTOFL
 70
     0
  9
$DIMTVP
 40
0.0
  9
$DIMTIX
 70
     0
  9
$DIMSOXD
 70
     0
  9
$DIMSAH
 70
     0
  9
$DIMBLK1
  1

  9
$DIMBLK2
  1

  9
$DIMSTYLE
  2
STANDARD
  9
$DIMCLRD
 70
     0
  9
$DIMCLRE
 70
     0
  9
$DIMCLRT
 70
     0
  9
$DIMTFAC
 40
1.0
  9
$DIMGAP
 40
0.09
  9
$LUNITS
 70
     2
  9
$LUPREC
 70
     4
  9
$SKETCHINC
 40
0.1
  9
$FILLETRAD
 40
0.0
  9
$AUNITS
 70
     0
  9
$AUPREC
 70
     0
  9
$MENU
  1
.
  9
$ELEVATION
 40
0.0
  9
$PELEVATION
 40
0.0
  9
$THICKNESS
 40
0.0
  9
$LIMCHECK
 70
     0
  9
$BLIPMODE
 70
     0
  9
$CHAMFERA
 40
0.0
  9
$CHAMFERB
 40
0.0
  9
$SKPOLY
 70
     0
  9
$TDCREATE
 40
2444972.375
  9
$TDUPDATE
 40
2454191.2869140622
  9
$TDINDWG
 40
0.0015879282
  9
$TDUSRTIMER
 40
0.0015879282
  9
$USRTIMER
 70
     1
  9
$ANGBASE
 50
0.0
  9
$ANGDIR
 70
     0
  9
$PDMODE
 70
     0
  9
$PDSIZE
 40
0.0
  9
$PLINEWID
 40
0.0
  9
$COORDS
 70
     1
  9
$SPLFRAME
 70
     0
  9
$SPLINETYPE
 70
     6
  9
$SPLINESEGS
 70
     8
  9
$ATTDIA
 70
     0
  9
$ATTREQ
 70
     1
  9
$HANDLING
 70
     1
  9
$HANDSEED
  5
238
  9
$SURFTAB1
 70
     6
  9
$SURFTAB2
 70
     6
  9
$SURFTYPE
 70
     6
  9
$SURFU
 70
     6
  9
$SURFV
 70
     6
  9
$UCSNAME
  2

  9
$UCSORG
 10
0.0
 20
0.0
 30
0.0
  9
$UCSXDIR
 10
1.0
 20
0.0
 30
0.0
  9
$UCSYDIR
 10
0.0
 20
1.0
 30
0.0
  9
$PUCSNAME
  2

  9
$PUCSORG
 10
0.0
 20
0.0
 30
0.0
  9
$PUCSXDIR
 10
1.0
 20
0.0
 30
0.0
  9
$PUCSYDIR
 10
0.0
 20
1.0
 30
0.0
  9
$USERI1
 70
     0
  9
$USERI2
 70
     0
  9
$USERI3
 70
     0
  9
$USERI4
 70
     0
  9
$USERI5
 70
     0
  9
$USERR1
 40
0.0
  9
$USERR2
 40
0.0
  9
$USERR3
 40
0.0
  9
$USERR4
 40
0.0
  9
$USERR5
 40
0.0
  9
$WORLDVIEW
 70
     1
  9
$SHADEDGE
 70
     3
  9
$SHADEDIF
 70
    70
  9
$TILEMODE
 70
     1
  9
$MAXACTVP
 70
    48
  9
$PLIMCHECK
 70
     0
  9
$PEXTMIN
 10
1.0000000000000000E+020
 20
1.0000000000000000E+020
 30
1.0000000000000000E+020
  9
$PEXTMAX
 10
-1.0000000000000000E+020
 20
-1.0000000000000000E+020
 30
-1.0000000000000000E+020
  9
$PLIMMIN
 10
0.0
 20
0.0
  9
$PLIMMAX
 10
12.0
 20
9.0
  9
$UNITMODE
 70
     0
  9
$VISRETAIN
 70
     1
  9
$PLINEGEN
 70
     0
  9
$PSLTSCALE
 70
     1
  0
ENDSEC
  0
SECTION
  2
TABLES
  0
TABLE
  2
VPORT
 70
     2
  0
VPORT
  2
*ACTIVE
 70
     0
 10
0.0
 20
0.0
 11
1.0
 21
1.0
 12
203.79705901997411
 22
152.97455443656139
 13
0.0
 23
0.0
 14
1.0
 24
1.0
 15
0.0
 25
0.0
 16
0.0
 26
0.0
 36
1.0
 17
0.0
 27
0.0
 37
0.0
 40
308.19684187060398
 41
2.1842105263157889
 42
50.0
 43
0.0
 44
0.0
 50
0.0
 51
0.0
 71
     0
 72
   100
 73
     1
 74
     1
 75
     0
 76
     0
 77
     0
 78
     0
  0
ENDTAB
  0
TABLE
  2
LTYPE
 70
     4
  0
LTYPE
  2
CONTINUOUS
 70
     0
  3
Solid line
 72
    65
 73
     0
 40
0.0
  0
LTYPE
  2
AIGENLINE001
 70
     0
  3
generate AI->DXF Converter
 72
    65
 73
     4
 40
5.8561449999999988
 49
3.5278
 49
-0.776115
 49
0.776115
 49
-0.776115
  0
LTYPE
  2
AIGENLINE002
 70
     0
  3
generate AI->DXF Converter
 72
    65
 73
     6
 40
7.4083750000000004
 49
3.5278
 49
-0.776115
 49
0.776115
 49
-0.776115
 49
0.776115
 49
-0.776115
  0
LTYPE
  2
AIGENLINE003
 70
     0
  3
generate AI->DXF Converter
 72
    65
 73
     2
 40
1.5522299999999991
 49
0.776115
 49
-0.776115
  0
ENDTAB
  0
TABLE
  2
LAYER
 70
     2
  0
LAYER
  2
0
 70
     0
 62
     7
  6
CONTINUOUS
  0
LAYER
  2
_________2
 70
     0
 62
     7
  6
CONTINUOUS
  0
ENDTAB
  0
TABLE
  2
STYLE
 70
     1
  0
STYLE
  2
STANDARD
 70
     0
 40
0.0
 41
0.0
 50
0.0
 71
     0
 42
0.0
  3
TXT
  4
EXTFONT.SHX
  0
ENDTAB
  0
TABLE
  2
VIEW
 70
     0
  0
ENDTAB
  0
TABLE
  2
UCS
 70
     0
  0
ENDTAB
  0
TABLE
  2
APPID
 70
     1
  0
APPID
  2
ACAD
 70
     0
  0
ENDTAB
  0
TABLE
  2
DIMSTYLE
 70
     1
  0
DIMSTYLE
  2
STANDARD
 70
     0
  3

  4

  5

  6

  7

 40
1.0
 41
0.18
 42
0.0625
 43
0.38
 44
0.18
 45
0.0
 46
0.0
 47
0.0
 48
0.0
140
0.18
141
0.09
142
0.0
143
25.399999999999999
144
1.0
145
0.0
146
1.0
147
0.09
 71
     0
 72
     0
 73
     1
 74
     1
 75
     0
 76
     0
 77
     0
 78
     0
170
     0
171
     2
172
     0
173
     0
174
     0
175
     0
176
     0
177
     0
178
     0
  0
ENDTAB
  0
ENDSEC
  0
SECTION
  2
BLOCKS
  0
BLOCK
  8
0
  2
$MODEL_SPACE
 70
     0
 10
0.0
 20
0.0
 30
0.0
  3
$MODEL_SPACE
  1

  0
ENDBLK
  5
1A
  8
0
  0
BLOCK
 67
     1
  8
0
  2
$PAPER_SPACE
 70
     0
 10
0.0
 20
0.0
 30
0.0
  3
$PAPER_SPACE
  1

  0
ENDBLK
  5
17
 67
     1
  8
0
  0
ENDSEC
  0
SECTION
  2
ENTITIES
  0
LINE
  5
24
  8
0
 62
     7
 10
139.11899999999989
 20
195.53700000000001
 30
0.0
 11
163.46100000000001
 21
195.53700000000001
 31
0.0
  0
TEXT
  5
25
  8
0
 62
     7
 10
130.0439999999999
 20
241.95237249999991
 30
0.0
 40
3.0923400000000001
  1
30
 50
90.0
 41
0.5
 72
     1
 11
130.0439999999999
 21
243.11199999999991
 31
0.0
  0
TEXT
  5
26
  8
0
 62
     7
 10
130.0439999999999
 20
225.15313499999999
 30
0.0
 40
3.0923400000000001
  1
165
 50
90.0
 41
0.5
 72
     1
 11
130.0439999999999
 21
226.95699999999991
 31
0.0
  0
TEXT
  5
27
  8
0
 62
     7
 10
140.466115
 20
190.52299999999991
 30
0.0
 40
3.0923400000000001
  1
※カウンターを設ける場合
 41
0.5
 72
     1
 11
151.547
 21
190.52299999999991
 31
0.0
  0
TEXT
  5
28
  8
0
 62
     7
 10
143.30076
 20
197.053
 30
0.0
 40
3.0923400000000001
  1
カウンター切込寸法
 41
0.5
 72
     1
 11
151.547
 21
197.053
 31
0.0
  0
TEXT
  5
29
  8
0
 62
     7
 10
165.80068899999989
 20
242.43199999999999
 30
0.0
 40
3.0923400000000001
  1
洗面器後端（壁面）
 41
0.5
 72
     1
 11
173.4799999999999
 21
242.43199999999999
 31
0.0
  0
TEXT
  5
2A
  8
0
 62
     7
 10
149.48128749999989
 20
245.72499999999999
 30
0.0
 40
3.0923400000000001
  1
250
 41
0.5
 72
     1
 11
151.4139999999999
 21
245.72499999999999
 31
0.0
  0
TEXT
  5
2B
  8
0
 62
     7
 10
154.3647174693829
 20
214.3613113275602
 30
0.0
 40
3.0923400000000001
  1
R125
 50
2.06128
 41
0.5
 72
     1
 11
156.93999999999991
 21
214.45400000000001
 31
0.0
  0
TEXT
  5
2C
  8
0
 62
     7
 10
142.58228749999989
 20
227.84999999999999
 30
0.0
 40
3.0923400000000001
  1
R20
 41
0.5
 72
     1
 11
144.5149999999999
 21
227.84999999999999
 31
0.0
  0
TEXT
  5
2D
  8
0
 62
     7
 10
60.76914
 20
233.11799999999991
 30
0.0
 40
3.0923400000000001
  1
%%c37
 41
0.5
 72
     1
 11
62.8307
 21
233.11799999999991
 31
0.0
  0
TEXT
  5
2E
  8
0
 62
     7
 10
60.024140000000003
 20
216.31399999999999
 30
0.0
 40
3.0923400000000001
  1
%%c45
 41
0.5
 72
     1
 11
62.085700000000003
 21
216.31399999999999
 31
0.0
  0
TEXT
  5
2F
  8
0
 62
     7
 10
149.00328749999991
 20
84.149399999999986
 30
0.0
 40
3.0923400000000001
  1
340
 41
0.5
 72
     1
 11
150.93600000000001
 21
84.149399999999986
 31
0.0
  0
TEXT
  5
30
  8
0
 62
     7
 10
152.31328749999989
 20
91.589500000000001
 30
0.0
 40
3.0923400000000001
  1
270
 41
0.5
 72
     1
 11
154.24600000000001
 21
91.589500000000001
 31
0.0
  0
TEXT
  5
31
  8
0
 62
     7
 10
161.38606749999991
 20
126.33499999999989
 30
0.0
 40
3.0923400000000001
  1
10
 41
0.5
 72
     1
 11
162.2879999999999
 21
126.33499999999989
 31
0.0
  0
TEXT
  5
32
  8
0
 62
     7
 10
160.64283
 20
132.971
 30
0.0
 40
3.0923400000000001
  1
100
 41
0.5
 72
     1
 11
162.18899999999999
 21
132.971
 31
0.0
  0
TEXT
  5
33
  8
0
 62
     7
 10
138.94928749999991
 20
140.04099999999991
 30
0.0
 40
3.0923400000000001
  1
540
 41
0.5
 72
     1
 11
140.88200000000001
 21
140.04099999999991
 31
0.0
  0
TEXT
  5
34
  8
0
 62
     7
 10
66.266687500000003
 20
90.988
 30
0.0
 40
3.0923400000000001
  1
370
 41
0.5
 72
     1
 11
68.199399999999983
 21
90.988
 31
0.0
  0
TEXT
  5
35
  8
0
 62
     7
 10
66.524382500000002
 20
124.47799999999989
 30
0.0
 40
3.0923400000000001
  1
180
 41
0.5
 72
     1
 11
68.199399999999983
 21
124.47799999999989
 31
0.0
  0
TEXT
  5
36
  8
0
 62
     7
 10
66.395534999999995
 20
133.49600000000001
 30
0.0
 40
3.0923400000000001
  1
600
 41
0.5
 72
     1
 11
68.199399999999983
 21
133.49600000000001
 31
0.0
  0
TEXT
  5
37
  8
0
 62
     7
 10
66.395534999999995
 20
163.8779999999999
 30
0.0
 40
3.0923400000000001
  1
600
 41
0.5
 72
     1
 11
68.199399999999983
 21
163.8779999999999
 31
0.0
  0
TEXT
  5
38
  8
0
 62
     7
 10
66.266687500000003
 20
174.429
 30
0.0
 40
3.0923400000000001
  1
560
 41
0.5
 72
     1
 11
68.199399999999983
 21
174.429
 31
0.0
  0
TEXT
  5
39
  8
0
 62
     7
 10
66.524382500000002
 20
248.25599999999989
 30
0.0
 40
3.0923400000000001
  1
180
 41
0.5
 72
     1
 11
68.199399999999983
 21
248.25599999999989
 31
0.0
  0
TEXT
  5
3A
  8
0
 62
     7
 10
66.266687500000003
 20
256.45299999999992
 30
0.0
 40
3.0923400000000001
  1
370
 41
0.5
 72
     1
 11
68.199399999999983
 21
256.45299999999992
 31
0.0
  0
TEXT
  5
3B
  8
0
 62
     7
 10
183.089
 20
106.55198249999999
 30
0.0
 40
3.0923400000000001
  1
170
 50
90.0
 41
0.5
 72
     1
 11
183.089
 21
108.227
 31
0.0
  0
TEXT
  5
3C
  8
0
 62
     7
 10
177.298
 20
111.18452499999999
 30
0.0
 40
3.0923400000000001
  1
85
 50
90.0
 41
0.5
 72
     1
 11
177.298
 21
112.473
 31
0.0
  0
TEXT
  5
3D
  8
0
 62
     7
 10
108.4319999999999
 20
106.90898249999999
 30
0.0
 40
3.0923400000000001
  1
170
 50
90.0
 41
0.5
 72
     1
 11
108.4319999999999
 21
108.584
 31
0.0
  0
TEXT
  5
3E
  8
0
 62
     7
 10
102.46299999999989
 20
106.87913499999991
 30
0.0
 40
3.0923400000000001
  1
155
 50
90.0
 41
0.5
 72
     1
 11
102.46299999999989
 21
108.68299999999989
 31
0.0
  0
TEXT
  5
3F
  8
0
 62
     7
 10
171.9859999999999
 20
119.20137250000001
 30
0.0
 40
3.0923400000000001
  1
30
 50
90.0
 41
0.5
 72
     1
 11
171.9859999999999
 21
120.361
 31
0.0
  0
TEXT
  5
40
  8
0
 62
     7
 10
120.68899999999999
 20
209.37428750000001
 30
0.0
 40
3.0923400000000001
  1
540
 50
90.0
 41
0.5
 72
     1
 11
120.68899999999999
 21
211.30699999999999
 31
0.0
  0
TEXT
  5
41
  8
0
 62
     7
 10
113.244
 20
219.21528749999999
 30
0.0
 40
3.0923400000000001
  1
340
 50
90.0
 41
0.5
 72
     1
 11
113.244
 21
221.14799999999991
 31
0.0
  0
TEXT
  5
42
  8
0
 62
     7
 10
105.19
 20
178.53137249999989
 30
0.0
 40
3.0923400000000001
  1
20
 50
90.0
 41
0.5
 72
     1
 11
105.19
 21
179.69099999999989
 31
0.0
  0
TEXT
  5
43
  8
0
 62
     7
 10
105.19
 20
198.66343999999989
 30
0.0
 40
3.0923400000000001
  1
335
 50
90.0
 41
0.5
 72
     1
 11
105.19
 21
200.72499999999991
 31
0.0
  0
TEXT
  5
44
  8
0
 62
     7
 10
105.19
 20
222.72052500000001
 30
0.0
 40
3.0923400000000001
  1
85
 50
90.0
 41
0.5
 72
     1
 11
105.19
 21
224.00899999999999
 31
0.0
  0
TEXT
  5
45
  8
0
 62
     7
 10
105.19
 20
231.55737250000001
 30
0.0
 40
3.0923400000000001
  1
90
 50
90.0
 41
0.5
 72
     1
 11
105.19
 21
232.71700000000001
 31
0.0
  0
TEXT
  5
46
  8
0
 62
     7
 10
105.19
 20
240.60906750000001
 30
0.0
 40
3.0923400000000001
  1
10
 50
90.0
 41
0.5
 72
     1
 11
105.19
 21
241.51099999999991
 31
0.0
  0
TEXT
  5
47
  8
0
 62
     7
 10
32.813200000000002
 20
111.123525
 30
0.0
 40
3.0923400000000001
  1
85
 50
90.0
 41
0.5
 72
     1
 11
32.813200000000002
 21
112.41200000000001
 31
0.0
  0
TEXT
  5
48
  8
0
 62
     7
 10
27.3291
 20
106.7879825
 30
0.0
 40
3.0923400000000001
  1
160
 50
90.0
 41
0.5
 72
     1
 11
27.3291
 21
108.46299999999989
 31
0.0
  0
ARC
  5
49
  8
0
 62
     7
 10
151.54683099999991
 20
218.79586800000001
 30
0.0
 40
12.500007
 50
270.00041499999992
 51
0.000385
  0
ARC
  5
4A
  8
0
 62
     7
 10
151.5470029999999
 20
218.79586399999999
 30
0.0
 40
12.500002999999991
 50
179.99957499999991
 51
269.99962499999992
  0
ARC
  5
4B
  8
0
 62
     7
 10
141.12384299999999
 20
233.21917999999991
 30
0.0
 40
2.0782549999999991
 50
92.131505000000004
 51
177.88820499999991
  0
LINE
  5
4C
  8
0
 62
     7
 10
139.047
 20
233.29599999999991
 30
0.0
 11
139.047
 21
218.79599999999991
 31
0.0
  0
ARC
  5
4D
  8
0
 62
     7
 10
161.97033799999991
 20
233.21917899999991
 30
0.0
 40
2.0782560000000001
 50
2.111791999999999
 51
87.868456999999978
  0
LINE
  5
4E
  8
0
 62
     7
 10
171.73599999999999
 20
241.17500000000001
 30
0.0
 11
173.398
 21
238.29599999999999
 31
0.0
  0
LINE
  5
4F
  8
0
 62
     7
 10
173.398
 20
238.29599999999999
 30
0.0
 11
175.06
 21
241.17500000000001
 31
0.0
  0
LINE
  5
50
  8
0
 62
     7
 10
175.06
 20
241.17500000000001
 30
0.0
 11
171.73599999999999
 21
241.17500000000001
 31
0.0
  0
LINE
  5
51
  8
0
  6
AIGENLINE001
 62
     7
 10
151.547
 20
204.214
 30
0.0
 11
151.547
 21
237.203
 31
0.0
  0
LINE
  5
52
  8
0
 62
     7
 10
129.8779999999999
 20
235.29599999999991
 30
0.0
 11
138.22799999999989
 21
235.29599999999991
 31
0.0
  0
LINE
  5
53
  8
0
 62
     7
 10
141.04699999999991
 20
235.29599999999991
 30
0.0
 11
162.048
 21
235.29599999999991
 31
0.0
  0
LINE
  5
54
  8
0
  6
AIGENLINE002
 62
     7
 10
125.818
 20
238.29599999999999
 30
0.0
 11
175.44399999999999
 21
238.29599999999999
 31
0.0
  0
LINE
  5
55
  8
0
 62
     7
 10
130.352
 20
240.50700000000001
 30
0.0
 11
130.9439999999999
 21
238.29599999999999
 31
0.0
  0
LINE
  5
56
  8
0
 62
     7
 10
130.9439999999999
 20
238.29599999999999
 30
0.0
 11
131.536
 21
240.50700000000001
 31
0.0
  0
LINE
  5
57
  8
0
 62
     7
 10
131.536
 20
240.50700000000001
 30
0.0
 11
130.352
 21
240.50700000000001
 31
0.0
  0
LINE
  5
58
  8
0
 62
     7
 10
141.49000000000001
 20
233.428
 30
0.0
 11
139.5079999999999
 21
234.57299999999989
 31
0.0
  0
LINE
  5
59
  8
0
 62
     7
 10
139.5079999999999
 20
234.57299999999989
 30
0.0
 11
140.65199999999999
 21
232.59099999999989
 31
0.0
  0
LINE
  5
5A
  8
0
 62
     7
 10
140.65199999999999
 20
232.59099999999989
 30
0.0
 11
141.49000000000001
 21
233.428
 31
0.0
  0
LINE
  5
5B
  8
0
 62
     7
 10
139.5079999999999
 20
234.57299999999989
 30
0.0
 11
142.84399999999991
 21
231.23699999999999
 31
0.0
  0
LINE
  5
5C
  8
0
 62
     7
 10
130.352
 20
221.00599999999989
 30
0.0
 11
130.9439999999999
 21
218.79599999999991
 31
0.0
  0
LINE
  5
5D
  8
0
 62
     7
 10
130.9439999999999
 20
218.79599999999991
 30
0.0
 11
131.536
 21
221.00599999999989
 31
0.0
  0
LINE
  5
5E
  8
0
 62
     7
 10
131.536
 20
221.00599999999989
 30
0.0
 11
130.352
 21
221.00599999999989
 31
0.0
  0
LINE
  5
5F
  8
0
 62
     7
 10
131.52099999999999
 20
233.08500000000001
 30
0.0
 11
130.93000000000001
 21
235.29599999999991
 31
0.0
  0
LINE
  5
60
  8
0
 62
     7
 10
130.93000000000001
 20
235.29599999999991
 30
0.0
 11
130.33699999999999
 21
233.08500000000001
 31
0.0
  0
LINE
  5
61
  8
0
 62
     7
 10
130.33699999999999
 20
233.08500000000001
 30
0.0
 11
131.52099999999999
 21
233.08500000000001
 31
0.0
  0
LINE
  5
62
  8
0
 62
     7
 10
130.93700000000001
 20
218.79599999999991
 30
0.0
 11
130.93700000000001
 21
245.155
 31
0.0
  0
LINE
  5
63
  8
0
 62
     7
 10
141.25700000000001
 20
245.3659999999999
 30
0.0
 11
139.047
 21
244.774
 31
0.0
  0
LINE
  5
64
  8
0
 62
     7
 10
139.047
 20
244.774
 30
0.0
 11
141.25700000000001
 21
244.1809999999999
 31
0.0
  0
LINE
  5
65
  8
0
 62
     7
 10
141.25700000000001
 20
244.1809999999999
 30
0.0
 11
141.25700000000001
 21
245.3659999999999
 31
0.0
  0
LINE
  5
66
  8
0
 62
     7
 10
161.83699999999999
 20
244.19599999999991
 30
0.0
 11
164.047
 21
244.78800000000001
 31
0.0
  0
LINE
  5
67
  8
0
 62
     7
 10
164.047
 20
244.78800000000001
 30
0.0
 11
161.83699999999999
 21
245.38
 31
0.0
  0
LINE
  5
68
  8
0
 62
     7
 10
161.83699999999999
 20
245.38
 30
0.0
 11
161.83699999999999
 21
244.19599999999991
 31
0.0
  0
LINE
  5
69
  8
0
 62
     7
 10
158.40399999999991
 20
211.10099999999991
 30
0.0
 11
160.386
 21
209.95699999999991
 31
0.0
  0
LINE
  5
6A
  8
0
 62
     7
 10
160.386
 20
209.95699999999991
 30
0.0
 11
159.24199999999999
 21
211.93899999999999
 31
0.0
  0
LINE
  5
6B
  8
0
 62
     7
 10
159.24199999999999
 20
211.93899999999999
 30
0.0
 11
158.40399999999991
 21
211.10099999999991
 31
0.0
  0
LINE
  5
6C
  8
0
 62
     7
 10
151.547
 20
218.79599999999991
 30
0.0
 11
160.386
 21
209.95699999999991
 31
0.0
  0
LINE
  5
6D
  8
0
 62
     7
 10
139.047
 20
244.78100000000001
 30
0.0
 11
164.047
 21
244.78100000000001
 31
0.0
  0
LINE
  5
6E
  8
0
  6
AIGENLINE001
 62
     7
 10
137.2889999999999
 20
218.79599999999991
 30
0.0
 11
165.87700000000001
 21
218.79599999999991
 31
0.0
  0
LINE
  5
6F
  8
0
 62
     7
 10
130.11399999999989
 20
218.79599999999991
 30
0.0
 11
136.42099999999991
 21
218.79599999999991
 31
0.0
  0
LINE
  5
70
  8
0
 62
     7
 10
164.047
 20
245.7109999999999
 30
0.0
 11
164.047
 21
235.15999999999991
 31
0.0
  0
LINE
  5
71
  8
0
 62
     7
 10
139.047
 20
245.7109999999999
 30
0.0
 11
139.047
 21
235.45400000000001
 31
0.0
  0
LINE
  5
72
  8
0
 62
     7
 10
164.047
 20
233.29599999999991
 30
0.0
 11
164.047
 21
218.79599999999991
 31
0.0
  0
ARC
  5
73
  8
0
 62
     7
 10
144.94043500000001
 20
121.7257959999999
 30
0.0
 40
18.553851000000002
 50
299.59692000000001
 51
313.20546799999988
  0
ARC
  5
74
  8
0
 62
     7
 10
141.63662099999991
 20
127.18894899999989
 30
0.0
 40
24.936529
 50
288.163319
 51
299.99789500000003
  0
ARC
  5
75
  8
0
 62
     7
 10
137.987011
 20
137.26495399999999
 30
0.0
 40
35.64964299999999
 50
280.92222299999992
 51
288.68855400000001
  0
ARC
  5
76
  8
0
 62
     7
 10
134.9165429999999
 20
151.81450599999991
 30
0.0
 40
50.518073999999999
 50
274.992255
 51
281.2149
  0
ARC
  5
77
  8
0
 62
     7
 10
132.44009700000001
 20
176.78613200000001
 30
0.0
 40
75.611043999999993
 50
269.604131
 51
275.21503799999988
  0
ARC
  5
78
  8
0
 62
     7
 10
129.38945100000001
 20
118.68320900000001
 30
0.0
 40
15.946825
 50
189.34080299999991
 51
222.66315399999999
  0
ARC
  5
79
  8
0
 62
     7
 10
132.15915699999999
 20
120.984258
 30
0.0
 40
19.543794999999999
 50
222.12103999999991
 51
246.47649799999991
  0
ARC
  5
7A
  8
0
 62
     7
 10
133.40971999999991
 20
123.229224
 30
0.0
 40
22.102748999999989
 50
245.826831
 51
266.12931600000002
  0
ARC
  5
7B
  8
0
 62
     7
 10
85.149452999999994
 20
116.2177809999999
 30
0.0
 40
13.050179
 50
336.60610200000002
 51
359.93108000000001
  0
ARC
  5
7C
  8
0
 62
     7
 10
80.906982999999997
 20
117.8806899999999
 30
0.0
 40
17.604873999999992
 50
290.31482299999999
 51
337.12117499999999
  0
ARC
  5
7D
  8
0
 62
     7
 10
51.249285
 20
116.2177809999999
 30
0.0
 40
13.050179
 50
180.06893999999991
 51
203.3939179999999
  0
ARC
  5
7E
  8
0
 62
     7
 10
55.492077000000002
 20
117.881027
 30
0.0
 40
17.605301999999991
 50
202.879447
 51
249.68459399999989
  0
LINE
  5
7F
  8
0
  6
AIGENLINE003
 62
     7
 10
86.699299999999994
 20
222.79599999999991
 30
0.0
 11
86.699299999999994
 21
232.351
 31
0.0
  0
LINE
  5
80
  8
0
 62
     7
 10
86.699299999999994
 20
232.351
 30
0.0
 11
86.699299999999994
 21
237.79599999999991
 31
0.0
  0
ARC
  5
81
  8
0
 62
     7
 10
68.215435999999997
 20
-112.9951539999999
 30
0.0
 40
332.7908799999999
 50
87.853374000000017
 51
90.002756000000005
  0
ARC
  5
82
  8
0
 62
     7
 10
73.570417000000006
 20
38.752662000000001
 30
0.0
 40
180.94927799999999
 50
85.014278000000004
 51
87.748007999999984
  0
ARC
  5
83
  8
0
 62
     7
 10
68.183301999999998
 20
-112.9951539999999
 30
0.0
 40
332.7908799999999
 50
89.997224000000017
 51
92.146607000000003
  0
ARC
  5
84
  8
0
 62
     7
 10
62.828322
 20
38.752662000000001
 30
0.0
 40
180.94927799999999
 50
92.251972000000009
 51
94.985702000000003
  0
ARC
  5
85
  8
0
 62
     7
 10
68.218816000000004
 20
231.320021
 30
0.0
 40
45.024448
 50
269.97526299999993
 51
281.20360199999988
  0
ARC
  5
86
  8
0
 62
     7
 10
70.476534000000001
 20
218.06409600000001
 30
0.0
 40
31.584537999999998
 50
281.85826600000001
 51
293.84706899999992
  0
ARC
  5
87
  8
0
 62
     7
 10
73.471108000000001
 20
210.764129
 30
0.0
 40
23.698041
 50
294.36068299999988
 51
312.04366499999992
  0
ARC
  5
88
  8
0
 62
     7
 10
75.437873999999994
 20
208.170176
 30
0.0
 40
20.456413000000001
 50
312.818333
 51
343.407847
  0
ARC
  5
89
  8
0
 62
     7
 10
70.292581999999996
 20
209.920862
 30
0.0
 40
25.888224999999998
 50
342.94635599999992
 51
358.09488499999998
  0
ARC
  5
8A
  8
0
 62
     7
 10
63.180309999999999
 20
210.53751099999991
 30
0.0
 40
33.019250999999997
 50
357.43572
 51
0.015805
  0
ARC
  5
8B
  8
0
 62
     7
 10
68.216250000000002
 20
232.21950200000001
 30
0.0
 40
47.923990999999987
 50
269.97982799999988
 51
280.74542300000002
  0
ARC
  5
8C
  8
0
 62
     7
 10
70.374957999999992
 20
219.06601099999989
 30
0.0
 40
34.600248999999998
 50
281.29446100000001
 51
292.81705499999993
  0
ARC
  5
8D
  8
0
 62
     7
 10
73.548070999999993
 20
210.96932299999989
 30
0.0
 40
25.907536
 50
293.29255199999989
 51
310.67938900000001
  0
ARC
  5
8E
  8
0
 62
     7
 10
75.902289999999994
 20
207.75367099999991
 30
0.0
 40
21.936544999999999
 50
311.49087099999991
 51
342.80186800000001
  0
ARC
  5
8F
  8
0
 62
     7
 10
70.730283999999997
 20
209.57964899999999
 30
0.0
 40
27.418043000000001
 50
342.35238199999992
 51
355.03981399999998
  0
ARC
  5
90
  8
0
 62
     7
 10
63.394880000000008
 20
210.47990299999989
 30
0.0
 40
34.804806999999997
 50
354.60745400000002
 51
0.109828
  0
ARC
  5
91
  8
0
 62
     7
 10
68.169756000000007
 20
199.11670299999989
 30
0.0
 40
38.179195999999997
 50
68.133094
 51
89.955549000000005
  0
ARC
  5
92
  8
0
 62
     7
 10
71.202382999999998
 20
207.44468299999991
 30
0.0
 40
29.322300999999989
 50
51.697047999999981
 51
67.571631000000011
  0
ARC
  5
93
  8
0
 62
     7
 10
74.530476000000007
 20
212.21878399999991
 30
0.0
 40
23.515601999999991
 50
10.25543399999999
 51
50.850630999999993
  0
ARC
  5
94
  8
0
 62
     7
 10
67.992774999999995
 20
210.77129999999991
 30
0.0
 40
30.207682999999999
 50
359.57383799999991
 51
10.749362
  0
ARC
  5
95
  8
0
 62
     7
 10
88.620777999999987
 20
212.92699099999999
 30
0.0
 40
6.1276519999999994
 50
72.924893999999995
 51
83.671375999999995
  0
ARC
  5
96
  8
0
 62
     7
 10
87.995345
 20
210.9731109999999
 30
0.0
 40
8.1790850000000006
 50
6.988243999999999
 51
72.755673999999985
  0
ARC
  5
97
  8
0
 62
     7
 10
84.919661000000005
 20
210.57850400000001
 30
0.0
 40
11.279944
 50
359.83804199999997
 51
7.0769830000000011
  0
ARC
  5
98
  8
0
 62
     7
 10
68.179921999999991
 20
231.320021
 30
0.0
 40
45.024448
 50
258.79641800000002
 51
270.02475699999991
  0
ARC
  5
99
  8
0
 62
     7
 10
65.922204000000008
 20
218.06409600000001
 30
0.0
 40
31.584537999999998
 50
246.152951
 51
258.14175399999988
  0
ARC
  5
9A
  8
0
 62
     7
 10
62.927630000000001
 20
210.764129
 30
0.0
 40
23.698041
 50
227.95635499999989
 51
245.63933700000001
  0
ARC
  5
9B
  8
0
 62
     7
 10
60.960890999999997
 20
208.17020400000001
 30
0.0
 40
20.456451999999999
 50
196.59222199999999
 51
227.1816859999999
  0
ARC
  5
9C
  8
0
 62
     7
 10
66.109401000000005
 20
209.9213839999999
 30
0.0
 40
25.891484999999999
 50
181.90605099999991
 51
197.05265900000001
  0
ARC
  5
9D
  8
0
 62
     7
 10
73.217919999999992
 20
210.537499
 30
0.0
 40
33.018743000000001
 50
179.98415499999999
 51
182.5643189999999
  0
ARC
  5
9E
  8
0
 62
     7
 10
68.182488000000006
 20
232.21950200000001
 30
0.0
 40
47.923990999999987
 50
259.25459699999999
 51
270.02019200000001
  0
ARC
  5
9F
  8
0
 62
     7
 10
66.023780000000002
 20
219.06601099999989
 30
0.0
 40
34.600248999999998
 50
247.182965
 51
258.70555899999988
  0
ARC
  5
A0
  8
0
 62
     7
 10
62.850701000000001
 20
210.96939900000001
 30
0.0
 40
25.907619
 50
229.32067499999991
 51
246.70746600000001
  0
ARC
  5
A1
  8
0
 62
     7
 10
60.496419000000003
 20
207.7536429999999
 30
0.0
 40
21.936507999999989
 50
197.19810699999991
 51
228.50915000000001
  0
ARC
  5
A2
  8
0
 62
     7
 10
65.668453999999997
 20
209.57964899999999
 30
0.0
 40
27.418043000000001
 50
184.960205
 51
197.647637
  0
ARC
  5
A3
  8
0
 62
     7
 10
73.003607999999986
 20
210.47989199999989
 30
0.0
 40
34.804555999999991
 50
179.89013299999999
 51
185.39258499999991
  0
LINE
  5
A4
  8
0
 62
     7
 10
164.43199999999999
 20
124.889
 30
0.0
 11
166.643
 21
125.48099999999999
 31
0.0
  0
LINE
  5
A5
  8
0
 62
     7
 10
166.643
 20
125.48099999999999
 30
0.0
 11
164.43199999999999
 21
126.07299999999989
 31
0.0
  0
LINE
  5
A6
  8
0
 62
     7
 10
164.43199999999999
 20
126.07299999999989
 30
0.0
 11
164.43199999999999
 21
124.889
 31
0.0
  0
LINE
  5
A7
  8
0
 62
     7
 10
169.85400000000001
 20
126.059
 30
0.0
 11
167.643
 21
125.46599999999999
 31
0.0
  0
LINE
  5
A8
  8
0
 62
     7
 10
167.643
 20
125.46599999999999
 30
0.0
 11
169.85400000000001
 21
124.8739999999999
 31
0.0
  0
LINE
  5
A9
  8
0
 62
     7
 10
169.85400000000001
 20
124.8739999999999
 30
0.0
 11
169.85400000000001
 21
126.059
 31
0.0
  0
LINE
  5
AA
  8
0
 62
     7
 10
171.5029999999999
 20
125.4739999999999
 30
0.0
 11
160.47599999999991
 21
125.4739999999999
 31
0.0
  0
LINE
  5
AB
  8
0
 62
     7
 10
165.43199999999999
 20
131.22799999999989
 30
0.0
 11
167.643
 21
131.81999999999999
 31
0.0
  0
LINE
  5
AC
  8
0
 62
     7
 10
167.643
 20
131.81999999999999
 30
0.0
 11
165.43199999999999
 21
132.41200000000001
 31
0.0
  0
LINE
  5
AD
  8
0
 62
     7
 10
165.43199999999999
 20
132.41200000000001
 30
0.0
 11
165.43199999999999
 21
131.22799999999989
 31
0.0
  0
LINE
  5
AE
  8
0
 62
     7
 10
159.85299999999989
 20
132.39799999999991
 30
0.0
 11
157.643
 21
131.80600000000001
 31
0.0
  0
LINE
  5
AF
  8
0
 62
     7
 10
157.643
 20
131.80600000000001
 30
0.0
 11
159.85299999999989
 21
131.21299999999999
 31
0.0
  0
LINE
  5
B0
  8
0
 62
     7
 10
159.85299999999989
 20
131.21299999999999
 30
0.0
 11
159.85299999999989
 21
132.39799999999991
 31
0.0
  0
LINE
  5
B1
  8
0
 62
     7
 10
167.643
 20
131.8129999999999
 30
0.0
 11
157.643
 21
131.8129999999999
 31
0.0
  0
LINE
  5
B2
  8
0
 62
     7
 10
165.43199999999999
 20
138.41499999999991
 30
0.0
 11
167.643
 21
139.00700000000001
 31
0.0
  0
LINE
  5
B3
  8
0
 62
     7
 10
167.643
 20
139.00700000000001
 30
0.0
 11
165.43199999999999
 21
139.59999999999991
 31
0.0
  0
LINE
  5
B4
  8
0
 62
     7
 10
165.43199999999999
 20
139.59999999999991
 30
0.0
 11
165.43199999999999
 21
138.41499999999991
 31
0.0
  0
LINE
  5
B5
  8
0
 62
     7
 10
115.85299999999999
 20
139.58500000000001
 30
0.0
 11
113.642
 21
138.99299999999991
 31
0.0
  0
LINE
  5
B6
  8
0
 62
     7
 10
113.642
 20
138.99299999999991
 30
0.0
 11
115.85299999999999
 21
138.40100000000001
 31
0.0
  0
LINE
  5
B7
  8
0
 62
     7
 10
115.85299999999999
 20
138.40100000000001
 30
0.0
 11
115.85299999999999
 21
139.58500000000001
 31
0.0
  0
LINE
  5
B8
  8
0
 62
     7
 10
167.643
 20
139.0
 30
0.0
 11
113.642
 21
139.0
 31
0.0
  0
LINE
  5
B9
  8
0
 62
     7
 10
113.642
 20
117.4129999999999
 30
0.0
 11
113.642
 21
139.46700000000001
 31
0.0
  0
LINE
  5
BA
  8
0
 62
     7
 10
157.643
 20
119.3129999999999
 30
0.0
 11
157.643
 21
132.27899999999991
 31
0.0
  0
LINE
  5
BB
  8
0
 62
     7
 10
166.643
 20
117.6609999999999
 30
0.0
 11
166.643
 21
126.2769999999999
 31
0.0
  0
LINE
  5
BC
  8
0
 62
     7
 10
167.643
 20
114.702
 30
0.0
 11
167.643
 21
139.46700000000001
 31
0.0
  0
LINE
  5
BD
  8
0
  6
AIGENLINE001
 62
     7
 10
157.643
 20
114.35299999999989
 30
0.0
 11
157.643
 21
118.78100000000001
 31
0.0
  0
LINE
  5
BE
  8
0
 62
     7
 10
177.74700000000001
 20
110.413
 30
0.0
 11
178.34
 21
108.202
 31
0.0
  0
LINE
  5
BF
  8
0
 62
     7
 10
178.34
 20
108.202
 30
0.0
 11
178.93199999999999
 21
110.413
 31
0.0
  0
LINE
  5
C0
  8
0
 62
     7
 10
178.93199999999999
 20
110.413
 30
0.0
 11
177.74700000000001
 21
110.413
 31
0.0
  0
LINE
  5
C1
  8
0
 62
     7
 10
178.917
 20
114.491
 30
0.0
 11
178.3249999999999
 21
116.702
 31
0.0
  0
LINE
  5
C2
  8
0
 62
     7
 10
178.3249999999999
 20
116.702
 30
0.0
 11
177.733
 21
114.491
 31
0.0
  0
LINE
  5
C3
  8
0
 62
     7
 10
177.733
 20
114.491
 30
0.0
 11
178.917
 21
114.491
 31
0.0
  0
LINE
  5
C4
  8
0
 62
     7
 10
178.33199999999991
 20
108.202
 30
0.0
 11
178.33199999999991
 21
116.702
 31
0.0
  0
LINE
  5
C5
  8
0
 62
     7
 10
178.9009999999999
 20
108.202
 30
0.0
 11
170.03399999999999
 21
108.202
 31
0.0
  0
LINE
  5
C6
  8
0
 62
     7
 10
172.35599999999991
 20
118.913
 30
0.0
 11
172.94900000000001
 21
116.702
 31
0.0
  0
LINE
  5
C7
  8
0
 62
     7
 10
172.94900000000001
 20
116.702
 30
0.0
 11
173.54099999999991
 21
118.913
 31
0.0
  0
LINE
  5
C8
  8
0
 62
     7
 10
173.54099999999991
 20
118.913
 30
0.0
 11
172.35599999999991
 21
118.913
 31
0.0
  0
LINE
  5
C9
  8
0
 62
     7
 10
173.5259999999999
 20
111.491
 30
0.0
 11
172.934
 21
113.702
 31
0.0
  0
LINE
  5
CA
  8
0
 62
     7
 10
172.934
 20
113.702
 30
0.0
 11
172.34200000000001
 21
111.491
 31
0.0
  0
LINE
  5
CB
  8
0
 62
     7
 10
172.34200000000001
 20
111.491
 30
0.0
 11
173.5259999999999
 21
111.491
 31
0.0
  0
LINE
  5
CC
  8
0
 62
     7
 10
172.94099999999989
 20
110.233
 30
0.0
 11
172.94099999999989
 21
122.1179999999999
 31
0.0
  0
LINE
  5
CD
  8
0
 62
     7
 10
173.5929999999999
 20
113.702
 30
0.0
 11
168.22399999999999
 21
113.702
 31
0.0
  0
LINE
  5
CE
  8
0
 62
     7
 10
183.261
 20
101.913
 30
0.0
 11
183.85299999999989
 21
99.702000000000012
 31
0.0
  0
LINE
  5
CF
  8
0
 62
     7
 10
183.85299999999989
 20
99.702000000000012
 30
0.0
 11
184.44499999999991
 21
101.913
 31
0.0
  0
LINE
  5
D0
  8
0
 62
     7
 10
184.44499999999991
 20
101.913
 30
0.0
 11
183.261
 21
101.913
 31
0.0
  0
LINE
  5
D1
  8
0
 62
     7
 10
184.4309999999999
 20
114.491
 30
0.0
 11
183.839
 21
116.702
 31
0.0
  0
LINE
  5
D2
  8
0
 62
     7
 10
183.839
 20
116.702
 30
0.0
 11
183.2459999999999
 21
114.491
 31
0.0
  0
LINE
  5
D3
  8
0
 62
     7
 10
183.2459999999999
 20
114.491
 30
0.0
 11
184.4309999999999
 21
114.491
 31
0.0
  0
LINE
  5
D4
  8
0
 62
     7
 10
183.84599999999989
 20
99.702000000000012
 30
0.0
 11
183.84599999999989
 21
116.702
 31
0.0
  0
LINE
  5
D5
  8
0
 62
     7
 10
184.70699999999999
 20
99.702000000000012
 30
0.0
 11
168.45699999999991
 21
99.702000000000012
 31
0.0
  0
LINE
  5
D6
  8
0
 62
     7
 10
184.70699999999999
 20
116.702
 30
0.0
 11
167.423
 21
116.702
 31
0.0
  0
LINE
  5
D7
  8
0
  6
AIGENLINE001
 62
     7
 10
169.595
 20
108.202
 30
0.0
 11
165.60599999999999
 21
108.202
 31
0.0
  0
LINE
  5
D8
  8
0
 62
     7
 10
165.43199999999999
 20
89.949600000000004
 30
0.0
 11
167.643
 21
90.541799999999995
 31
0.0
  0
LINE
  5
D9
  8
0
 62
     7
 10
167.643
 20
90.541799999999995
 30
0.0
 11
165.43199999999999
 21
91.134
 31
0.0
  0
LINE
  5
DA
  8
0
 62
     7
 10
165.43199999999999
 20
91.134
 30
0.0
 11
165.43199999999999
 21
89.949600000000004
 31
0.0
  0
LINE
  5
DB
  8
0
 62
     7
 10
142.8539999999999
 20
91.119600000000005
 30
0.0
 11
140.643
 21
90.527299999999997
 31
0.0
  0
LINE
  5
DC
  8
0
 62
     7
 10
140.643
 20
90.527299999999997
 30
0.0
 11
142.8539999999999
 21
89.935100000000006
 31
0.0
  0
LINE
  5
DD
  8
0
 62
     7
 10
142.8539999999999
 20
89.935100000000006
 30
0.0
 11
142.8539999999999
 21
91.119600000000005
 31
0.0
  0
LINE
  5
DE
  8
0
 62
     7
 10
167.643
 20
90.534599999999983
 30
0.0
 11
140.643
 21
90.534599999999983
 31
0.0
  0
LINE
  5
DF
  8
0
 62
     7
 10
140.643
 20
97.041399999999996
 30
0.0
 11
140.643
 21
89.921000000000006
 31
0.0
  0
LINE
  5
E0
  8
0
 62
     7
 10
165.43199999999999
 20
82.844399999999993
 30
0.0
 11
167.643
 21
83.436599999999984
 31
0.0
  0
LINE
  5
E1
  8
0
 62
     7
 10
167.643
 20
83.436599999999984
 30
0.0
 11
165.43199999999999
 21
84.028800000000004
 31
0.0
  0
LINE
  5
E2
  8
0
 62
     7
 10
165.43199999999999
 20
84.028800000000004
 30
0.0
 11
165.43199999999999
 21
82.844399999999993
 31
0.0
  0
LINE
  5
E3
  8
0
 62
     7
 10
135.85299999999989
 20
84.014399999999995
 30
0.0
 11
133.643
 21
83.422099999999986
 31
0.0
  0
LINE
  5
E4
  8
0
 62
     7
 10
133.643
 20
83.422099999999986
 30
0.0
 11
135.85299999999989
 21
82.829899999999995
 31
0.0
  0
LINE
  5
E5
  8
0
 62
     7
 10
135.85299999999989
 20
82.829899999999995
 30
0.0
 11
135.85299999999989
 21
84.014399999999995
 31
0.0
  0
LINE
  5
E6
  8
0
 62
     7
 10
167.643
 20
83.429400000000001
 30
0.0
 11
133.643
 21
83.429400000000001
 31
0.0
  0
LINE
  5
E7
  8
0
 62
     7
 10
133.643
 20
99.052599999999998
 30
0.0
 11
133.643
 21
82.815799999999996
 31
0.0
  0
LINE
  5
E8
  8
0
 62
     7
 10
167.643
 20
99.052599999999998
 30
0.0
 11
167.643
 21
82.815799999999996
 31
0.0
  0
LINE
  5
E9
  8
0
  6
AIGENLINE003
 62
     7
 10
137.14299999999989
 20
103.4019999999999
 30
0.0
 11
137.14299999999989
 21
100.702
 31
0.0
  0
LINE
  5
EA
  8
0
  6
AIGENLINE003
 62
     7
 10
136.64199999999991
 20
103.902
 30
0.0
 11
133.7289999999999
 21
103.902
 31
0.0
  0
ARC
  5
EB
  8
0
  6
AIGENLINE003
 62
     7
 10
136.623639
 20
103.383067
 30
0.0
 40
0.519249
 50
2.0999370000000002
 51
87.939526000000001
  0
LINE
  5
EC
  8
0
  6
AIGENLINE003
 62
     7
 10
144.14199999999991
 20
103.4019999999999
 30
0.0
 11
144.14199999999991
 21
100.702
 31
0.0
  0
LINE
  5
ED
  8
0
  6
AIGENLINE003
 62
     7
 10
144.643
 20
103.902
 30
0.0
 11
147.55600000000001
 21
103.902
 31
0.0
  0
ARC
  5
EE
  8
0
  6
AIGENLINE003
 62
     7
 10
144.66126299999991
 20
103.383032
 30
0.0
 40
0.519285
 50
92.064172000000013
 51
177.89632399999991
  0
LINE
  5
EF
  8
0
  6
AIGENLINE003
 62
     7
 10
144.14199999999991
 20
100.702
 30
0.0
 11
137.14299999999989
 21
100.702
 31
0.0
  0
LINE
  5
F0
  8
0
  6
AIGENLINE001
 62
     7
 10
140.64199999999991
 20
97.565700000000007
 30
0.0
 11
140.64199999999991
 21
105.60299999999999
 31
0.0
  0
ARC
  5
F1
  8
0
 62
     7
 10
132.09638200000001
 20
99.664932999999991
 30
0.0
 40
1.5467079999999991
 50
1.374649999999999
 51
78.015121999999991
  0
LINE
  5
F2
  8
0
 62
     7
 10
166.143
 20
116.702
 30
0.0
 11
114.1429999999999
 21
116.702
 31
0.0
  0
ARC
  5
F3
  8
0
 62
     7
 10
114.161303
 20
116.204604
 30
0.0
 40
0.518948
 50
180.27839800000001
 51
192.19977999999989
  0
ARC
  5
F4
  8
0
 62
     7
 10
114.16129599999999
 20
116.1830209999999
 30
0.0
 40
0.519285
 50
92.064172000000013
 51
177.89632399999991
  0
LINE
  5
F5
  8
0
 62
     7
 10
166.643
 20
116.202
 30
0.0
 11
166.643
 21
114.702
 31
0.0
  0
ARC
  5
F6
  8
0
 62
     7
 10
167.64285100000001
 20
114.702079
 30
0.0
 40
1.000116999999999
 50
179.99996999999991
 51
270.00002000000001
  0
ARC
  5
F7
  8
0
 62
     7
 10
166.12406599999991
 20
116.183301
 30
0.0
 40
0.519008
 50
2.0738270000000001
 51
87.926163000000003
  0
LINE
  5
F8
  8
0
 62
     7
 10
167.643
 20
99.702000000000012
 30
0.0
 11
167.643
 21
113.702
 31
0.0
  0
LINE
  5
F9
  8
0
 62
     7
 10
167.643
 20
99.702000000000012
 30
0.0
 11
133.64199999999991
 21
99.702000000000012
 31
0.0
  0
LINE
  5
FA
  8
0
 62
     7
 10
86.699299999999994
 20
99.702000000000012
 30
0.0
 11
86.699299999999994
 21
100.84099999999999
 31
0.0
  0
ARC
  5
FB
  8
0
 62
     7
 10
87.312200000000004
 20
100.8325719999999
 30
0.0
 40
0.612949
 50
118.5760649999999
 51
179.244877
  0
LINE
  5
FC
  8
0
 62
     7
 10
49.699300000000001
 20
99.702000000000012
 30
0.0
 11
49.699300000000001
 21
100.84099999999999
 31
0.0
  0
ARC
  5
FD
  8
0
 62
     7
 10
49.086542000000001
 20
100.8327729999999
 30
0.0
 40
0.6127700000000002
 50
0.7364569999999998
 51
61.415256000000007
  0
LINE
  5
FE
  8
0
 62
     7
 10
108.4559999999999
 20
101.913
 30
0.0
 11
109.0479999999999
 21
99.702000000000012
 31
0.0
  0
LINE
  5
FF
  8
0
 62
     7
 10
109.0479999999999
 20
99.702000000000012
 30
0.0
 11
109.64100000000001
 21
101.913
 31
0.0
  0
LINE
  5
100
  8
0
 62
     7
 10
109.64100000000001
 20
101.913
 30
0.0
 11
108.4559999999999
 21
101.913
 31
0.0
  0
LINE
  5
101
  8
0
 62
     7
 10
109.626
 20
114.491
 30
0.0
 11
109.03399999999991
 21
116.702
 31
0.0
  0
LINE
  5
102
  8
0
 62
     7
 10
109.03399999999991
 20
116.702
 30
0.0
 11
108.44199999999999
 21
114.491
 31
0.0
  0
LINE
  5
103
  8
0
 62
     7
 10
108.44199999999999
 20
114.491
 30
0.0
 11
109.626
 21
114.491
 31
0.0
  0
LINE
  5
104
  8
0
 62
     7
 10
109.041
 20
99.702000000000012
 30
0.0
 11
109.041
 21
116.702
 31
0.0
  0
LINE
  5
105
  8
0
 62
     7
 10
102.8779999999999
 20
103.4129999999999
 30
0.0
 11
103.4699999999999
 21
101.202
 31
0.0
  0
LINE
  5
106
  8
0
 62
     7
 10
103.4699999999999
 20
101.202
 30
0.0
 11
104.0629999999999
 21
103.4129999999999
 31
0.0
  0
LINE
  5
107
  8
0
 62
     7
 10
104.0629999999999
 20
103.4129999999999
 30
0.0
 11
102.8779999999999
 21
103.4129999999999
 31
0.0
  0
LINE
  5
108
  8
0
 62
     7
 10
104.0479999999999
 20
114.491
 30
0.0
 11
103.456
 21
116.702
 31
0.0
  0
LINE
  5
109
  8
0
 62
     7
 10
103.456
 20
116.702
 30
0.0
 11
102.8629999999999
 21
114.491
 31
0.0
  0
LINE
  5
10A
  8
0
 62
     7
 10
102.8629999999999
 20
114.491
 30
0.0
 11
104.0479999999999
 21
114.491
 31
0.0
  0
LINE
  5
10B
  8
0
 62
     7
 10
103.46299999999989
 20
101.202
 30
0.0
 11
103.46299999999989
 21
116.702
 31
0.0
  0
LINE
  5
10C
  8
0
 62
     7
 10
109.902
 20
99.702000000000012
 30
0.0
 11
87.720799999999997
 21
99.702000000000012
 31
0.0
  0
LINE
  5
10D
  8
0
 62
     7
 10
104.32299999999989
 20
101.202
 30
0.0
 11
88.581000000000003
 21
101.202
 31
0.0
  0
LINE
  5
10E
  8
0
 62
     7
 10
109.902
 20
116.702
 30
0.0
 11
99.013499999999993
 21
116.702
 31
0.0
  0
LINE
  5
10F
  8
0
 62
     7
 10
86.699299999999994
 20
89.5321
 30
0.0
 11
86.699299999999994
 21
98.513099999999994
 31
0.0
  0
LINE
  5
110
  8
0
 62
     7
 10
49.699300000000001
 20
89.5321
 30
0.0
 11
49.699300000000001
 21
98.513099999999994
 31
0.0
  0
LINE
  5
111
  8
0
 62
     7
 10
51.90979999999999
 20
90.711299999999994
 30
0.0
 11
49.699399999999997
 21
90.119100000000003
 31
0.0
  0
LINE
  5
112
  8
0
 62
     7
 10
49.699399999999997
 20
90.119100000000003
 30
0.0
 11
51.90979999999999
 21
89.526899999999998
 31
0.0
  0
LINE
  5
113
  8
0
 62
     7
 10
51.90979999999999
 20
89.526899999999998
 30
0.0
 11
51.90979999999999
 21
90.711299999999994
 31
0.0
  0
LINE
  5
114
  8
0
 62
     7
 10
84.488699999999994
 20
89.541399999999996
 30
0.0
 11
86.699299999999994
 21
90.133600000000001
 31
0.0
  0
LINE
  5
115
  8
0
 62
     7
 10
86.699299999999994
 20
90.133600000000001
 30
0.0
 11
84.488699999999994
 21
90.725800000000007
 31
0.0
  0
LINE
  5
116
  8
0
 62
     7
 10
84.488699999999994
 20
90.725800000000007
 30
0.0
 11
84.488699999999994
 21
89.541399999999996
 31
0.0
  0
LINE
  5
117
  8
0
 62
     7
 10
49.699300000000001
 20
90.126299999999986
 30
0.0
 11
86.699299999999994
 21
90.126299999999986
 31
0.0
  0
LINE
  5
118
  8
0
  6
AIGENLINE003
 62
     7
 10
71.699299999999994
 20
103.4019999999999
 30
0.0
 11
71.699299999999994
 21
100.702
 31
0.0
  0
LINE
  5
119
  8
0
  6
AIGENLINE003
 62
     7
 10
72.1995
 20
103.902
 30
0.0
 11
75.113
 21
103.902
 31
0.0
  0
ARC
  5
11A
  8
0
  6
AIGENLINE003
 62
     7
 10
72.218509999999995
 20
103.3827209999999
 30
0.0
 40
0.519608
 50
92.097232000000005
 51
177.8632649999999
  0
LINE
  5
11B
  8
0
  6
AIGENLINE003
 62
     7
 10
64.6995
 20
103.4019999999999
 30
0.0
 11
64.6995
 21
100.702
 31
0.0
  0
LINE
  5
11C
  8
0
  6
AIGENLINE003
 62
     7
 10
64.199200000000005
 20
103.902
 30
0.0
 11
61.285699999999991
 21
103.902
 31
0.0
  0
ARC
  5
11D
  8
0
  6
AIGENLINE003
 62
     7
 10
64.180538999999996
 20
103.383032
 30
0.0
 40
0.519285
 50
2.1036730000000001
 51
87.935790999999995
  0
LINE
  5
11E
  8
0
  6
AIGENLINE003
 62
     7
 10
64.6995
 20
100.702
 30
0.0
 11
71.699299999999994
 21
100.702
 31
0.0
  0
LINE
  5
11F
  8
0
 62
     7
 10
63.663200000000003
 20
100.702
 30
0.0
 11
27.6555
 21
100.702
 31
0.0
  0
LINE
  5
120
  8
0
 62
     7
 10
28.834800000000001
 20
114.491
 30
0.0
 11
28.242599999999999
 21
116.702
 31
0.0
  0
LINE
  5
121
  8
0
 62
     7
 10
28.242599999999999
 20
116.702
 30
0.0
 11
27.650200000000002
 21
114.491
 31
0.0
  0
LINE
  5
122
  8
0
 62
     7
 10
27.650200000000002
 20
114.491
 30
0.0
 11
28.834800000000001
 21
114.491
 31
0.0
  0
LINE
  5
123
  8
0
 62
     7
 10
27.6648
 20
102.9129999999999
 30
0.0
 11
28.256999999999991
 21
100.702
 31
0.0
  0
LINE
  5
124
  8
0
 62
     7
 10
28.256999999999991
 20
100.702
 30
0.0
 11
28.849399999999999
 21
102.9129999999999
 31
0.0
  0
LINE
  5
125
  8
0
 62
     7
 10
28.849399999999999
 20
102.9129999999999
 30
0.0
 11
27.6648
 21
102.9129999999999
 31
0.0
  0
LINE
  5
126
  8
0
 62
     7
 10
28.2498
 20
116.702
 30
0.0
 11
28.2498
 21
100.702
 31
0.0
  0
LINE
  5
127
  8
0
 62
     7
 10
34.6462
 20
114.491
 30
0.0
 11
34.054000000000002
 21
116.702
 31
0.0
  0
LINE
  5
128
  8
0
 62
     7
 10
34.054000000000002
 20
116.702
 30
0.0
 11
33.46159999999999
 21
114.491
 31
0.0
  0
LINE
  5
129
  8
0
 62
     7
 10
33.46159999999999
 20
114.491
 30
0.0
 11
34.6462
 21
114.491
 31
0.0
  0
LINE
  5
12A
  8
0
 62
     7
 10
33.476199999999999
 20
110.413
 30
0.0
 11
34.06839999999999
 21
108.202
 31
0.0
  0
LINE
  5
12B
  8
0
 62
     7
 10
34.06839999999999
 20
108.202
 30
0.0
 11
34.660800000000002
 21
110.413
 31
0.0
  0
LINE
  5
12C
  8
0
 62
     7
 10
34.660800000000002
 20
110.413
 30
0.0
 11
33.476199999999999
 21
110.413
 31
0.0
  0
LINE
  5
12D
  8
0
 62
     7
 10
34.061199999999999
 20
116.702
 30
0.0
 11
34.061199999999999
 21
108.202
 31
0.0
  0
LINE
  5
12E
  8
0
 62
     7
 10
37.561599999999991
 20
116.702
 30
0.0
 11
27.6555
 21
116.702
 31
0.0
  0
LINE
  5
12F
  8
0
 62
     7
 10
55.854100000000003
 20
108.202
 30
0.0
 11
33.40079999999999
 21
108.202
 31
0.0
  0
LINE
  5
130
  8
0
 62
     7
 10
98.19980000000001
 20
133.19199999999989
 30
0.0
 11
98.19980000000001
 21
117.8479999999999
 31
0.0
  0
LINE
  5
131
  8
0
 62
     7
 10
38.199100000000001
 20
133.19199999999989
 30
0.0
 11
38.199100000000001
 21
117.8479999999999
 31
0.0
  0
LINE
  5
132
  8
0
 62
     7
 10
40.409700000000001
 20
133.01899999999989
 30
0.0
 11
38.199300000000001
 21
132.42699999999999
 31
0.0
  0
LINE
  5
133
  8
0
 62
     7
 10
38.199300000000001
 20
132.42699999999999
 30
0.0
 11
40.409700000000001
 21
131.83500000000001
 31
0.0
  0
LINE
  5
134
  8
0
 62
     7
 10
40.409700000000001
 20
131.83500000000001
 30
0.0
 11
40.409700000000001
 21
133.01899999999989
 31
0.0
  0
LINE
  5
135
  8
0
 62
     7
 10
95.989199999999997
 20
131.8489999999999
 30
0.0
 11
98.19980000000001
 21
132.441
 31
0.0
  0
LINE
  5
136
  8
0
 62
     7
 10
98.19980000000001
 20
132.441
 30
0.0
 11
95.989199999999997
 21
133.03399999999991
 31
0.0
  0
LINE
  5
137
  8
0
 62
     7
 10
95.989199999999997
 20
133.03399999999991
 30
0.0
 11
95.989199999999997
 21
131.8489999999999
 31
0.0
  0
LINE
  5
138
  8
0
 62
     7
 10
38.199100000000001
 20
132.434
 30
0.0
 11
98.19980000000001
 21
132.434
 31
0.0
  0
LINE
  5
139
  8
0
 62
     7
 10
61.4099
 20
124.0329999999999
 30
0.0
 11
59.1995
 21
123.441
 31
0.0
  0
LINE
  5
13A
  8
0
 62
     7
 10
59.1995
 20
123.441
 30
0.0
 11
61.4099
 21
122.8489999999999
 31
0.0
  0
LINE
  5
13B
  8
0
 62
     7
 10
61.4099
 20
122.8489999999999
 30
0.0
 11
61.4099
 21
124.0329999999999
 31
0.0
  0
LINE
  5
13C
  8
0
 62
     7
 10
74.988799999999983
 20
122.863
 30
0.0
 11
77.199399999999997
 21
123.455
 31
0.0
  0
LINE
  5
13D
  8
0
 62
     7
 10
77.199399999999997
 20
123.455
 30
0.0
 11
74.988799999999983
 21
124.0479999999999
 31
0.0
  0
LINE
  5
13E
  8
0
 62
     7
 10
74.988799999999983
 20
124.0479999999999
 30
0.0
 11
74.988799999999983
 21
122.863
 31
0.0
  0
LINE
  5
13F
  8
0
 62
     7
 10
59.199300000000001
 20
123.44799999999999
 30
0.0
 11
77.199399999999997
 21
123.44799999999999
 31
0.0
  0
LINE
  5
140
  8
0
 62
     7
 10
77.199399999999997
 20
110.9839999999999
 30
0.0
 11
77.199399999999997
 21
124.1999999999999
 31
0.0
  0
LINE
  5
141
  8
0
  6
AIGENLINE001
 62
     7
 10
77.199399999999997
 20
106.122
 30
0.0
 11
77.199399999999997
 21
110.366
 31
0.0
  0
LINE
  5
142
  8
0
  6
AIGENLINE001
 62
     7
 10
74.705500000000001
 20
108.202
 30
0.0
 11
79.567899999999995
 21
108.202
 31
0.0
  0
LINE
  5
143
  8
0
  6
AIGENLINE003
 62
     7
 10
76.6995
 20
107.202
 30
0.0
 11
77.699299999999994
 21
107.202
 31
0.0
  0
LINE
  5
144
  8
0
  6
AIGENLINE003
 62
     7
 10
76.6995
 20
109.202
 30
0.0
 11
77.699299999999994
 21
109.202
 31
0.0
  0
ARC
  5
145
  8
0
  6
AIGENLINE003
 62
     7
 10
77.660668999999999
 20
108.24079999999999
 30
0.0
 40
1.039458999999999
 50
272.12874399999993
 51
357.85152499999992
  0
ARC
  5
146
  8
0
  6
AIGENLINE003
 62
     7
 10
77.661036999999993
 20
108.1635889999999
 30
0.0
 40
1.0390639999999991
 50
2.1092529999999989
 51
87.890737000000016
  0
ARC
  5
147
  8
0
  6
AIGENLINE003
 62
     7
 10
76.738142000000011
 20
108.1631969999999
 30
0.0
 40
1.0394709999999989
 50
92.130042000000003
 51
177.86992799999999
  0
ARC
  5
148
  8
0
  6
AIGENLINE003
 62
     7
 10
76.737410999999994
 20
108.2400929999999
 30
0.0
 40
1.038726
 50
182.11099300000001
 51
267.90877699999987
  0
LINE
  5
149
  8
0
 62
     7
 10
59.199300000000001
 20
110.9839999999999
 30
0.0
 11
59.199300000000001
 21
124.1999999999999
 31
0.0
  0
LINE
  5
14A
  8
0
  6
AIGENLINE001
 62
     7
 10
59.199300000000001
 20
106.122
 30
0.0
 11
59.199300000000001
 21
110.366
 31
0.0
  0
LINE
  5
14B
  8
0
  6
AIGENLINE001
 62
     7
 10
56.705599999999997
 20
108.202
 30
0.0
 11
61.567900000000002
 21
108.202
 31
0.0
  0
LINE
  5
14C
  8
0
  6
AIGENLINE003
 62
     7
 10
58.699300000000001
 20
107.202
 30
0.0
 11
59.699399999999997
 21
107.202
 31
0.0
  0
LINE
  5
14D
  8
0
  6
AIGENLINE003
 62
     7
 10
58.699300000000001
 20
109.202
 30
0.0
 11
59.699399999999997
 21
109.202
 31
0.0
  0
ARC
  5
14E
  8
0
  6
AIGENLINE003
 62
     7
 10
59.660782999999988
 20
108.24063099999999
 30
0.0
 40
1.03929
 50
272.12962099999987
 51
357.86051800000001
  0
ARC
  5
14F
  8
0
  6
AIGENLINE003
 62
     7
 10
59.660994000000002
 20
108.1636009999999
 30
0.0
 40
1.039058
 50
2.1085940000000001
 51
87.881527000000006
  0
ARC
  5
150
  8
0
  6
AIGENLINE003
 62
     7
 10
58.737931000000003
 20
108.163366
 30
0.0
 40
1.0393019999999991
 50
92.130919000000006
 51
177.87891999999999
  0
ARC
  5
151
  8
0
  6
AIGENLINE003
 62
     7
 10
58.737357000000003
 20
108.2400809999999
 30
0.0
 40
1.0387200000000001
 50
182.11033399999999
 51
267.89956699999999
  0
LINE
  5
152
  8
0
  6
AIGENLINE001
 62
     7
 10
68.199399999999983
 20
97.565700000000007
 30
0.0
 11
68.199399999999983
 21
118.4109999999999
 31
0.0
  0
LINE
  5
153
  8
0
  6
AIGENLINE001
 62
     7
 10
65.502899999999997
 20
113.702
 30
0.0
 11
70.875900000000001
 21
113.702
 31
0.0
  0
ARC
  5
154
  8
0
  6
AIGENLINE003
 62
     7
 10
68.19936899999999
 20
113.701961
 30
0.0
 40
1.5000039999999999
 50
0.00001
 51
89.999980000000008
  0
ARC
  5
155
  8
0
  6
AIGENLINE003
 62
     7
 10
68.19936899999999
 20
113.701961
 30
0.0
 40
1.5000039999999999
 50
90.0
 51
179.99996999999991
  0
ARC
  5
156
  8
0
  6
AIGENLINE003
 62
     7
 10
68.256935999999996
 20
113.7595279999999
 30
0.0
 40
1.5586349999999991
 50
182.11668599999999
 51
267.88334300000002
  0
ARC
  5
157
  8
0
  6
AIGENLINE003
 62
     7
 10
68.142203000000009
 20
113.75912700000001
 30
0.0
 40
1.558219
 50
272.10246799999999
 51
357.89754199999987
  0
LINE
  5
158
  8
0
 62
     7
 10
38.699199999999998
 20
116.702
 30
0.0
 11
97.699600000000004
 21
116.702
 31
0.0
  0
ARC
  5
159
  8
0
 62
     7
 10
97.680858999999998
 20
116.1830209999999
 30
0.0
 40
0.519285
 50
2.1036730000000001
 51
87.935790999999995
  0
ARC
  5
15A
  8
0
 62
     7
 10
38.718203000000003
 20
116.1828749999999
 30
0.0
 40
0.519443
 50
92.099376000000007
 51
177.88085399999991
  0
LINE
  5
15B
  8
0
 62
     7
 10
49.578000000000003
 20
101.202
 30
0.0
 11
86.820599999999985
 21
101.202
 31
0.0
  0
LINE
  5
15C
  8
0
 62
     7
 10
49.699300000000001
 20
99.702000000000012
 30
0.0
 11
86.699299999999994
 21
99.702000000000012
 31
0.0
  0
LINE
  5
15D
  8
0
 62
     7
 10
105.6599999999999
 20
240.50700000000001
 30
0.0
 11
106.252
 21
238.29599999999999
 31
0.0
  0
LINE
  5
15E
  8
0
 62
     7
 10
106.252
 20
238.29599999999999
 30
0.0
 11
106.84399999999999
 21
240.50700000000001
 31
0.0
  0
LINE
  5
15F
  8
0
 62
     7
 10
106.84399999999999
 20
240.50700000000001
 30
0.0
 11
105.6599999999999
 21
240.50700000000001
 31
0.0
  0
LINE
  5
160
  8
0
 62
     7
 10
105.6599999999999
 20
230.50599999999989
 30
0.0
 11
106.252
 21
228.29599999999999
 31
0.0
  0
LINE
  5
161
  8
0
 62
     7
 10
106.252
 20
228.29599999999999
 30
0.0
 11
106.84399999999999
 21
230.50599999999989
 31
0.0
  0
LINE
  5
162
  8
0
 62
     7
 10
106.84399999999999
 20
230.50599999999989
 30
0.0
 11
105.6599999999999
 21
230.50599999999989
 31
0.0
  0
LINE
  5
163
  8
0
 62
     7
 10
105.6599999999999
 20
222.00599999999989
 30
0.0
 11
106.252
 21
219.79599999999999
 31
0.0
  0
LINE
  5
164
  8
0
 62
     7
 10
106.252
 20
219.79599999999999
 30
0.0
 11
106.84399999999999
 21
222.00599999999989
 31
0.0
  0
LINE
  5
165
  8
0
 62
     7
 10
106.84399999999999
 20
222.00599999999989
 30
0.0
 11
105.6599999999999
 21
222.00599999999989
 31
0.0
  0
LINE
  5
166
  8
0
 62
     7
 10
105.6599999999999
 20
188.50599999999989
 30
0.0
 11
106.252
 21
186.29599999999991
 31
0.0
  0
LINE
  5
167
  8
0
 62
     7
 10
106.252
 20
186.29599999999991
 30
0.0
 11
106.84399999999999
 21
188.50599999999989
 31
0.0
  0
LINE
  5
168
  8
0
 62
     7
 10
106.84399999999999
 20
188.50599999999989
 30
0.0
 11
105.6599999999999
 21
188.50599999999989
 31
0.0
  0
LINE
  5
169
  8
0
 62
     7
 10
106.83
 20
226.08500000000001
 30
0.0
 11
106.23699999999999
 21
228.29599999999999
 31
0.0
  0
LINE
  5
16A
  8
0
 62
     7
 10
106.23699999999999
 20
228.29599999999999
 30
0.0
 11
105.6449999999999
 21
226.08500000000001
 31
0.0
  0
LINE
  5
16B
  8
0
 62
     7
 10
105.6449999999999
 20
226.08500000000001
 30
0.0
 11
106.83
 21
226.08500000000001
 31
0.0
  0
LINE
  5
16C
  8
0
 62
     7
 10
106.83
 20
217.58500000000001
 30
0.0
 11
106.23699999999999
 21
219.79599999999999
 31
0.0
  0
LINE
  5
16D
  8
0
 62
     7
 10
106.23699999999999
 20
219.79599999999999
 30
0.0
 11
105.6449999999999
 21
217.58500000000001
 31
0.0
  0
LINE
  5
16E
  8
0
 62
     7
 10
105.6449999999999
 20
217.58500000000001
 30
0.0
 11
106.83
 21
217.58500000000001
 31
0.0
  0
LINE
  5
16F
  8
0
 62
     7
 10
106.83
 20
182.08500000000001
 30
0.0
 11
106.23699999999999
 21
184.29599999999991
 31
0.0
  0
LINE
  5
170
  8
0
 62
     7
 10
106.23699999999999
 20
184.29599999999991
 30
0.0
 11
105.6449999999999
 21
182.08500000000001
 31
0.0
  0
LINE
  5
171
  8
0
 62
     7
 10
105.6449999999999
 20
182.08500000000001
 30
0.0
 11
106.83
 21
182.08500000000001
 31
0.0
  0
LINE
  5
172
  8
0
 62
     7
 10
106.83
 20
235.0859999999999
 30
0.0
 11
106.23699999999999
 21
237.29599999999991
 31
0.0
  0
LINE
  5
173
  8
0
 62
     7
 10
106.23699999999999
 20
237.29599999999991
 30
0.0
 11
105.6449999999999
 21
235.0859999999999
 31
0.0
  0
LINE
  5
174
  8
0
 62
     7
 10
105.6449999999999
 20
235.0859999999999
 30
0.0
 11
106.83
 21
235.0859999999999
 31
0.0
  0
LINE
  5
175
  8
0
 62
     7
 10
106.245
 20
177.90499999999989
 30
0.0
 11
106.245
 21
243.3129999999999
 31
0.0
  0
LINE
  5
176
  8
0
 62
     7
 10
66.899500000000003
 20
219.59599999999989
 30
0.0
 11
69.499200000000002
 21
219.59599999999989
 31
0.0
  0
ARC
  5
177
  8
0
 62
     7
 10
69.491714999999999
 20
219.80340099999989
 30
0.0
 40
0.2078
 50
272.06761099999989
 51
357.88306999999998
  0
ARC
  5
178
  8
0
 62
     7
 10
66.906917000000007
 20
219.80329499999999
 30
0.0
 40
0.20769
 50
182.08861200000001
 51
267.96074700000003
  0
LINE
  5
179
  8
0
 62
     7
 10
75.193299999999994
 20
237.29599999999991
 30
0.0
 11
107.1429999999999
 21
237.29599999999991
 31
0.0
  0
LINE
  5
17A
  8
0
 62
     7
 10
72.165000000000006
 20
228.29599999999999
 30
0.0
 11
107.1429999999999
 21
228.29599999999999
 31
0.0
  0
LINE
  5
17B
  8
0
 62
     7
 10
76.133799999999994
 20
186.29599999999991
 30
0.0
 11
107.1429999999999
 21
186.29599999999991
 31
0.0
  0
LINE
  5
17C
  8
0
 62
     7
 10
85.306100000000015
 20
219.79599999999999
 30
0.0
 11
107.1429999999999
 21
219.79599999999999
 31
0.0
  0
LINE
  5
17D
  8
0
 62
     7
 10
114.76899999999991
 20
236.0859999999999
 30
0.0
 11
114.17700000000001
 21
238.29599999999999
 31
0.0
  0
LINE
  5
17E
  8
0
 62
     7
 10
114.17700000000001
 20
238.29599999999999
 30
0.0
 11
113.58499999999999
 21
236.0859999999999
 31
0.0
  0
LINE
  5
17F
  8
0
 62
     7
 10
113.58499999999999
 20
236.0859999999999
 30
0.0
 11
114.76899999999991
 21
236.0859999999999
 31
0.0
  0
LINE
  5
180
  8
0
 62
     7
 10
113.5989999999999
 20
206.50599999999989
 30
0.0
 11
114.19199999999999
 21
204.29599999999991
 31
0.0
  0
LINE
  5
181
  8
0
 62
     7
 10
114.19199999999999
 20
204.29599999999991
 30
0.0
 11
114.78399999999991
 21
206.50599999999989
 31
0.0
  0
LINE
  5
182
  8
0
 62
     7
 10
114.78399999999991
 20
206.50599999999989
 30
0.0
 11
113.5989999999999
 21
206.50599999999989
 31
0.0
  0
LINE
  5
183
  8
0
 62
     7
 10
114.1839999999999
 20
238.29599999999999
 30
0.0
 11
114.1839999999999
 21
204.29599999999991
 31
0.0
  0
LINE
  5
184
  8
0
 62
     7
 10
73.183400000000006
 20
204.29599999999991
 30
0.0
 11
115.08199999999999
 21
204.29599999999991
 31
0.0
  0
LINE
  5
185
  8
0
 62
     7
 10
76.251300000000001
 20
184.29599999999991
 30
0.0
 11
122.267
 21
184.29599999999991
 31
0.0
  0
LINE
  5
186
  8
0
 62
     7
 10
87.657700000000006
 20
238.29599999999999
 30
0.0
 11
122.2679999999999
 21
238.29599999999999
 31
0.0
  0
LINE
  5
187
  8
0
 62
     7
 10
122.036
 20
236.0859999999999
 30
0.0
 11
121.4439999999999
 21
238.29599999999999
 31
0.0
  0
LINE
  5
188
  8
0
 62
     7
 10
121.4439999999999
 20
238.29599999999999
 30
0.0
 11
120.852
 21
236.0859999999999
 31
0.0
  0
LINE
  5
189
  8
0
 62
     7
 10
120.852
 20
236.0859999999999
 30
0.0
 11
122.036
 21
236.0859999999999
 31
0.0
  0
LINE
  5
18A
  8
0
 62
     7
 10
120.866
 20
186.50599999999989
 30
0.0
 11
121.459
 21
184.29599999999991
 31
0.0
  0
LINE
  5
18B
  8
0
 62
     7
 10
121.459
 20
184.29599999999991
 30
0.0
 11
122.0509999999999
 21
186.50599999999989
 31
0.0
  0
LINE
  5
18C
  8
0
 62
     7
 10
122.0509999999999
 20
186.50599999999989
 30
0.0
 11
120.866
 21
186.50599999999989
 31
0.0
  0
LINE
  5
18D
  8
0
 62
     7
 10
121.45099999999999
 20
238.29599999999999
 30
0.0
 11
121.45099999999999
 21
184.29599999999991
 31
0.0
  0
LINE
  5
18E
  8
0
 62
     7
 10
98.19980000000001
 20
162.15600000000001
 30
0.0
 11
98.19980000000001
 21
204.9309999999999
 31
0.0
  0
LINE
  5
18F
  8
0
 62
     7
 10
96.199600000000004
 20
204.9309999999999
 30
0.0
 11
96.199600000000004
 21
172.68299999999991
 31
0.0
  0
LINE
  5
190
  8
0
 62
     7
 10
40.198999999999991
 20
204.9309999999999
 30
0.0
 11
40.198999999999991
 21
172.68299999999991
 31
0.0
  0
LINE
  5
191
  8
0
 62
     7
 10
38.199100000000001
 20
162.15600000000001
 30
0.0
 11
38.199100000000001
 21
204.10699999999991
 31
0.0
  0
LINE
  5
192
  8
0
 62
     7
 10
40.409700000000001
 20
163.49899999999991
 30
0.0
 11
38.199300000000001
 21
162.90700000000001
 31
0.0
  0
LINE
  5
193
  8
0
 62
     7
 10
38.199300000000001
 20
162.90700000000001
 30
0.0
 11
40.409700000000001
 21
162.315
 31
0.0
  0
LINE
  5
194
  8
0
 62
     7
 10
40.409700000000001
 20
162.315
 30
0.0
 11
40.409700000000001
 21
163.49899999999991
 31
0.0
  0
LINE
  5
195
  8
0
 62
     7
 10
95.989199999999997
 20
162.32900000000001
 30
0.0
 11
98.19980000000001
 21
162.92099999999999
 31
0.0
  0
LINE
  5
196
  8
0
 62
     7
 10
98.19980000000001
 20
162.92099999999999
 30
0.0
 11
95.989199999999997
 21
163.5139999999999
 31
0.0
  0
LINE
  5
197
  8
0
 62
     7
 10
95.989199999999997
 20
163.5139999999999
 30
0.0
 11
95.989199999999997
 21
162.32900000000001
 31
0.0
  0
LINE
  5
198
  8
0
 62
     7
 10
38.199100000000001
 20
162.9139999999999
 30
0.0
 11
98.19980000000001
 21
162.9139999999999
 31
0.0
  0
LINE
  5
199
  8
0
 62
     7
 10
42.409599999999998
 20
173.98599999999999
 30
0.0
 11
40.19919999999999
 21
173.39400000000001
 31
0.0
  0
LINE
  5
19A
  8
0
 62
     7
 10
40.19919999999999
 20
173.39400000000001
 30
0.0
 11
42.409599999999998
 21
172.80199999999999
 31
0.0
  0
LINE
  5
19B
  8
0
 62
     7
 10
42.409599999999998
 20
172.80199999999999
 30
0.0
 11
42.409599999999998
 21
173.98599999999999
 31
0.0
  0
LINE
  5
19C
  8
0
 62
     7
 10
93.98899999999999
 20
172.81599999999989
 30
0.0
 11
96.199600000000004
 21
173.40899999999999
 31
0.0
  0
LINE
  5
19D
  8
0
 62
     7
 10
96.199600000000004
 20
173.40899999999999
 30
0.0
 11
93.98899999999999
 21
174.00099999999989
 31
0.0
  0
LINE
  5
19E
  8
0
 62
     7
 10
93.98899999999999
 20
174.00099999999989
 30
0.0
 11
93.98899999999999
 21
172.81599999999989
 31
0.0
  0
LINE
  5
19F
  8
0
 62
     7
 10
40.198999999999991
 20
173.4009999999999
 30
0.0
 11
96.199600000000004
 21
173.4009999999999
 31
0.0
  0
LINE
  5
1A0
  8
0
 62
     7
 10
51.90979999999999
 20
256.08199999999999
 30
0.0
 11
49.699399999999997
 21
255.48899999999989
 31
0.0
  0
LINE
  5
1A1
  8
0
 62
     7
 10
49.699399999999997
 20
255.48899999999989
 30
0.0
 11
51.90979999999999
 21
254.89699999999999
 31
0.0
  0
LINE
  5
1A2
  8
0
 62
     7
 10
51.90979999999999
 20
254.89699999999999
 30
0.0
 11
51.90979999999999
 21
256.08199999999999
 31
0.0
  0
LINE
  5
1A3
  8
0
 62
     7
 10
84.488699999999994
 20
254.91099999999989
 30
0.0
 11
86.699299999999994
 21
255.50399999999999
 31
0.0
  0
LINE
  5
1A4
  8
0
 62
     7
 10
86.699299999999994
 20
255.50399999999999
 30
0.0
 11
84.488699999999994
 21
256.096
 31
0.0
  0
LINE
  5
1A5
  8
0
 62
     7
 10
84.488699999999994
 20
256.096
 30
0.0
 11
84.488699999999994
 21
254.91099999999989
 31
0.0
  0
LINE
  5
1A6
  8
0
 62
     7
 10
49.699300000000001
 20
255.4959999999999
 30
0.0
 11
86.699299999999994
 21
255.4959999999999
 31
0.0
  0
LINE
  5
1A7
  8
0
 62
     7
 10
86.699299999999994
 20
239.03599999999989
 30
0.0
 11
86.699299999999994
 21
255.94499999999999
 31
0.0
  0
LINE
  5
1A8
  8
0
 62
     7
 10
49.699300000000001
 20
239.03599999999989
 30
0.0
 11
49.699300000000001
 21
255.94499999999999
 31
0.0
  0
LINE
  5
1A9
  8
0
 62
     7
 10
61.4099
 20
248.03399999999999
 30
0.0
 11
59.1995
 21
247.44200000000001
 31
0.0
  0
LINE
  5
1AA
  8
0
 62
     7
 10
59.1995
 20
247.44200000000001
 30
0.0
 11
61.4099
 21
246.84999999999999
 31
0.0
  0
LINE
  5
1AB
  8
0
 62
     7
 10
61.4099
 20
246.84999999999999
 30
0.0
 11
61.4099
 21
248.03399999999999
 31
0.0
  0
LINE
  5
1AC
  8
0
 62
     7
 10
74.988799999999983
 20
246.864
 30
0.0
 11
77.199399999999997
 21
247.45699999999991
 31
0.0
  0
LINE
  5
1AD
  8
0
 62
     7
 10
77.199399999999997
 20
247.45699999999991
 30
0.0
 11
74.988799999999983
 21
248.04900000000001
 31
0.0
  0
LINE
  5
1AE
  8
0
 62
     7
 10
74.988799999999983
 20
248.04900000000001
 30
0.0
 11
74.988799999999983
 21
246.864
 31
0.0
  0
LINE
  5
1AF
  8
0
 62
     7
 10
59.199300000000001
 20
247.44900000000001
 30
0.0
 11
77.199399999999997
 21
247.44900000000001
 31
0.0
  0
LINE
  5
1B0
  8
0
 62
     7
 10
77.199399999999997
 20
247.81699999999989
 30
0.0
 11
77.199399999999997
 21
240.58199999999991
 31
0.0
  0
LINE
  5
1B1
  8
0
 62
     7
 10
59.199300000000001
 20
247.81699999999989
 30
0.0
 11
59.199300000000001
 21
240.58199999999991
 31
0.0
  0
LINE
  5
1B2
  8
0
  6
AIGENLINE001
 62
     7
 10
77.199399999999997
 20
240.1329999999999
 30
0.0
 11
77.199399999999997
 21
236.053
 31
0.0
  0
LINE
  5
1B3
  8
0
  6
AIGENLINE001
 62
     7
 10
59.199300000000001
 20
240.1329999999999
 30
0.0
 11
59.199300000000001
 21
236.053
 31
0.0
  0
LINE
  5
1B4
  8
0
 62
     7
 10
64.712599999999995
 20
231.7829999999999
 30
0.0
 11
59.919699999999999
 21
231.7829999999999
 31
0.0
  0
LINE
  5
1B5
  8
0
 62
     7
 10
71.484099999999998
 20
225.839
 30
0.0
 11
69.502300000000005
 21
226.983
 31
0.0
  0
LINE
  5
1B6
  8
0
 62
     7
 10
69.502300000000005
 20
226.983
 30
0.0
 11
70.6464
 21
225.00099999999989
 31
0.0
  0
LINE
  5
1B7
  8
0
 62
     7
 10
70.6464
 20
225.00099999999989
 30
0.0
 11
71.484099999999998
 21
225.839
 31
0.0
  0
LINE
  5
1B8
  8
0
 62
     7
 10
64.909499999999994
 20
230.74799999999991
 30
0.0
 11
66.891300000000001
 21
229.60400000000001
 31
0.0
  0
LINE
  5
1B9
  8
0
 62
     7
 10
66.891300000000001
 20
229.60400000000001
 30
0.0
 11
65.747100000000003
 21
231.5859999999999
 31
0.0
  0
LINE
  5
1BA
  8
0
 62
     7
 10
65.747100000000003
 20
231.5859999999999
 30
0.0
 11
64.909499999999994
 21
230.74799999999991
 31
0.0
  0
LINE
  5
1BB
  8
0
 62
     7
 10
64.712599999999995
 20
231.7829999999999
 30
0.0
 11
72.3215
 21
224.17400000000001
 31
0.0
  0
LINE
  5
1BC
  8
0
 62
     7
 10
64.513300000000001
 20
214.982
 30
0.0
 11
59.484900000000003
 21
214.982
 31
0.0
  0
LINE
  5
1BD
  8
0
 62
     7
 10
71.772099999999995
 20
208.56099999999989
 30
0.0
 11
69.790300000000002
 21
209.70500000000001
 31
0.0
  0
LINE
  5
1BE
  8
0
 62
     7
 10
69.790300000000002
 20
209.70500000000001
 30
0.0
 11
70.934399999999997
 21
207.7229999999999
 31
0.0
  0
LINE
  5
1BF
  8
0
 62
     7
 10
70.934399999999997
 20
207.7229999999999
 30
0.0
 11
71.772099999999995
 21
208.56099999999989
 31
0.0
  0
LINE
  5
1C0
  8
0
 62
     7
 10
64.626400000000004
 20
214.03099999999989
 30
0.0
 11
66.608199999999997
 21
212.887
 31
0.0
  0
LINE
  5
1C1
  8
0
 62
     7
 10
66.608199999999997
 20
212.887
 30
0.0
 11
65.464100000000002
 21
214.869
 31
0.0
  0
LINE
  5
1C2
  8
0
 62
     7
 10
65.464100000000002
 20
214.869
 30
0.0
 11
64.626400000000004
 21
214.03099999999989
 31
0.0
  0
LINE
  5
1C3
  8
0
 62
     7
 10
64.513300000000001
 20
214.982
 30
0.0
 11
73.533100000000005
 21
205.96199999999999
 31
0.0
  0
LINE
  5
1C4
  8
0
  6
AIGENLINE001
 62
     7
 10
63.267699999999991
 20
211.29599999999999
 30
0.0
 11
72.979500000000002
 21
211.29599999999999
 31
0.0
  0
ARC
  5
1C5
  8
0
 62
     7
 10
68.19936899999999
 20
211.29575899999989
 30
0.0
 40
2.2500059999999991
 50
0.00001
 51
89.999980000000008
  0
ARC
  5
1C6
  8
0
 62
     7
 10
68.199370000000002
 20
211.29575899999989
 30
0.0
 40
2.2500059999999991
 50
90.0
 51
179.99996999999991
  0
ARC
  5
1C7
  8
0
 62
     7
 10
68.19936899999999
 20
211.29575899999989
 30
0.0
 40
2.2500059999999991
 50
179.99996999999991
 51
270.00002000000001
  0
ARC
  5
1C8
  8
0
 62
     7
 10
68.19936899999999
 20
211.29576
 30
0.0
 40
2.2500059999999991
 50
270.00002000000001
 51
359.99998999999991
  0
LINE
  5
1C9
  8
0
  6
AIGENLINE001
 62
     7
 10
64.900000000000006
 20
228.29599999999999
 30
0.0
 11
71.428799999999995
 21
228.29599999999999
 31
0.0
  0
ARC
  5
1CA
  8
0
 62
     7
 10
68.228981999999988
 20
199.11670299999989
 30
0.0
 40
38.179195999999997
 50
90.044431000000003
 51
111.86688599999999
  0
ARC
  5
1CB
  8
0
 62
     7
 10
65.196355000000011
 20
207.44468299999991
 30
0.0
 40
29.322300999999989
 50
112.428349
 51
128.302932
  0
ARC
  5
1CC
  8
0
 62
     7
 10
61.868248000000001
 20
212.2188009999999
 30
0.0
 40
23.515578999999999
 50
129.149349
 51
169.74457899999999
  0
ARC
  5
1CD
  8
0
 62
     7
 10
68.397908000000001
 20
210.77199999999999
 30
0.0
 40
30.199632999999999
 50
169.2490709999999
 51
180.42762400000001
  0
ARC
  5
1CE
  8
0
 62
     7
 10
47.777970999999987
 20
212.92689799999991
 30
0.0
 40
6.1277460000000001
 50
96.328607000000005
 51
107.0749739999999
  0
ARC
  5
1CF
  8
0
 62
     7
 10
48.403385
 20
210.97311999999999
 30
0.0
 40
8.1790760000000002
 50
107.24430700000001
 51
173.01178899999999
  0
ARC
  5
1D0
  8
0
 62
     7
 10
51.479015999999987
 20
210.57850799999991
 30
0.0
 40
11.279882000000001
 50
172.922977
 51
180.16199800000001
  0
ARC
  5
1D1
  8
0
 62
     7
 10
68.19936899999999
 20
228.29586299999991
 30
0.0
 40
1.8500279999999989
 50
0.00001
 51
89.999980000000008
  0
ARC
  5
1D2
  8
0
 62
     7
 10
68.270220999999992
 20
228.22501099999999
 30
0.0
 40
1.9221859999999991
 50
92.112391000000017
 51
177.88757899999999
  0
ARC
  5
1D3
  8
0
 62
     7
 10
68.270206000000002
 20
228.36670000000001
 30
0.0
 40
1.9221699999999999
 50
182.11198999999999
 51
267.88803899999988
  0
ARC
  5
1D4
  8
0
 62
     7
 10
68.19936899999999
 20
228.29586399999999
 30
0.0
 40
1.8500279999999989
 50
270.00002000000001
 51
359.99998999999991
  0
LINE
  5
1D5
  8
0
  6
AIGENLINE001
 62
     7
 10
68.199399999999983
 20
240.82699999999991
 30
0.0
 11
68.199399999999983
 21
181.70099999999991
 31
0.0
  0
LINE
  5
1D6
  8
0
 62
     7
 10
50.199300000000001
 20
238.29599999999999
 30
0.0
 11
86.199399999999983
 21
238.29599999999999
 31
0.0
  0
ARC
  5
1D7
  8
0
 62
     7
 10
86.180205000000001
 20
237.7769119999999
 30
0.0
 40
0.5194479999999999
 50
2.099936
 51
87.880313999999984
  0
LINE
  5
1D8
  8
0
  6
AIGENLINE003
 62
     7
 10
49.699300000000001
 20
222.79599999999991
 30
0.0
 11
49.699300000000001
 21
232.351
 31
0.0
  0
LINE
  5
1D9
  8
0
 62
     7
 10
49.699300000000001
 20
232.351
 30
0.0
 11
49.699300000000001
 21
237.79599999999991
 31
0.0
  0
ARC
  5
1DA
  8
0
 62
     7
 10
50.218746000000003
 20
237.77652
 30
0.0
 40
0.519848
 50
92.141558999999987
 51
177.85841199999999
  0
ARC
  5
1DB
  8
0
  6
AIGENLINE003
 62
     7
 10
68.199452000000008
 20
222.795816
 30
0.0
 40
18.500189999999989
 50
179.99970300000001
 51
269.999753
  0
ARC
  5
1DC
  8
0
  6
AIGENLINE003
 62
     7
 10
68.199193999999991
 20
222.79573699999989
 30
0.0
 40
18.50011099999999
 50
270.00055299999991
 51
0.000524
  0
ARC
  5
1DD
  8
0
 62
     7
 10
68.199281999999997
 20
211.29584500000001
 30
0.0
 40
3.4999809999999991
 50
359.99860000000001
 51
89.998570000000001
  0
ARC
  5
1DE
  8
0
 62
     7
 10
68.199456000000012
 20
211.29584500000001
 30
0.0
 40
3.4999809999999991
 50
90.001410000000007
 51
180.00141999999991
  0
ARC
  5
1DF
  8
0
 62
     7
 10
68.199455
 20
211.29567299999999
 30
0.0
 40
3.4999799999999999
 50
179.99856
 51
269.99860999999993
  0
ARC
  5
1E0
  8
0
 62
     7
 10
68.199281999999997
 20
211.29567399999999
 30
0.0
 40
3.4999809999999991
 50
270.00142999999991
 51
0.0014
  0
LINE
  5
1E1
  8
_________2
 62
     7
 10
210.24000000000001
 20
148.93100000000001
 30
0.0
 11
188.49000000000001
 21
148.93100000000001
 31
0.0
  0
LINE
  5
1E2
  8
_________2
 62
     7
 10
105.2389999999999
 20
17.428499999999989
 30
0.0
 11
105.2389999999999
 21
0.4482100000000001
 31
0.0
  0
LINE
  5
1E3
  8
_________2
 62
     7
 10
105.2389999999999
 20
297.44999999999987
 30
0.0
 11
105.2389999999999
 21
280.42999999999989
 31
0.0
  0
LINE
  5
1E4
  8
_________2
 62
     7
 10
21.988499999999991
 20
148.93100000000001
 30
0.0
 11
0.238058
 21
148.93100000000001
 31
0.0
  0
LINE
  5
1E5
  8
_________2
 62
     7
 10
81.679900000000004
 20
51.324300000000001
 30
0.0
 11
79.493700000000004
 21
51.324300000000001
 31
0.0
  0
LINE
  5
1E6
  8
_________2
 62
     7
 10
82.172600000000017
 20
51.324300000000001
 30
0.0
 11
81.920400000000001
 21
51.324300000000001
 31
0.0
  0
LINE
  5
1E7
  8
_________2
 62
     7
 10
82.665199999999984
 20
51.324300000000001
 30
0.0
 11
85.590100000000007
 21
51.324300000000001
 31
0.0
  0
LINE
  5
1E8
  8
_________2
 62
     7
 10
82.172600000000017
 20
51.324300000000001
 30
0.0
 11
82.424800000000005
 21
51.324300000000001
 31
0.0
  0
LINE
  5
1E9
  8
_________2
 62
     7
 10
75.776399999999995
 20
51.324300000000001
 30
0.0
 11
73.589399999999998
 21
51.324300000000001
 31
0.0
  0
LINE
  5
1EA
  8
_________2
 62
     7
 10
76.2684
 20
51.324300000000001
 30
0.0
 11
76.016900000000007
 21
51.324300000000001
 31
0.0
  0
LINE
  5
1EB
  8
_________2
 62
     7
 10
76.2684
 20
51.817
 30
0.0
 11
76.2684
 21
54.003900000000002
 31
0.0
  0
LINE
  5
1EC
  8
_________2
 62
     7
 10
76.2684
 20
51.324300000000001
 30
0.0
 11
76.2684
 21
51.576500000000003
 31
0.0
  0
LINE
  5
1ED
  8
_________2
 62
     7
 10
76.76100000000001
 20
51.324300000000001
 30
0.0
 11
78.947999999999993
 21
51.324300000000001
 31
0.0
  0
LINE
  5
1EE
  8
_________2
 62
     7
 10
76.2684
 20
51.324300000000001
 30
0.0
 11
76.520499999999998
 21
51.324300000000001
 31
0.0
  0
LINE
  5
1EF
  8
_________2
 62
     7
 10
76.2684
 20
50.832399999999993
 30
0.0
 11
76.2684
 21
48.645400000000002
 31
0.0
  0
LINE
  5
1F0
  8
_________2
 62
     7
 10
76.2684
 20
51.324300000000001
 30
0.0
 11
76.2684
 21
51.072800000000001
 31
0.0
  0
LINE
  5
1F1
  8
_________2
 62
     7
 10
79.979399999999984
 20
50.104799999999997
 30
0.0
 11
85.157399999999996
 21
49.240000000000002
 31
0.0
  0
LINE
  5
1F2
  8
_________2
 62
     7
 10
79.979399999999984
 20
52.543900000000001
 30
0.0
 11
85.157399999999996
 21
53.409300000000002
 31
0.0
  0
LINE
  5
1F3
  8
_________2
 62
     7
 10
85.157399999999996
 20
49.240000000000002
 30
0.0
 11
85.157399999999996
 21
53.409300000000002
 31
0.0
  0
LINE
  5
1F4
  8
_________2
 62
     7
 10
79.979399999999984
 20
50.104799999999997
 30
0.0
 11
79.979399999999984
 21
52.543900000000001
 31
0.0
  0
ARC
  5
1F5
  8
_________2
 62
     7
 10
76.222110000000001
 20
51.277366999999991
 30
0.0
 40
1.2673709999999989
 50
2.1232950000000002
 51
87.909056000000007
  0
ARC
  5
1F6
  8
_________2
 62
     7
 10
76.315273000000005
 20
51.277400999999998
 30
0.0
 40
1.267363
 50
92.121785999999986
 51
177.878185
  0
ARC
  5
1F7
  8
_________2
 62
     7
 10
76.315273000000005
 20
51.371245999999992
 30
0.0
 40
1.267363
 50
182.12181499999991
 51
267.87821400000001
  0
ARC
  5
1F8
  8
_________2
 62
     7
 10
76.221461000000005
 20
51.371928999999987
 30
0.0
 40
1.2680439999999991
 50
272.11916400000001
 51
357.84848499999993
  0
ARC
  5
1F9
  8
_________2
 62
     7
 10
76.268349999999984
 20
51.324323
 30
0.0
 40
2.0849849999999992
 50
0.00001
 51
89.999980000000008
  0
ARC
  5
1FA
  8
_________2
 62
     7
 10
76.348388
 20
51.245001999999992
 30
0.0
 40
2.1657860000000002
 50
92.117855000000034
 51
177.90105299999991
  0
ARC
  5
1FB
  8
_________2
 62
     7
 10
76.348354
 20
51.404327000000002
 30
0.0
 40
2.1657779999999991
 50
182.11700400000001
 51
267.88302499999992
  0
ARC
  5
1FC
  8
_________2
 62
     7
 10
76.188378999999983
 20
51.405009999999997
 30
0.0
 40
2.1664590000000001
 50
272.11546800000002
 51
357.86560400000002
  0
TEXT
  5
1FD
  8
_________2
 62
     7
 10
109.5439999999999
 20
23.199100000000001
 30
0.0
 40
3.0923400000000001
  1
図番
 41
0.5
  0
LINE
  5
1FE
  8
_________2
 62
     7
 10
108.4889999999999
 20
27.4283
 30
0.0
 11
188.49000000000001
 21
27.4283
 31
0.0
  0
TEXT
  5
1FF
  8
_________2
 62
     7
 10
109.5439999999999
 20
33.198900000000002
 30
0.0
 40
3.0923400000000001
  1
品番
 41
0.5
  0
TEXT
  5
200
  8
_________2
 62
     7
 10
109.5439999999999
 20
53.337699999999998
 30
0.0
 40
3.0923400000000001
  1
名称
 41
0.5
  0
TEXT
  5
201
  8
_________2
 62
     7
 10
96.784058333333334
 20
48.341500000000011
 30
0.0
 40
3.6545800000000002
  1
mm
 41
0.5
 72
     1
 11
98.306799999999996
 21
48.341500000000011
 31
0.0
  0
TEXT
  5
202
  8
_________2
 62
     7
 10
90.582099999999997
 20
53.337699999999998
 30
0.0
 40
3.0923400000000001
  1
単位
 41
0.5
  0
TEXT
  5
203
  8
_________2
 62
     7
 10
90.582099999999997
 20
40.930399999999999
 30
0.0
 40
3.0923400000000001
  1
尺度
 41
0.5
  0
TEXT
  5
204
  8
_________2
 62
     7
 10
95.030836166666674
 20
34.73749999999999
 30
0.0
 40
3.6545800000000002
  1
1 ： 10
 41
0.5
 72
     1
 11
98.898600000000002
 21
34.73749999999999
 31
0.0
  0
TEXT
  5
205
  8
_________2
 62
     7
 10
143.07741250000001
 20
30.627400000000002
 30
0.0
 40
3.9357000000000002
  1
FL5083
 41
0.5
 72
     1
 11
148.489
 21
30.627400000000002
 31
0.0
  0
TEXT
  5
206
  8
_________2
 62
     7
 10
143.07741250000001
 20
20.626999999999988
 30
0.0
 40
3.9357000000000002
  1
FL5083
 41
0.5
 72
     1
 11
148.489
 21
20.626999999999988
 31
0.0
  0
TEXT
  5
207
  8
_________2
 62
     7
 10
29.525700000000001
 20
22.226900000000001
 30
0.0
 40
3.9357000000000002
  1
重量：15kg、実容量：5.2L オーバーフロー付
 41
0.5
  0
TEXT
  5
208
  8
_________2
 62
     7
 10
25.108699999999999
 20
60.349499999999999
 30
0.0
 40
4.4979399999999989
  1
※壁取付部には厚さ30mm以上の補強木を入れてください。
 41
0.5
  0
TEXT
  5
209
  8
_________2
 62
     7
 10
114.11799999999999
 20
45.7453
 30
0.0
 40
3.9357000000000002
  1
ヌーダ壁掛式洗面器
 41
0.5
  0
TEXT
  5
20A
  8
_________2
 62
     7
 10
44.303290666666669
 20
35.122599999999991
 30
0.0
 40
3.6545800000000002
  1
高橋
 41
0.5
 72
     1
 11
46.252400000000002
 21
35.122599999999991
 31
0.0
  0
TEXT
  5
20B
  8
_________2
 62
     7
 10
25.72929066666666
 20
35.122599999999991
 30
0.0
 40
3.6545800000000002
  1
石原
 41
0.5
 72
     1
 11
27.6784
 21
35.122599999999991
 31
0.0
  0
TEXT
  5
20C
  8
_________2
 62
     7
 10
72.724699999999999
 20
34.73749999999999
 30
0.0
 40
3.6545800000000002
  1
07.03.28
 41
0.5
  0
TEXT
  5
20D
  8
_________2
 62
     7
 10
71.531999999999996
 20
40.930399999999999
 30
0.0
 40
3.0923400000000001
  1
日付
 41
0.5
  0
TEXT
  5
20E
  8
_________2
 62
     7
 10
34.578299999999992
 20
40.930399999999999
 30
0.0
 40
3.0923400000000001
  1
検図
 41
0.5
  0
TEXT
  5
20F
  8
_________2
 62
     7
 10
22.960000000000001
 20
26.730999999999991
 30
0.0
 40
3.0923400000000001
  1
備考
 41
0.5
  0
TEXT
  5
210
  8
_________2
 62
     7
 10
22.960000000000001
 20
40.930399999999999
 30
0.0
 40
3.0923400000000001
  1
製図
 41
0.5
  0
TEXT
  5
211
  8
_________2
 62
     7
 10
28.727365333333339
 20
49.456400000000002
 30
0.0
 40
4.4979399999999989
  1
セラトレーディング株式会社
 41
0.5
 72
     1
 11
46.119399999999992
 21
49.456400000000002
 31
0.0
  0
LINE
  5
212
  8
_________2
 62
     7
 10
188.49000000000001
 20
17.428499999999989
 30
0.0
 11
21.988499999999991
 21
17.428499999999989
 31
0.0
  0
LINE
  5
213
  8
_________2
 62
     7
 10
21.988499999999991
 20
17.428499999999989
 30
0.0
 11
21.988499999999991
 21
280.42999999999989
 31
0.0
  0
LINE
  5
214
  8
_________2
 62
     7
 10
21.988499999999991
 20
280.42999999999989
 30
0.0
 11
188.49000000000001
 21
280.42999999999989
 31
0.0
  0
LINE
  5
215
  8
_________2
 62
     7
 10
188.49000000000001
 20
280.42999999999989
 30
0.0
 11
188.49000000000001
 21
17.428499999999989
 31
0.0
  0
LINE
  5
216
  8
_________2
 62
     7
 10
70.488799999999998
 20
30.9285
 30
0.0
 11
70.488799999999998
 21
57.428400000000011
 31
0.0
  0
LINE
  5
217
  8
_________2
 62
     7
 10
89.488600000000005
 20
30.9285
 30
0.0
 11
89.488600000000005
 21
57.428400000000011
 31
0.0
  0
LINE
  5
218
  8
_________2
 62
     7
 10
108.4889999999999
 20
17.428499999999989
 30
0.0
 11
108.4889999999999
 21
57.428400000000011
 31
0.0
  0
LINE
  5
219
  8
_________2
 62
     7
 10
33.488300000000002
 20
30.9285
 30
0.0
 11
33.488300000000002
 21
44.928800000000003
 31
0.0
  0
LINE
  5
21A
  8
_________2
 62
     7
 10
21.988499999999991
 20
30.9285
 30
0.0
 11
108.4889999999999
 21
30.9285
 31
0.0
  0
LINE
  5
21B
  8
_________2
 62
     7
 10
21.988499999999991
 20
44.928800000000003
 30
0.0
 11
108.4889999999999
 21
44.928800000000003
 31
0.0
  0
LINE
  5
21C
  8
_________2
 62
     7
 10
108.4889999999999
 20
37.428100000000001
 30
0.0
 11
188.49000000000001
 21
37.428100000000001
 31
0.0
  0
LINE
  5
21D
  8
_________2
 62
     7
 10
21.988499999999991
 20
57.428400000000011
 30
0.0
 11
188.49000000000001
 21
57.428400000000011
 31
0.0
  0
TEXT
  5
22A
  8
_________2
 62
     7
 10
25.108699999999999
 20
67.678336067496701
 30
0.0
 40
4.4979399999999989
  1
※カウンターにセットする場合も壁固定が必要です。
 41
0.5
  0
ENDSEC
  0
EOF
