  0
SECTION
  2
HEADER
  9
$ACADVER
  1
AC1009
  9
$INSBASE
 10
0.0
 20
0.0
 30
0.0
  9
$EXTMIN
 10
-4.7008599999999987
 20
-20.993200000000002
 30
0.0
  9
$EXTMAX
 10
205.30099999999999
 20
276.00900000000001
 30
0.0
  9
$LIMMIN
 10
0.0
 20
0.0
  9
$LIMMAX
 10
12.0
 20
9.0
  9
$ORTHOMODE
 70
     0
  9
$REGENMODE
 70
     1
  9
$FILLMODE
 70
     1
  9
$QTEXTMODE
 70
     0
  9
$MIRRTEXT
 70
     1
  9
$DRAGMODE
 70
     2
  9
$LTSCALE
 40
1.0
  9
$OSMODE
 70
    37
  9
$ATTMODE
 70
     1
  9
$TEXTSIZE
 40
0.0
  9
$TRACEWID
 40
0.05
  9
$TEXTSTYLE
  7
STANDARD
  9
$CLAYER
  8
0
  9
$CELTYPE
  6
CONTINUOUS
  9
$CECOLOR
 62
   256
  9
$DIMSCALE
 40
1.0
  9
$DIMASZ
 40
0.18
  9
$DIMEXO
 40
0.0625
  9
$DIMDLI
 40
0.38
  9
$DIMRND
 40
0.0
  9
$DIMDLE
 40
0.0
  9
$DIMEXE
 40
0.18
  9
$DIMTP
 40
0.0
  9
$DIMTM
 40
0.0
  9
$DIMTXT
 40
0.18
  9
$DIMCEN
 40
0.09
  9
$DIMTSZ
 40
0.0
  9
$DIMTOL
 70
     0
  9
$DIMLIM
 70
     0
  9
$DIMTIH
 70
     1
  9
$DIMTOH
 70
     1
  9
$DIMSE1
 70
     0
  9
$DIMSE2
 70
     0
  9
$DIMTAD
 70
     0
  9
$DIMZIN
 70
     0
  9
$DIMBLK
  1

  9
$DIMASO
 70
     1
  9
$DIMSHO
 70
     1
  9
$DIMPOST
  1

  9
$DIMAPOST
  1

  9
$DIMALT
 70
     0
  9
$DIMALTD
 70
     2
  9
$DIMALTF
 40
25.399999999999999
  9
$DIMLFAC
 40
1.0
  9
$DIMTOFL
 70
     0
  9
$DIMTVP
 40
0.0
  9
$DIMTIX
 70
     0
  9
$DIMSOXD
 70
     0
  9
$DIMSAH
 70
     0
  9
$DIMBLK1
  1

  9
$DIMBLK2
  1

  9
$DIMSTYLE
  2
STANDARD
  9
$DIMCLRD
 70
     0
  9
$DIMCLRE
 70
     0
  9
$DIMCLRT
 70
     0
  9
$DIMTFAC
 40
1.0
  9
$DIMGAP
 40
0.09
  9
$LUNITS
 70
     2
  9
$LUPREC
 70
     4
  9
$SKETCHINC
 40
0.1
  9
$FILLETRAD
 40
0.0
  9
$AUNITS
 70
     0
  9
$AUPREC
 70
     0
  9
$MENU
  1
.
  9
$ELEVATION
 40
0.0
  9
$PELEVATION
 40
0.0
  9
$THICKNESS
 40
0.0
  9
$LIMCHECK
 70
     0
  9
$BLIPMODE
 70
     0
  9
$CHAMFERA
 40
0.0
  9
$CHAMFERB
 40
0.0
  9
$SKPOLY
 70
     0
  9
$TDCREATE
 40
2444972.375
  9
$TDUPDATE
 40
2457130.2502081832
  9
$TDINDWG
 40
0.0000288079
  9
$TDUSRTIMER
 40
0.0000288079
  9
$USRTIMER
 70
     1
  9
$ANGBASE
 50
0.0
  9
$ANGDIR
 70
     0
  9
$PDMODE
 70
     0
  9
$PDSIZE
 40
0.0
  9
$PLINEWID
 40
0.0
  9
$COORDS
 70
     1
  9
$SPLFRAME
 70
     0
  9
$SPLINETYPE
 70
     6
  9
$SPLINESEGS
 70
     8
  9
$ATTDIA
 70
     1
  9
$ATTREQ
 70
     1
  9
$HANDLING
 70
     1
  9
$HANDSEED
  5
3D1
  9
$SURFTAB1
 70
     6
  9
$SURFTAB2
 70
     6
  9
$SURFTYPE
 70
     6
  9
$SURFU
 70
     6
  9
$SURFV
 70
     6
  9
$UCSNAME
  2

  9
$UCSORG
 10
0.0
 20
0.0
 30
0.0
  9
$UCSXDIR
 10
1.0
 20
0.0
 30
0.0
  9
$UCSYDIR
 10
0.0
 20
1.0
 30
0.0
  9
$PUCSNAME
  2

  9
$PUCSORG
 10
0.0
 20
0.0
 30
0.0
  9
$PUCSXDIR
 10
1.0
 20
0.0
 30
0.0
  9
$PUCSYDIR
 10
0.0
 20
1.0
 30
0.0
  9
$USERI1
 70
     0
  9
$USERI2
 70
     0
  9
$USERI3
 70
     0
  9
$USERI4
 70
     0
  9
$USERI5
 70
     0
  9
$USERR1
 40
0.0
  9
$USERR2
 40
0.0
  9
$USERR3
 40
0.0
  9
$USERR4
 40
0.0
  9
$USERR5
 40
0.0
  9
$WORLDVIEW
 70
     1
  9
$SHADEDGE
 70
     3
  9
$SHADEDIF
 70
    70
  9
$TILEMODE
 70
     1
  9
$MAXACTVP
 70
    48
  9
$PLIMCHECK
 70
     0
  9
$PEXTMIN
 10
1.0000000000000000E+020
 20
1.0000000000000000E+020
 30
1.0000000000000000E+020
  9
$PEXTMAX
 10
-1.0000000000000000E+020
 20
-1.0000000000000000E+020
 30
-1.0000000000000000E+020
  9
$PLIMMIN
 10
0.0
 20
0.0
  9
$PLIMMAX
 10
12.0
 20
9.0
  9
$UNITMODE
 70
     0
  9
$VISRETAIN
 70
     1
  9
$PLINEGEN
 70
     0
  9
$PSLTSCALE
 70
     1
  0
ENDSEC
  0
SECTION
  2
TABLES
  0
TABLE
  2
VPORT
 70
     1
  0
VPORT
  2
*ACTIVE
 70
     0
 10
0.0
 20
0.0
 11
1.0
 21
1.0
 12
162.6905418715782
 22
127.50790000000001
 13
0.0
 23
0.0
 14
1.0
 24
1.0
 15
0.0
 25
0.0
 16
0.0
 26
0.0
 36
1.0
 17
0.0
 27
0.0
 37
0.0
 40
289.7668533799656
 41
2.1063583815028899
 42
50.0
 43
0.0
 44
0.0
 50
0.0
 51
0.0
 71
     0
 72
   100
 73
     1
 74
     1
 75
     0
 76
     0
 77
     0
 78
     0
  0
ENDTAB
  0
TABLE
  2
LTYPE
 70
     3
  0
LTYPE
  2
CONTINUOUS
 70
     0
  3
Solid line
 72
    65
 73
     0
 40
0.0
  0
LTYPE
  2
AIGENLINE001
 70
     0
  3
generate AI->DXF Converter
 72
    65
 73
     2
 40
1.5522299999999991
 49
0.776115
 49
-0.776115
  0
LTYPE
  2
AIGENLINE002
 70
     0
  3
generate AI->DXF Converter
 72
    65
 73
     4
 40
5.8561449999999988
 49
3.5278
 49
-0.776115
 49
0.776115
 49
-0.776115
  0
ENDTAB
  0
TABLE
  2
LAYER
 70
     2
  0
LAYER
  2
0
 70
     0
 62
     7
  6
CONTINUOUS
  0
LAYER
  2
_________2
 70
     0
 62
     7
  6
CONTINUOUS
  0
ENDTAB
  0
TABLE
  2
STYLE
 70
     1
  0
STYLE
  2
STANDARD
 70
     0
 40
0.0
 41
0.0
 50
0.0
 71
     0
 42
0.0
  3
TXT
  4
EXTFONT.SHX
  0
ENDTAB
  0
TABLE
  2
VIEW
 70
     0
  0
ENDTAB
  0
TABLE
  2
UCS
 70
     0
  0
ENDTAB
  0
TABLE
  2
APPID
 70
     3
  0
APPID
  2
ACAD
 70
     0
  0
APPID
  2
ACAD_NAV_VCDISPLAY
 70
     0
  0
APPID
  2
ACAD_MLEADERVER
 70
     0
  0
ENDTAB
  0
TABLE
  2
DIMSTYLE
 70
     1
  0
DIMSTYLE
  2
STANDARD
 70
     0
  3

  4

  5

  6

  7

 40
1.0
 41
0.18
 42
0.0625
 43
0.38
 44
0.18
 45
0.0
 46
0.0
 47
0.0
 48
0.0
140
0.18
141
0.09
142
0.0
143
25.399999999999999
144
1.0
145
0.0
146
1.0
147
0.09
 71
     0
 72
     0
 73
     1
 74
     1
 75
     0
 76
     0
 77
     0
 78
     0
170
     0
171
     2
172
     0
173
     0
174
     0
175
     0
176
     0
177
     0
178
     0
  0
ENDTAB
  0
ENDSEC
  0
SECTION
  2
BLOCKS
  0
BLOCK
  8
0
  2
$MODEL_SPACE
 70
     0
 10
0.0
 20
0.0
 30
0.0
  3
$MODEL_SPACE
  1

  0
ENDBLK
  5
1A
  8
0
  0
BLOCK
 67
     1
  8
0
  2
$PAPER_SPACE
 70
     0
 10
0.0
 20
0.0
 30
0.0
  3
$PAPER_SPACE
  1

  0
ENDBLK
  5
17
 67
     1
  8
0
  0
ENDSEC
  0
SECTION
  2
ENTITIES
  0
TEXT
  5
23
  8
0
 62
     7
 10
172.876
 20
98.081900833333364
 30
0.0
 40
3.660169999999999
  1
155
 50
90.0
 41
0.5
 72
     1
 11
172.876
 21
100.217
 31
0.0
  0
TEXT
  5
24
  8
0
 62
     7
 10
167.06599999999989
 20
86.618499999999983
 30
0.0
 40
3.660169999999999
  1
26
 50
90.0
 41
0.5
  0
TEXT
  5
25
  8
0
 62
     7
 10
110.352
 20
97.482500833333333
 30
0.0
 40
3.660169999999999
  1
143
 50
90.0
 41
0.5
 72
     1
 11
110.352
 21
99.617599999999996
 31
0.0
  0
TEXT
  5
26
  8
0
 62
     7
 10
136.8128866666666
 20
83.676399999999987
 30
0.0
 40
3.660169999999999
  1
436
 41
0.5
 72
     1
 11
139.25299999999999
 21
83.676399999999987
 31
0.0
  0
TEXT
  5
27
  8
0
 62
     7
 10
129.49254666666661
 20
156.61699999999999
 30
0.0
 40
3.660169999999999
  1
カウンター切込寸法
 41
0.5
 72
     1
 11
139.25299999999999
 21
156.61699999999999
 31
0.0
  0
TEXT
  5
28
  8
0
 62
     7
 10
136.96539375
 20
117.95
 30
0.0
 40
3.660169999999999
  1
440
 41
0.5
 72
     1
 11
139.25299999999999
 21
117.95
 31
0.0
  0
TEXT
  5
29
  8
0
 62
     7
 10
96.306500000000014
 20
98.984407916666683
 30
0.0
 40
3.660169999999999
  1
170
 50
90.0
 41
0.5
 72
     1
 11
96.306500000000014
 21
100.967
 31
0.0
  0
TEXT
  5
2A
  8
0
 62
     7
 10
89.568399999999997
 20
97.732600833333336
 30
0.0
 40
3.660169999999999
  1
148
 50
90.0
 41
0.5
 72
     1
 11
89.568399999999997
 21
99.867699999999985
 31
0.0
  0
TEXT
  5
2B
  8
0
 62
     7
 10
30.987100000000002
 20
98.482900833333332
 30
0.0
 40
3.660169999999999
  1
163
 50
90.0
 41
0.5
 72
     1
 11
30.987100000000002
 21
100.61799999999999
 31
0.0
  0
TEXT
  5
2C
  8
0
 62
     7
 10
30.987100000000002
 20
170.87239374999999
 30
0.0
 40
3.660169999999999
  1
440
 50
90.0
 41
0.5
 72
     1
 11
30.987100000000002
 21
173.16
 31
0.0
  0
TEXT
  5
2D
  8
0
 62
     7
 10
150.25273083333329
 20
184.05500000000001
 30
0.0
 40
3.660169999999999
  1
%%c180
 41
0.5
 72
     2
 11
156.048
 21
184.05500000000001
 31
0.0
  0
TEXT
  5
2E
  8
0
 62
     7
 10
68.047373333333326
 20
179.398
 30
0.0
 40
3.660169999999999
  1
%%c45
 41
0.5
 72
     2
 11
72.927599999999998
 21
179.398
 31
0.0
  0
TEXT
  5
2F
  8
0
 62
     7
 10
59.315486666666672
 20
83.676399999999987
 30
0.0
 40
3.660169999999999
  1
436
 41
0.5
 72
     1
 11
61.755600000000001
 21
83.676399999999987
 31
0.0
  0
TEXT
  5
30
  8
0
 62
     7
 10
59.467993749999998
 20
117.95
 30
0.0
 40
3.660169999999999
  1
440
 41
0.5
 72
     1
 11
61.755600000000001
 21
117.95
 31
0.0
  0
TEXT
  5
31
  8
0
 62
     7
 10
59.467993749999998
 20
203.75899999999999
 30
0.0
 40
3.660169999999999
  1
440
 41
0.5
 72
     1
 11
61.755600000000001
 21
203.75899999999999
 31
0.0
  0
LINE
  5
32
  8
0
  6
AIGENLINE001
 62
     7
 10
136.87899999999999
 20
93.665800000000004
 30
0.0
 11
141.464
 21
93.665800000000004
 31
0.0
  0
LINE
  5
33
  8
0
  6
AIGENLINE001
 62
     7
 10
135.07599999999999
 20
95.072799999999987
 30
0.0
 11
143.256
 21
95.072799999999987
 31
0.0
  0
LINE
  5
34
  8
0
  6
AIGENLINE001
 62
     7
 10
121.947
 20
96.271000000000001
 30
0.0
 11
122.02500000000001
 21
96.010599999999997
 31
0.0
  0
LINE
  5
35
  8
0
  6
AIGENLINE001
 62
     7
 10
122.02500000000001
 20
96.010599999999997
 30
0.0
 11
122.18000000000001
 21
95.750100000000003
 31
0.0
  0
LINE
  5
36
  8
0
  6
AIGENLINE001
 62
     7
 10
122.18000000000001
 20
95.750100000000003
 30
0.0
 11
122.389
 21
95.568200000000004
 31
0.0
  0
LINE
  5
37
  8
0
  6
AIGENLINE001
 62
     7
 10
122.389
 20
95.568200000000004
 30
0.0
 11
122.65000000000001
 21
95.437299999999993
 31
0.0
  0
LINE
  5
38
  8
0
  6
AIGENLINE001
 62
     7
 10
122.65000000000001
 20
95.437299999999993
 30
0.0
 11
122.93600000000001
 21
95.385699999999986
 31
0.0
  0
LINE
  5
39
  8
0
  6
AIGENLINE001
 62
     7
 10
122.93600000000001
 20
95.385699999999986
 30
0.0
 11
134.86799999999999
 21
95.072799999999987
 31
0.0
  0
LINE
  5
3A
  8
0
  6
AIGENLINE001
 62
     7
 10
134.86799999999999
 20
95.072799999999987
 30
0.0
 11
135.07599999999999
 21
95.072799999999987
 31
0.0
  0
ARC
  5
3B
  8
0
  6
AIGENLINE001
 62
     7
 10
56.559126999999997
 20
90.896990000000017
 30
0.0
 40
65.608157999999989
 50
4.6984409999999999
 51
9.6390370000000001
  0
ARC
  5
3C
  8
0
  6
AIGENLINE001
 62
     7
 10
51.899784000000011
 20
90.309290000000004
 30
0.0
 40
70.300411999999994
 50
9.4754140000000007
 51
15.625558
  0
LINE
  5
3D
  8
0
  6
AIGENLINE001
 62
     7
 10
135.67599999999999
 20
92.676400000000001
 30
0.0
 11
135.67599999999999
 21
93.561800000000005
 31
0.0
  0
LINE
  5
3E
  8
0
  6
AIGENLINE001
 62
     7
 10
135.67599999999999
 20
93.561800000000005
 30
0.0
 11
135.62299999999999
 21
93.744399999999985
 31
0.0
  0
LINE
  5
3F
  8
0
  6
AIGENLINE001
 62
     7
 10
135.62299999999999
 20
93.744399999999985
 30
0.0
 11
135.51900000000001
 21
93.900800000000004
 31
0.0
  0
LINE
  5
40
  8
0
  6
AIGENLINE001
 62
     7
 10
135.51900000000001
 20
93.900800000000004
 30
0.0
 11
135.363
 21
94.030299999999997
 31
0.0
  0
LINE
  5
41
  8
0
  6
AIGENLINE001
 62
     7
 10
135.363
 20
94.030299999999997
 30
0.0
 11
135.18000000000001
 21
94.056499999999986
 31
0.0
  0
LINE
  5
42
  8
0
  6
AIGENLINE001
 62
     7
 10
135.18000000000001
 20
94.056499999999986
 30
0.0
 11
130.61699999999999
 21
94.177099999999996
 31
0.0
  0
LINE
  5
43
  8
0
  6
AIGENLINE001
 62
     7
 10
135.67599999999999
 20
92.676400000000001
 30
0.0
 11
135.727
 21
92.519999999999996
 31
0.0
  0
LINE
  5
44
  8
0
  6
AIGENLINE001
 62
     7
 10
135.727
 20
92.519999999999996
 30
0.0
 11
135.88399999999999
 21
92.467600000000004
 31
0.0
  0
LINE
  5
45
  8
0
  6
AIGENLINE001
 62
     7
 10
136.71700000000001
 20
92.467600000000004
 30
0.0
 11
135.88399999999999
 21
92.467600000000004
 31
0.0
  0
LINE
  5
46
  8
0
  6
AIGENLINE001
 62
     7
 10
136.71700000000001
 20
92.467600000000004
 30
0.0
 11
136.874
 21
92.519999999999996
 31
0.0
  0
LINE
  5
47
  8
0
  6
AIGENLINE001
 62
     7
 10
136.874
 20
92.519999999999996
 30
0.0
 11
136.92599999999999
 21
92.676400000000001
 31
0.0
  0
LINE
  5
48
  8
0
  6
AIGENLINE001
 62
     7
 10
135.07599999999999
 20
95.072799999999987
 30
0.0
 11
135.33699999999999
 21
94.968100000000007
 31
0.0
  0
LINE
  5
49
  8
0
  6
AIGENLINE001
 62
     7
 10
135.33699999999999
 20
94.968100000000007
 30
0.0
 11
136.84800000000001
 21
93.718199999999996
 31
0.0
  0
LINE
  5
4A
  8
0
  6
AIGENLINE001
 62
     7
 10
136.84800000000001
 20
93.718199999999996
 30
0.0
 11
136.92599999999999
 21
93.587999999999994
 31
0.0
  0
LINE
  5
4B
  8
0
  6
AIGENLINE001
 62
     7
 10
136.92599999999999
 20
93.587999999999994
 30
0.0
 11
136.92599999999999
 21
92.676400000000001
 31
0.0
  0
LINE
  5
4C
  8
0
  6
AIGENLINE001
 62
     7
 10
121.947
 20
96.271000000000001
 30
0.0
 11
121.947
 21
96.297200000000004
 31
0.0
  0
LINE
  5
4D
  8
0
  6
AIGENLINE001
 62
     7
 10
136.71700000000001
 20
92.467600000000004
 30
0.0
 11
141.61500000000001
 21
92.467600000000004
 31
0.0
  0
LINE
  5
4E
  8
0
  6
AIGENLINE001
 62
     7
 10
141.43299999999999
 20
92.676400000000001
 30
0.0
 11
141.43299999999999
 21
93.587999999999994
 31
0.0
  0
LINE
  5
4F
  8
0
  6
AIGENLINE001
 62
     7
 10
141.43299999999999
 20
93.587999999999994
 30
0.0
 11
141.48500000000001
 21
93.718199999999996
 31
0.0
  0
LINE
  5
50
  8
0
  6
AIGENLINE001
 62
     7
 10
141.48500000000001
 20
93.718199999999996
 30
0.0
 11
143.02199999999999
 21
94.968100000000007
 31
0.0
  0
LINE
  5
51
  8
0
  6
AIGENLINE001
 62
     7
 10
143.02199999999999
 20
94.968100000000007
 30
0.0
 11
143.256
 21
95.072799999999987
 31
0.0
  0
LINE
  5
52
  8
0
  6
AIGENLINE001
 62
     7
 10
143.256
 20
95.072799999999987
 30
0.0
 11
143.465
 21
95.072799999999987
 31
0.0
  0
LINE
  5
53
  8
0
  6
AIGENLINE001
 62
     7
 10
141.43299999999999
 20
92.676400000000001
 30
0.0
 11
141.48500000000001
 21
92.519999999999996
 31
0.0
  0
LINE
  5
54
  8
0
  6
AIGENLINE001
 62
     7
 10
141.48500000000001
 20
92.519999999999996
 30
0.0
 11
141.61500000000001
 21
92.467600000000004
 31
0.0
  0
LINE
  5
55
  8
0
  6
AIGENLINE001
 62
     7
 10
142.47499999999999
 20
92.467600000000004
 30
0.0
 11
141.61500000000001
 21
92.467600000000004
 31
0.0
  0
LINE
  5
56
  8
0
  6
AIGENLINE001
 62
     7
 10
142.47499999999999
 20
92.467600000000004
 30
0.0
 11
142.60499999999999
 21
92.519999999999996
 31
0.0
  0
LINE
  5
57
  8
0
  6
AIGENLINE001
 62
     7
 10
142.60499999999999
 20
92.519999999999996
 30
0.0
 11
142.684
 21
92.676400000000001
 31
0.0
  0
LINE
  5
58
  8
0
  6
AIGENLINE001
 62
     7
 10
147.44300000000001
 20
94.170199999999994
 30
0.0
 11
143.15199999999999
 21
94.056499999999986
 31
0.0
  0
ARC
  5
59
  8
0
  6
AIGENLINE001
 62
     7
 10
143.15666100000001
 20
93.476193000000009
 30
0.0
 40
0.580349
 50
90.440294999999978
 51
106.337307
  0
ARC
  5
5A
  8
0
  6
AIGENLINE001
 62
     7
 10
143.112629
 20
93.655843999999988
 30
0.0
 40
0.395653
 50
107.536418
 51
149.62994599999999
  0
ARC
  5
5B
  8
0
  6
AIGENLINE001
 62
     7
 10
143.29266899999999
 20
93.546053000000015
 30
0.0
 40
0.6065070000000001
 50
149.280429
 51
167.121589
  0
ARC
  5
5C
  8
0
  6
AIGENLINE001
 62
     7
 10
143.88163399999999
 20
93.391028000000006
 30
0.0
 40
1.2153709999999991
 50
166.18550500000001
 51
178.62609900000001
  0
ARC
  5
5D
  8
0
  6
AIGENLINE001
 62
     7
 10
145.30165099999999
 20
93.312028999999995
 30
0.0
 40
2.6372569999999991
 50
177.64993000000001
 51
181.74058099999999
  0
ARC
  5
5E
  8
0
  6
AIGENLINE001
 62
     7
 10
151.22941499999999
 20
93.516109
 30
0.0
 40
8.5685179999999992
 50
181.900644
 51
184.009412
  0
ARC
  5
5F
  8
0
  6
AIGENLINE001
 62
     7
 10
141.16637499999999
 20
92.785371999999995
 30
0.0
 40
1.5211980000000001
 50
355.89245
 51
4.9638809999999989
  0
ARC
  5
60
  8
0
  6
AIGENLINE001
 62
     7
 10
181.146027
 20
98.610468999999995
 30
0.0
 40
22.229937
 50
155.327158
 51
175.28011799999999
  0
LINE
  5
61
  8
0
  6
AIGENLINE001
 62
     7
 10
143.465
 20
95.072799999999987
 30
0.0
 11
157.68899999999999
 21
95.437299999999993
 31
0.0
  0
LINE
  5
62
  8
0
  6
AIGENLINE001
 62
     7
 10
157.68899999999999
 20
95.437299999999993
 30
0.0
 11
157.97499999999999
 21
95.489699999999999
 31
0.0
  0
LINE
  5
63
  8
0
  6
AIGENLINE001
 62
     7
 10
157.97499999999999
 20
95.489699999999999
 30
0.0
 11
158.23599999999999
 21
95.619899999999987
 31
0.0
  0
LINE
  5
64
  8
0
  6
AIGENLINE001
 62
     7
 10
158.23599999999999
 20
95.619899999999987
 30
0.0
 11
158.44399999999999
 21
95.827999999999975
 31
0.0
  0
LINE
  5
65
  8
0
  6
AIGENLINE001
 62
     7
 10
158.44399999999999
 20
95.827999999999975
 30
0.0
 11
158.57499999999999
 21
96.088499999999996
 31
0.0
  0
LINE
  5
66
  8
0
  6
AIGENLINE001
 62
     7
 10
158.57499999999999
 20
96.088499999999996
 30
0.0
 11
158.65199999999999
 21
96.349599999999995
 31
0.0
  0
LINE
  5
67
  8
0
  6
AIGENLINE001
 62
     7
 10
158.65199999999999
 20
96.349599999999995
 30
0.0
 11
158.99100000000001
 21
100.44
 31
0.0
  0
LINE
  5
68
  8
0
  6
AIGENLINE001
 62
     7
 10
157.68899999999999
 20
95.437299999999993
 30
0.0
 11
157.6629999999999
 21
95.437299999999993
 31
0.0
  0
LINE
  5
69
  8
0
  6
AIGENLINE001
 62
     7
 10
121.947
 20
96.271000000000001
 30
0.0
 11
121.947
 21
96.297200000000004
 31
0.0
  0
LINE
  5
6A
  8
0
 62
     7
 10
156.048
 20
182.625
 30
0.0
 11
148.71799999999999
 21
182.625
 31
0.0
  0
LINE
  5
6B
  8
0
 62
     7
 10
134.03399999999999
 20
168.77799999999999
 30
0.0
 11
132.88900000000001
 21
166.79599999999999
 31
0.0
  0
LINE
  5
6C
  8
0
 62
     7
 10
132.88900000000001
 20
166.79599999999999
 30
0.0
 11
134.87200000000001
 21
167.94
 31
0.0
  0
LINE
  5
6D
  8
0
 62
     7
 10
134.87200000000001
 20
167.94
 30
0.0
 11
134.03399999999999
 21
168.77799999999999
 31
0.0
  0
LINE
  5
6E
  8
0
 62
     7
 10
144.47200000000001
 20
177.541
 30
0.0
 11
145.61699999999999
 21
179.524
 31
0.0
  0
LINE
  5
6F
  8
0
 62
     7
 10
145.61699999999999
 20
179.524
 30
0.0
 11
143.63399999999999
 21
178.37899999999999
 31
0.0
  0
LINE
  5
70
  8
0
 62
     7
 10
143.63399999999999
 20
178.37899999999999
 30
0.0
 11
144.47200000000001
 21
177.541
 31
0.0
  0
LINE
  5
71
  8
0
 62
     7
 10
132.88900000000001
 20
166.79599999999999
 30
0.0
 11
148.71799999999999
 21
182.625
 31
0.0
  0
LINE
  5
72
  8
0
 62
     7
 10
72.927599999999998
 20
178.07400000000001
 30
0.0
 11
66.670400000000001
 21
178.07400000000001
 31
0.0
  0
LINE
  5
73
  8
0
 62
     7
 10
173.0679999999999
 20
94.678700000000006
 30
0.0
 11
173.66
 21
92.467600000000004
 31
0.0
  0
LINE
  5
74
  8
0
 62
     7
 10
173.66
 20
92.467600000000004
 30
0.0
 11
174.25299999999999
 21
94.678700000000006
 31
0.0
  0
LINE
  5
75
  8
0
 62
     7
 10
174.25299999999999
 20
94.678700000000006
 30
0.0
 11
173.0679999999999
 21
94.678700000000006
 31
0.0
  0
LINE
  5
76
  8
0
 62
     7
 10
174.239
 20
105.756
 30
0.0
 11
173.64599999999999
 21
107.967
 31
0.0
  0
LINE
  5
77
  8
0
 62
     7
 10
173.64599999999999
 20
107.967
 30
0.0
 11
173.053
 21
105.756
 31
0.0
  0
LINE
  5
78
  8
0
 62
     7
 10
173.053
 20
105.756
 30
0.0
 11
174.239
 21
105.756
 31
0.0
  0
LINE
  5
79
  8
0
 62
     7
 10
173.64599999999999
 20
92.467600000000004
 30
0.0
 11
173.64599999999999
 21
107.967
 31
0.0
  0
LINE
  5
7A
  8
0
 62
     7
 10
174.34599999999989
 20
107.967
 30
0.0
 11
161.97999999999999
 21
107.967
 31
0.0
  0
LINE
  5
7B
  8
0
 62
     7
 10
167.38999999999999
 20
97.279100000000014
 30
0.0
 11
167.983
 21
95.067300000000003
 31
0.0
  0
LINE
  5
7C
  8
0
 62
     7
 10
167.983
 20
95.067300000000003
 30
0.0
 11
168.57499999999999
 21
97.279100000000014
 31
0.0
  0
LINE
  5
7D
  8
0
 62
     7
 10
168.57499999999999
 20
97.279100000000014
 30
0.0
 11
167.38999999999999
 21
97.279100000000014
 31
0.0
  0
LINE
  5
7E
  8
0
 62
     7
 10
168.57499999999999
 20
90.255899999999997
 30
0.0
 11
167.983
 21
92.467600000000004
 31
0.0
  0
LINE
  5
7F
  8
0
 62
     7
 10
167.983
 20
92.467600000000004
 30
0.0
 11
167.38999999999999
 21
90.255899999999997
 31
0.0
  0
LINE
  5
80
  8
0
 62
     7
 10
167.38999999999999
 20
90.255899999999997
 30
0.0
 11
168.57499999999999
 21
90.255899999999997
 31
0.0
  0
LINE
  5
81
  8
0
 62
     7
 10
167.983
 20
86.618499999999983
 30
0.0
 11
167.983
 21
99.016800000000003
 31
0.0
  0
LINE
  5
82
  8
0
 62
     7
 10
168.68299999999999
 20
95.067300000000003
 30
0.0
 11
155.779
 21
95.067300000000003
 31
0.0
  0
LINE
  5
83
  8
0
 62
     7
 10
174.34599999999989
 20
92.467600000000004
 30
0.0
 11
161.97999999999999
 21
92.467600000000004
 31
0.0
  0
LINE
  5
84
  8
0
 62
     7
 10
96.599199999999996
 20
94.678700000000006
 30
0.0
 11
97.191800000000015
 21
92.467600000000004
 31
0.0
  0
LINE
  5
85
  8
0
 62
     7
 10
97.191800000000015
 20
92.467600000000004
 30
0.0
 11
97.784300000000002
 21
94.678700000000006
 31
0.0
  0
LINE
  5
86
  8
0
 62
     7
 10
97.784300000000002
 20
94.678700000000006
 30
0.0
 11
96.599199999999996
 21
94.678700000000006
 31
0.0
  0
LINE
  5
87
  8
0
 62
     7
 10
97.769800000000004
 20
107.256
 30
0.0
 11
97.177300000000017
 21
109.467
 31
0.0
  0
LINE
  5
88
  8
0
 62
     7
 10
97.177300000000017
 20
109.467
 30
0.0
 11
96.584700000000012
 21
107.256
 31
0.0
  0
LINE
  5
89
  8
0
 62
     7
 10
96.584700000000012
 20
107.256
 30
0.0
 11
97.769800000000004
 21
107.256
 31
0.0
  0
LINE
  5
8A
  8
0
 62
     7
 10
97.177300000000017
 20
92.467600000000004
 30
0.0
 11
97.177300000000017
 21
109.467
 31
0.0
  0
LINE
  5
8B
  8
0
 62
     7
 10
97.877300000000005
 20
109.467
 30
0.0
 11
72.364900000000006
 21
109.467
 31
0.0
  0
LINE
  5
8C
  8
0
 62
     7
 10
89.901899999999998
 20
94.678700000000006
 30
0.0
 11
90.494399999999999
 21
92.467600000000004
 31
0.0
  0
LINE
  5
8D
  8
0
 62
     7
 10
90.494399999999999
 20
92.467600000000004
 30
0.0
 11
91.087000000000003
 21
94.678700000000006
 31
0.0
  0
LINE
  5
8E
  8
0
 62
     7
 10
91.087000000000003
 20
94.678700000000006
 30
0.0
 11
89.901899999999998
 21
94.678700000000006
 31
0.0
  0
LINE
  5
8F
  8
0
 62
     7
 10
91.072500000000005
 20
105.056
 30
0.0
 11
90.480000000000004
 21
107.268
 31
0.0
  0
LINE
  5
90
  8
0
 62
     7
 10
90.480000000000004
 20
107.268
 30
0.0
 11
89.887399999999985
 21
105.056
 31
0.0
  0
LINE
  5
91
  8
0
 62
     7
 10
89.887399999999985
 20
105.056
 30
0.0
 11
91.072500000000005
 21
105.056
 31
0.0
  0
LINE
  5
92
  8
0
 62
     7
 10
90.480000000000004
 20
92.467600000000004
 30
0.0
 11
90.480000000000004
 21
107.268
 31
0.0
  0
LINE
  5
93
  8
0
 62
     7
 10
91.180000000000007
 20
107.268
 30
0.0
 11
84.477199999999996
 21
107.268
 31
0.0
  0
LINE
  5
94
  8
0
 62
     7
 10
97.877300000000005
 20
92.467600000000004
 30
0.0
 11
84.477199999999996
 21
92.467600000000004
 31
0.0
  0
LINE
  5
95
  8
0
 62
     7
 10
110.526
 20
94.678700000000006
 30
0.0
 11
111.11799999999999
 21
92.467600000000004
 31
0.0
  0
LINE
  5
96
  8
0
 62
     7
 10
111.11799999999999
 20
92.467600000000004
 30
0.0
 11
111.711
 21
94.678700000000006
 31
0.0
  0
LINE
  5
97
  8
0
 62
     7
 10
111.711
 20
94.678700000000006
 30
0.0
 11
110.526
 21
94.678700000000006
 31
0.0
  0
LINE
  5
98
  8
0
 62
     7
 10
111.696
 20
104.556
 30
0.0
 11
111.104
 21
106.768
 31
0.0
  0
LINE
  5
99
  8
0
 62
     7
 10
111.104
 20
106.768
 30
0.0
 11
110.511
 21
104.556
 31
0.0
  0
LINE
  5
9A
  8
0
 62
     7
 10
110.511
 20
104.556
 30
0.0
 11
111.696
 21
104.556
 31
0.0
  0
LINE
  5
9B
  8
0
 62
     7
 10
111.104
 20
92.467600000000004
 30
0.0
 11
111.104
 21
106.768
 31
0.0
  0
LINE
  5
9C
  8
0
 62
     7
 10
110.404
 20
106.768
 30
0.0
 11
116.078
 21
106.768
 31
0.0
  0
LINE
  5
9D
  8
0
 62
     7
 10
110.404
 20
92.467600000000004
 30
0.0
 11
116.078
 21
92.467600000000004
 31
0.0
  0
LINE
  5
9E
  8
0
 62
     7
 10
31.273900000000001
 20
94.678700000000006
 30
0.0
 11
31.866499999999998
 21
92.467600000000004
 31
0.0
  0
LINE
  5
9F
  8
0
 62
     7
 10
31.866499999999998
 20
92.467600000000004
 30
0.0
 11
32.45900000000001
 21
94.678700000000006
 31
0.0
  0
LINE
  5
A0
  8
0
 62
     7
 10
32.45900000000001
 20
94.678700000000006
 30
0.0
 11
31.273900000000001
 21
94.678700000000006
 31
0.0
  0
LINE
  5
A1
  8
0
 62
     7
 10
32.444600000000001
 20
106.556
 30
0.0
 11
31.852
 21
108.768
 31
0.0
  0
LINE
  5
A2
  8
0
 62
     7
 10
31.852
 20
108.768
 30
0.0
 11
31.259399999999999
 21
106.556
 31
0.0
  0
LINE
  5
A3
  8
0
 62
     7
 10
31.259399999999999
 20
106.556
 30
0.0
 11
32.444600000000001
 21
106.556
 31
0.0
  0
LINE
  5
A4
  8
0
 62
     7
 10
31.852
 20
92.467600000000004
 30
0.0
 11
31.852
 21
108.768
 31
0.0
  0
LINE
  5
A5
  8
0
 62
     7
 10
32.444600000000001
 20
192.94800000000001
 30
0.0
 11
31.852
 21
195.16
 31
0.0
  0
LINE
  5
A6
  8
0
 62
     7
 10
31.852
 20
195.16
 30
0.0
 11
31.259399999999999
 21
192.94800000000001
 31
0.0
  0
LINE
  5
A7
  8
0
 62
     7
 10
31.259399999999999
 20
192.94800000000001
 30
0.0
 11
32.444600000000001
 21
192.94800000000001
 31
0.0
  0
LINE
  5
A8
  8
0
 62
     7
 10
31.273900000000001
 20
153.37100000000001
 30
0.0
 11
31.866499999999998
 21
151.15899999999999
 31
0.0
  0
LINE
  5
A9
  8
0
 62
     7
 10
31.866499999999998
 20
151.15899999999999
 30
0.0
 11
32.45900000000001
 21
153.37100000000001
 31
0.0
  0
LINE
  5
AA
  8
0
 62
     7
 10
32.45900000000001
 20
153.37100000000001
 30
0.0
 11
31.273900000000001
 21
153.37100000000001
 31
0.0
  0
LINE
  5
AB
  8
0
 62
     7
 10
31.852
 20
195.16
 30
0.0
 11
31.852
 21
151.15899999999999
 31
0.0
  0
ARC
  5
AC
  8
0
 62
     7
 10
61.755706999999987
 20
173.159604
 30
0.0
 40
3.4999809999999991
 50
269.99860999999999
 51
359.99858
  0
ARC
  5
AD
  8
0
 62
     7
 10
61.755534999999988
 20
173.159603
 30
0.0
 40
3.4999799999999999
 50
180.00142
 51
270.00143000000003
  0
ARC
  5
AE
  8
0
 62
     7
 10
61.755535999999999
 20
173.15943100000001
 30
0.0
 40
3.4999809999999991
 50
89.998589999999993
 51
179.99856
  0
ARC
  5
AF
  8
0
 62
     7
 10
61.755706999999987
 20
173.15943100000001
 30
0.0
 40
3.4999809999999991
 50
0.00142
 51
90.001390000000001
  0
ARC
  5
B0
  8
0
 62
     7
 10
139.253016
 20
173.15951899999999
 30
0.0
 40
9.0000260000000001
 50
270.00002000000001
 51
359.99999000000003
  0
ARC
  5
B1
  8
0
 62
     7
 10
139.253016
 20
173.159516
 30
0.0
 40
9.0000229999999988
 50
179.99996999999999
 51
270.00002000000001
  0
ARC
  5
B2
  8
0
 62
     7
 10
139.25301899999999
 20
173.159516
 30
0.0
 40
9.0000260000000001
 50
90.0
 51
179.99996999999999
  0
ARC
  5
B3
  8
0
 62
     7
 10
139.253016
 20
173.159516
 30
0.0
 40
9.0000260000000001
 50
0.00001
 51
89.999980000000008
  0
ARC
  5
B4
  8
0
 62
     7
 10
61.755620999999998
 20
173.15951799999999
 30
0.0
 40
2.2500059999999991
 50
270.00002000000001
 51
359.99999000000003
  0
ARC
  5
B5
  8
0
 62
     7
 10
61.755620999999998
 20
173.15951699999999
 30
0.0
 40
2.2500059999999991
 50
179.99996999999999
 51
270.00002000000001
  0
ARC
  5
B6
  8
0
 62
     7
 10
61.755621999999988
 20
173.15951699999999
 30
0.0
 40
2.2500059999999991
 50
90.0
 51
179.99996999999999
  0
ARC
  5
B7
  8
0
 62
     7
 10
61.755620999999998
 20
173.15951699999999
 30
0.0
 40
2.2500059999999991
 50
0.00001
 51
89.999980000000008
  0
LINE
  5
B8
  8
0
  6
AIGENLINE002
 62
     7
 10
126.726
 20
173.16
 30
0.0
 11
152.23400000000001
 21
173.16
 31
0.0
  0
LINE
  5
B9
  8
0
  6
AIGENLINE002
 62
     7
 10
37.458100000000002
 20
173.16
 30
0.0
 11
85.862499999999983
 21
173.16
 31
0.0
  0
LINE
  5
BA
  8
0
 62
     7
 10
31.152000000000001
 20
151.15899999999999
 30
0.0
 11
52.93610000000001
 21
151.15899999999999
 31
0.0
  0
LINE
  5
BB
  8
0
 62
     7
 10
31.152000000000001
 20
195.16
 30
0.0
 11
57.169499999999999
 21
195.16
 31
0.0
  0
LINE
  5
BC
  8
0
 62
     7
 10
119.583
 20
83.437000000000012
 30
0.0
 11
117.372
 21
82.844399999999993
 31
0.0
  0
LINE
  5
BD
  8
0
 62
     7
 10
117.372
 20
82.844399999999993
 30
0.0
 11
119.583
 21
82.251799999999989
 31
0.0
  0
LINE
  5
BE
  8
0
 62
     7
 10
119.583
 20
82.251799999999989
 30
0.0
 11
119.583
 21
83.437000000000012
 31
0.0
  0
LINE
  5
BF
  8
0
 62
     7
 10
158.761
 20
82.266300000000001
 30
0.0
 11
160.97200000000001
 21
82.858900000000006
 31
0.0
  0
LINE
  5
C0
  8
0
 62
     7
 10
160.97200000000001
 20
82.858900000000006
 30
0.0
 11
158.761
 21
83.451400000000007
 31
0.0
  0
LINE
  5
C1
  8
0
 62
     7
 10
158.761
 20
83.451400000000007
 30
0.0
 11
158.761
 21
82.266300000000001
 31
0.0
  0
LINE
  5
C2
  8
0
 62
     7
 10
117.372
 20
82.844399999999993
 30
0.0
 11
160.97200000000001
 21
82.844399999999993
 31
0.0
  0
LINE
  5
C3
  8
0
 62
     7
 10
160.97200000000001
 20
91.520200000000003
 30
0.0
 11
160.97200000000001
 21
82.144300000000001
 31
0.0
  0
LINE
  5
C4
  8
0
 62
     7
 10
117.372
 20
91.595299999999995
 30
0.0
 11
117.372
 21
82.144300000000001
 31
0.0
  0
LINE
  5
C5
  8
0
 62
     7
 10
42.0807
 20
83.437000000000012
 30
0.0
 11
39.869100000000003
 21
82.844399999999993
 31
0.0
  0
LINE
  5
C6
  8
0
 62
     7
 10
39.869100000000003
 20
82.844399999999993
 30
0.0
 11
42.0807
 21
82.251799999999989
 31
0.0
  0
LINE
  5
C7
  8
0
 62
     7
 10
42.0807
 20
82.251799999999989
 30
0.0
 11
42.0807
 21
83.437000000000012
 31
0.0
  0
LINE
  5
C8
  8
0
 62
     7
 10
81.257900000000006
 20
82.266300000000001
 30
0.0
 11
83.469499999999996
 21
82.858900000000006
 31
0.0
  0
LINE
  5
C9
  8
0
 62
     7
 10
83.469499999999996
 20
82.858900000000006
 30
0.0
 11
81.257900000000006
 21
83.451400000000007
 31
0.0
  0
LINE
  5
CA
  8
0
 62
     7
 10
81.257900000000006
 20
83.451400000000007
 30
0.0
 11
81.257900000000006
 21
82.266300000000001
 31
0.0
  0
LINE
  5
CB
  8
0
 62
     7
 10
39.869100000000003
 20
82.844399999999993
 30
0.0
 11
83.469499999999996
 21
82.844399999999993
 31
0.0
  0
LINE
  5
CC
  8
0
 62
     7
 10
83.469499999999996
 20
91.520200000000003
 30
0.0
 11
83.469499999999996
 21
82.144300000000001
 31
0.0
  0
LINE
  5
CD
  8
0
 62
     7
 10
39.869100000000003
 20
91.595299999999995
 30
0.0
 11
39.869100000000003
 21
82.144300000000001
 31
0.0
  0
LINE
  5
CE
  8
0
 62
     7
 10
31.152000000000001
 20
108.768
 30
0.0
 11
38.762599999999999
 21
108.768
 31
0.0
  0
LINE
  5
CF
  8
0
 62
     7
 10
31.152000000000001
 20
92.467600000000004
 30
0.0
 11
38.762599999999999
 21
92.467600000000004
 31
0.0
  0
LINE
  5
D0
  8
0
 62
     7
 10
119.464
 20
117.678
 30
0.0
 11
117.252
 21
117.086
 31
0.0
  0
LINE
  5
D1
  8
0
 62
     7
 10
117.252
 20
117.086
 30
0.0
 11
119.464
 21
116.49299999999999
 31
0.0
  0
LINE
  5
D2
  8
0
 62
     7
 10
119.464
 20
116.49299999999999
 30
0.0
 11
119.464
 21
117.678
 31
0.0
  0
LINE
  5
D3
  8
0
 62
     7
 10
159.042
 20
116.508
 30
0.0
 11
161.25299999999999
 21
117.09999999999999
 31
0.0
  0
LINE
  5
D4
  8
0
 62
     7
 10
161.25299999999999
 20
117.09999999999999
 30
0.0
 11
159.042
 21
117.693
 31
0.0
  0
LINE
  5
D5
  8
0
 62
     7
 10
159.042
 20
117.693
 30
0.0
 11
159.042
 21
116.508
 31
0.0
  0
LINE
  5
D6
  8
0
 62
     7
 10
117.252
 20
117.086
 30
0.0
 11
161.25299999999999
 21
117.086
 31
0.0
  0
LINE
  5
D7
  8
0
 62
     7
 10
117.252
 20
117.786
 30
0.0
 11
117.252
 21
108.379
 31
0.0
  0
LINE
  5
D8
  8
0
 62
     7
 10
161.25299999999999
 20
117.786
 30
0.0
 11
161.25299999999999
 21
109.919
 31
0.0
  0
LINE
  5
D9
  8
0
 62
     7
 10
41.966999999999992
 20
117.678
 30
0.0
 11
39.755400000000002
 21
117.086
 31
0.0
  0
LINE
  5
DA
  8
0
 62
     7
 10
39.755400000000002
 20
117.086
 30
0.0
 11
41.966999999999992
 21
116.49299999999999
 31
0.0
  0
LINE
  5
DB
  8
0
 62
     7
 10
41.966999999999992
 20
116.49299999999999
 30
0.0
 11
41.966999999999992
 21
117.678
 31
0.0
  0
LINE
  5
DC
  8
0
 62
     7
 10
81.544200000000004
 20
116.508
 30
0.0
 11
83.755799999999994
 21
117.09999999999999
 31
0.0
  0
LINE
  5
DD
  8
0
 62
     7
 10
83.755799999999994
 20
117.09999999999999
 30
0.0
 11
81.544200000000004
 21
117.693
 31
0.0
  0
LINE
  5
DE
  8
0
 62
     7
 10
81.544200000000004
 20
117.693
 30
0.0
 11
81.544200000000004
 21
116.508
 31
0.0
  0
LINE
  5
DF
  8
0
 62
     7
 10
39.755400000000002
 20
117.086
 30
0.0
 11
83.755799999999994
 21
117.086
 31
0.0
  0
LINE
  5
E0
  8
0
 62
     7
 10
64.491600000000005
 20
176.733
 30
0.0
 11
63.346600000000002
 21
174.75
 31
0.0
  0
LINE
  5
E1
  8
0
 62
     7
 10
63.346600000000002
 20
174.75
 30
0.0
 11
65.329599999999999
 21
175.89500000000001
 31
0.0
  0
LINE
  5
E2
  8
0
 62
     7
 10
65.329599999999999
 20
175.89500000000001
 30
0.0
 11
64.491600000000005
 21
176.733
 31
0.0
  0
LINE
  5
E3
  8
0
 62
     7
 10
59.0578
 20
169.624
 30
0.0
 11
60.2027
 21
171.607
 31
0.0
  0
LINE
  5
E4
  8
0
 62
     7
 10
60.2027
 20
171.607
 30
0.0
 11
58.219700000000003
 21
170.46199999999999
 31
0.0
  0
LINE
  5
E5
  8
0
 62
     7
 10
58.219700000000003
 20
170.46199999999999
 30
0.0
 11
59.0578
 21
169.624
 31
0.0
  0
LINE
  5
E6
  8
0
 62
     7
 10
57.021999999999998
 20
168.42599999999999
 30
0.0
 11
66.670400000000001
 21
178.07400000000001
 31
0.0
  0
LINE
  5
E7
  8
0
 62
     7
 10
41.966999999999992
 20
203.46000000000001
 30
0.0
 11
39.755400000000002
 21
202.86799999999999
 31
0.0
  0
LINE
  5
E8
  8
0
 62
     7
 10
39.755400000000002
 20
202.86799999999999
 30
0.0
 11
41.966999999999992
 21
202.27500000000001
 31
0.0
  0
LINE
  5
E9
  8
0
 62
     7
 10
41.966999999999992
 20
202.27500000000001
 30
0.0
 11
41.966999999999992
 21
203.46000000000001
 31
0.0
  0
LINE
  5
EA
  8
0
 62
     7
 10
81.544200000000004
 20
202.28999999999999
 30
0.0
 11
83.755799999999994
 21
202.88200000000001
 31
0.0
  0
LINE
  5
EB
  8
0
 62
     7
 10
83.755799999999994
 20
202.88200000000001
 30
0.0
 11
81.544200000000004
 21
203.47499999999999
 31
0.0
  0
LINE
  5
EC
  8
0
 62
     7
 10
81.544200000000004
 20
203.47499999999999
 30
0.0
 11
81.544200000000004
 21
202.28999999999999
 31
0.0
  0
LINE
  5
ED
  8
0
 62
     7
 10
39.755400000000002
 20
202.86799999999999
 30
0.0
 11
83.755799999999994
 21
202.86799999999999
 31
0.0
  0
LINE
  5
EE
  8
0
 62
     7
 10
71.490099999999998
 20
155.72
 30
0.0
 11
71.516300000000001
 21
155.72
 31
0.0
  0
LINE
  5
EF
  8
0
 62
     7
 10
71.516300000000001
 20
155.72
 30
0.0
 11
71.516300000000001
 21
155.74600000000001
 31
0.0
  0
LINE
  5
F0
  8
0
 62
     7
 10
71.516300000000001
 20
155.74600000000001
 30
0.0
 11
71.542199999999994
 21
155.77199999999999
 31
0.0
  0
LINE
  5
F1
  8
0
 62
     7
 10
71.542199999999994
 20
155.77199999999999
 30
0.0
 11
71.542199999999994
 21
155.798
 31
0.0
  0
LINE
  5
F2
  8
0
 62
     7
 10
71.542199999999994
 20
155.798
 30
0.0
 11
71.568299999999994
 21
155.798
 31
0.0
  0
ARC
  5
F3
  8
0
 62
     7
 10
63.965282999999992
 20
155.71181200000001
 30
0.0
 40
7.6035529999999989
 50
0.648338
 51
2.3126029999999989
  0
ARC
  5
F4
  8
0
 62
     7
 10
71.030903000000009
 20
155.92714699999999
 30
0.0
 40
0.5395520000000001
 50
9.7615210000000001
 51
25.883737
  0
LINE
  5
F5
  8
0
 62
     7
 10
71.594200000000001
 20
155.43299999999999
 30
0.0
 11
71.646199999999993
 21
155.459
 31
0.0
  0
LINE
  5
F6
  8
0
 62
     7
 10
71.646199999999993
 20
155.459
 30
0.0
 11
71.698599999999985
 21
155.48500000000001
 31
0.0
  0
LINE
  5
F7
  8
0
 62
     7
 10
71.698599999999985
 20
155.48500000000001
 30
0.0
 11
71.724400000000003
 21
155.53700000000001
 31
0.0
  0
LINE
  5
F8
  8
0
 62
     7
 10
71.724400000000003
 20
155.53700000000001
 30
0.0
 11
71.750600000000006
 21
155.56399999999999
 31
0.0
  0
LINE
  5
F9
  8
0
 62
     7
 10
71.750600000000006
 20
155.56399999999999
 30
0.0
 11
71.750600000000006
 21
155.589
 31
0.0
  0
LINE
  5
FA
  8
0
 62
     7
 10
71.750600000000006
 20
155.589
 30
0.0
 11
71.776799999999994
 21
155.61600000000001
 31
0.0
  0
LINE
  5
FB
  8
0
 62
     7
 10
71.776799999999994
 20
155.61600000000001
 30
0.0
 11
71.776799999999994
 21
155.69399999999999
 31
0.0
  0
LINE
  5
FC
  8
0
 62
     7
 10
71.776799999999994
 20
155.69399999999999
 30
0.0
 11
70.891000000000005
 21
157.309
 31
0.0
  0
LINE
  5
FD
  8
0
 62
     7
 10
70.891000000000005
 20
157.309
 30
0.0
 11
70.630200000000002
 21
157.673
 31
0.0
  0
LINE
  5
FE
  8
0
 62
     7
 10
70.630200000000002
 20
157.673
 30
0.0
 11
70.317800000000005
 21
157.96000000000001
 31
0.0
  0
LINE
  5
FF
  8
0
 62
     7
 10
70.317800000000005
 20
157.96000000000001
 30
0.0
 11
69.927099999999996
 21
158.16900000000001
 31
0.0
  0
LINE
  5
100
  8
0
 62
     7
 10
69.927099999999996
 20
158.16900000000001
 30
0.0
 11
69.614599999999996
 21
158.24700000000001
 31
0.0
  0
LINE
  5
101
  8
0
 62
     7
 10
69.614599999999996
 20
158.24700000000001
 30
0.0
 11
69.249399999999994
 21
158.24700000000001
 31
0.0
  0
LINE
  5
102
  8
0
 62
     7
 10
69.249399999999994
 20
158.24700000000001
 30
0.0
 11
68.911100000000005
 21
158.19499999999999
 31
0.0
  0
ARC
  5
103
  8
0
 62
     7
 10
60.86171199999999
 20
173.417699
 30
0.0
 40
19.265761999999999
 50
301.82572099999999
 51
26.819102000000001
  0
ARC
  5
104
  8
0
 62
     7
 10
61.595216999999998
 20
172.52417
 30
0.0
 40
19.047744000000002
 50
30.215195999999999
 51
98.101449000000002
  0
ARC
  5
105
  8
0
 62
     7
 10
61.954729999999998
 20
173.364857
 30
0.0
 40
18.272272000000001
 50
99.589177000000007
 51
116.501711
  0
ARC
  5
106
  8
0
 62
     7
 10
61.482293999999989
 20
173.87484699999999
 30
0.0
 40
17.606141000000001
 50
115.866384
 51
139.11789400000001
  0
ARC
  5
107
  8
0
 62
     7
 10
62.481248999999998
 20
172.861422
 30
0.0
 40
19.025031999999999
 50
138.779425
 51
168.97421499999999
  0
ARC
  5
108
  8
0
 62
     7
 10
60.147348000000001
 20
173.479409
 30
0.0
 40
16.616793000000001
 50
169.52667199999999
 51
189.56532999999999
  0
ARC
  5
109
  8
0
 62
     7
 10
58.683838999999999
 20
173.354702
 30
0.0
 40
15.153385999999999
 50
190.019893
 51
204.46885
  0
ARC
  5
10A
  8
0
 62
     7
 10
56.202921000000003
 20
172.25849600000001
 30
0.0
 40
12.441276
 50
204.60627099999999
 51
215.555758
  0
ARC
  5
10B
  8
0
 62
     7
 10
59.171776000000001
 20
174.260614
 30
0.0
 40
16.021108000000002
 50
215.20689100000001
 51
225.86970299999999
  0
ARC
  5
10C
  8
0
 62
     7
 10
62.400376000000001
 20
177.388767
 30
0.0
 40
20.514887000000002
 50
225.48080899999999
 51
235.46470099999999
  0
ARC
  5
10D
  8
0
 62
     7
 10
64.077085999999994
 20
179.622907
 30
0.0
 40
23.306152999999998
 50
235.182796
 51
246.519295
  0
ARC
  5
10E
  8
0
 62
     7
 10
61.284416
 20
173.166832
 30
0.0
 40
16.27197
 50
246.48077400000011
 51
265.20182399999999
  0
ARC
  5
10F
  8
0
 62
     7
 10
61.65064799999999
 20
176.07552100000001
 30
0.0
 40
19.201484000000001
 50
264.83883300000002
 51
279.633983
  0
ARC
  5
110
  8
0
 62
     7
 10
61.238017000000013
 20
179.44966099999999
 30
0.0
 40
22.597643999999999
 50
279.233724
 51
289.84969100000001
  0
ARC
  5
111
  8
0
 62
     7
 10
50.435334999999988
 20
149.99804
 30
0.0
 40
2.0754009999999989
 50
88.412125000000003
 51
91.962085000000002
  0
ARC
  5
112
  8
0
 62
     7
 10
50.313271
 20
157.216431
 30
0.0
 40
5.1444599999999987
 50
266.910572
 51
270.56809700000002
  0
ARC
  5
113
  8
0
 62
     7
 10
50.163352000000003
 20
154.476134
 30
0.0
 40
2.4000669999999991
 50
262.41619900000001
 51
266.95863500000002
  0
ARC
  5
114
  8
0
 62
     7
 10
49.980504000000003
 20
153.128443
 30
0.0
 40
1.040038
 50
255.38449399999999
 51
262.602666
  0
ARC
  5
115
  8
0
 62
     7
 10
49.820717999999992
 20
152.52255400000001
 30
0.0
 40
0.41344
 50
244.89631
 51
255.624292
  0
ARC
  5
116
  8
0
 62
     7
 10
49.696897999999997
 20
152.26761099999999
 30
0.0
 40
0.130107
 50
211.25083799999999
 51
246.64146000000011
  0
ARC
  5
117
  8
0
 62
     7
 10
49.638528000000001
 20
152.223581
 30
0.0
 40
0.057834
 50
174.91443100000001
 51
203.94023999999999
  0
LINE
  5
118
  8
0
 62
     7
 10
49.5809
 20
152.22900000000001
 30
0.0
 11
49.554699999999997
 21
152.255
 31
0.0
  0
LINE
  5
119
  8
0
 62
     7
 10
49.554699999999997
 20
152.255
 30
0.0
 11
49.554699999999997
 21
152.28100000000001
 31
0.0
  0
LINE
  5
11A
  8
0
 62
     7
 10
49.554699999999997
 20
152.28100000000001
 30
0.0
 11
49.528599999999997
 21
152.30699999999999
 31
0.0
  0
LINE
  5
11B
  8
0
 62
     7
 10
49.528599999999997
 20
152.30699999999999
 30
0.0
 11
49.528599999999997
 21
152.35900000000001
 31
0.0
  0
LINE
  5
11C
  8
0
 62
     7
 10
49.528599999999997
 20
152.35900000000001
 30
0.0
 11
49.554699999999997
 21
152.38499999999999
 31
0.0
  0
LINE
  5
11D
  8
0
 62
     7
 10
49.554699999999997
 20
152.38499999999999
 30
0.0
 11
49.554699999999997
 21
152.43700000000001
 31
0.0
  0
LINE
  5
11E
  8
0
 62
     7
 10
49.554699999999997
 20
152.43700000000001
 30
0.0
 11
49.5809
 21
152.46299999999999
 31
0.0
  0
LINE
  5
11F
  8
0
 62
     7
 10
49.5809
 20
152.46299999999999
 30
0.0
 11
49.606799999999993
 21
152.49000000000001
 31
0.0
  0
LINE
  5
120
  8
0
 62
     7
 10
49.606799999999993
 20
152.49000000000001
 30
0.0
 11
49.659100000000002
 21
152.59399999999999
 31
0.0
  0
LINE
  5
121
  8
0
 62
     7
 10
49.659100000000002
 20
152.59399999999999
 30
0.0
 11
49.711100000000002
 21
152.64599999999999
 31
0.0
  0
LINE
  5
122
  8
0
 62
     7
 10
49.711100000000002
 20
152.64599999999999
 30
0.0
 11
49.81519999999999
 21
152.80199999999999
 31
0.0
  0
ARC
  5
123
  8
0
 62
     7
 10
50.35578499999999
 20
151.31274400000001
 30
0.0
 40
0.460961
 50
76.082025999999999
 51
83.792468
  0
ARC
  5
124
  8
0
 62
     7
 10
50.161999999999999
 20
149.75846299999989
 30
0.0
 40
2.0272320000000001
 50
83.097588999999999
 51
87.340981999999997
  0
ARC
  5
125
  8
0
 62
     7
 10
51.352916999999991
 20
177.268888
 30
0.0
 40
25.508969
 50
266.445358
 51
267.53556700000001
  0
ARC
  5
126
  8
0
 62
     7
 10
49.840302000000001
 20
152.680847
 30
0.0
 40
0.8745739999999999
 50
254.51208700000001
 51
265.47774800000002
  0
LINE
  5
127
  8
0
 62
     7
 10
49.606799999999993
 20
151.83799999999999
 30
0.0
 11
49.554699999999997
 21
151.83799999999999
 31
0.0
  0
LINE
  5
128
  8
0
 62
     7
 10
49.554699999999997
 20
151.83799999999999
 30
0.0
 11
49.50269999999999
 21
151.864
 31
0.0
  0
LINE
  5
129
  8
0
 62
     7
 10
49.50269999999999
 20
151.864
 30
0.0
 11
49.476900000000001
 21
151.864
 31
0.0
  0
LINE
  5
12A
  8
0
 62
     7
 10
49.476900000000001
 20
151.864
 30
0.0
 11
49.450400000000002
 21
151.88999999999999
 31
0.0
  0
LINE
  5
12B
  8
0
 62
     7
 10
49.450400000000002
 20
151.88999999999999
 30
0.0
 11
49.424500000000002
 21
151.916
 31
0.0
  0
LINE
  5
12C
  8
0
 62
     7
 10
49.424500000000002
 20
151.916
 30
0.0
 11
49.424500000000002
 21
151.94200000000001
 31
0.0
  0
LINE
  5
12D
  8
0
 62
     7
 10
49.424500000000002
 20
151.94200000000001
 30
0.0
 11
49.398699999999991
 21
151.96799999999999
 31
0.0
  0
LINE
  5
12E
  8
0
 62
     7
 10
49.398699999999991
 20
151.96799999999999
 30
0.0
 11
49.398699999999991
 21
152.02099999999999
 31
0.0
  0
LINE
  5
12F
  8
0
 62
     7
 10
49.398699999999991
 20
152.02099999999999
 30
0.0
 11
49.372500000000002
 21
152.04599999999999
 31
0.0
  0
LINE
  5
130
  8
0
 62
     7
 10
49.372500000000002
 20
152.04599999999999
 30
0.0
 11
49.372500000000002
 21
152.125
 31
0.0
  0
LINE
  5
131
  8
0
 62
     7
 10
49.372500000000002
 20
152.125
 30
0.0
 11
49.398699999999991
 21
152.15100000000001
 31
0.0
  0
LINE
  5
132
  8
0
 62
     7
 10
49.398699999999991
 20
152.15100000000001
 30
0.0
 11
49.398699999999991
 21
152.22900000000001
 31
0.0
  0
LINE
  5
133
  8
0
 62
     7
 10
49.398699999999991
 20
152.22900000000001
 30
0.0
 11
49.424500000000002
 21
152.28100000000001
 31
0.0
  0
LINE
  5
134
  8
0
 62
     7
 10
49.424500000000002
 20
152.28100000000001
 30
0.0
 11
49.450400000000002
 21
152.30699999999999
 31
0.0
  0
LINE
  5
135
  8
0
 62
     7
 10
49.450400000000002
 20
152.30699999999999
 30
0.0
 11
49.450400000000002
 21
152.35900000000001
 31
0.0
  0
ARC
  5
136
  8
0
 62
     7
 10
49.04463599999999
 20
152.77254099999999
 30
0.0
 40
0.5791310000000001
 50
314.47200099999998
 51
320.89818100000002
  0
ARC
  5
137
  8
0
 62
     7
 10
49.219132999999992
 20
152.62371099999999
 30
0.0
 40
0.349891
 50
321.789107
 51
332.83291500000001
  0
ARC
  5
138
  8
0
 62
     7
 10
49.897748
 20
152.28556599999999
 30
0.0
 40
0.40835
 50
137.947473
 51
154.09669199999999
  0
ARC
  5
139
  8
0
 62
     7
 10
50.316673000000002
 20
151.89749800000001
 30
0.0
 40
0.979376
 50
130.1665129999999
 51
137.505686
  0
ARC
  5
13A
  8
0
 62
     7
 10
48.675927000000001
 20
153.73597899999999
 30
0.0
 40
1.485396999999999
 50
312.7893590000001
 51
316.91711900000001
  0
ARC
  5
13B
  8
0
 62
     7
 10
49.494743
 20
152.96807799999999
 30
0.0
 40
0.362846
 50
317.16224699999998
 51
328.69176399999998
  0
ARC
  5
13C
  8
0
 62
     7
 10
50.023052
 20
152.644846
 30
0.0
 40
0.256503
 50
131.282498
 51
148.327181
  0
ARC
  5
13D
  8
0
 62
     7
 10
50.961157
 20
151.57955899999999
 30
0.0
 40
1.6759669999999991
 50
126.188265
 51
131.35451699999999
  0
ARC
  5
13E
  8
0
 62
     7
 10
51.043665000000011
 20
151.71864099999999
 30
0.0
 40
1.619275999999999
 50
127.506865
 51
131.45759699999999
  0
ARC
  5
13F
  8
0
 62
     7
 10
51.771250000000002
 20
150.776005
 30
0.0
 40
2.8100459999999989
 50
123.90129
 51
127.573093
  0
ARC
  5
140
  8
0
 62
     7
 10
53.928936999999998
 20
147.55547799999999
 30
0.0
 40
6.6865649999999981
 50
121.350708
 51
123.854894
  0
ARC
  5
141
  8
0
 62
     7
 10
47.719821000000003
 20
158.072059
 30
0.0
 40
5.5276120000000004
 50
299.5993180000001
 51
305.24116900000001
  0
ARC
  5
142
  8
0
 62
     7
 10
46.122803999999988
 20
164.30251999999999
 30
0.0
 40
11.762942000000001
 50
294.01139599999999
 51
295.39984900000002
  0
ARC
  5
143
  8
0
 62
     7
 10
55.066246
 20
145.99964199999999
 30
0.0
 40
8.6098759999999999
 50
111.20852600000001
 51
116.918836
  0
ARC
  5
144
  8
0
 62
     7
 10
56.832320999999993
 20
142.50848199999999
 30
0.0
 40
12.509359999999999
 50
111.615649
 51
112.96525
  0
ARC
  5
145
  8
0
 62
     7
 10
52.352167999999992
 20
153.807602
 30
0.0
 40
0.354458
 50
100.074595
 51
111.173483
  0
LINE
  5
146
  8
0
 62
     7
 10
52.290199999999999
 20
154.15700000000001
 30
0.0
 11
52.394500000000001
 21
154.209
 31
0.0
  0
LINE
  5
147
  8
0
 62
     7
 10
52.394500000000001
 20
154.209
 30
0.0
 11
52.446599999999989
 21
154.261
 31
0.0
  0
LINE
  5
148
  8
0
 62
     7
 10
52.446599999999989
 20
154.261
 30
0.0
 11
52.472799999999992
 21
154.261
 31
0.0
  0
LINE
  5
149
  8
0
 62
     7
 10
52.472799999999992
 20
154.261
 30
0.0
 11
52.576799999999999
 21
154.36500000000001
 31
0.0
  0
LINE
  5
14A
  8
0
 62
     7
 10
52.576799999999999
 20
154.36500000000001
 30
0.0
 11
52.602600000000002
 21
154.36500000000001
 31
0.0
  0
LINE
  5
14B
  8
0
 62
     7
 10
52.602600000000002
 20
154.36500000000001
 30
0.0
 11
52.628799999999998
 21
154.39099999999999
 31
0.0
  0
LINE
  5
14C
  8
0
 62
     7
 10
52.628799999999998
 20
154.39099999999999
 30
0.0
 11
52.628799999999998
 21
154.417
 31
0.0
  0
LINE
  5
14D
  8
0
 62
     7
 10
52.628799999999998
 20
154.417
 30
0.0
 11
52.655000000000001
 21
154.44300000000001
 31
0.0
  0
LINE
  5
14E
  8
0
 62
     7
 10
52.655000000000001
 20
154.44300000000001
 30
0.0
 11
52.68119999999999
 21
154.46899999999999
 31
0.0
  0
LINE
  5
14F
  8
0
 62
     7
 10
52.68119999999999
 20
154.46899999999999
 30
0.0
 11
52.68119999999999
 21
154.49600000000001
 31
0.0
  0
LINE
  5
150
  8
0
 62
     7
 10
52.68119999999999
 20
154.49600000000001
 30
0.0
 11
52.707000000000001
 21
154.52099999999999
 31
0.0
  0
LINE
  5
151
  8
0
 62
     7
 10
52.707000000000001
 20
154.52099999999999
 30
0.0
 11
52.733199999999997
 21
154.548
 31
0.0
  0
LINE
  5
152
  8
0
 62
     7
 10
52.733199999999997
 20
154.548
 30
0.0
 11
52.733199999999997
 21
154.57300000000001
 31
0.0
  0
LINE
  5
153
  8
0
 62
     7
 10
52.733199999999997
 20
154.57300000000001
 30
0.0
 11
52.759
 21
154.59999999999999
 31
0.0
  0
LINE
  5
154
  8
0
 62
     7
 10
52.759
 20
154.59999999999999
 30
0.0
 11
52.759
 21
154.678
 31
0.0
  0
LINE
  5
155
  8
0
 62
     7
 10
52.759
 20
154.678
 30
0.0
 11
52.785200000000003
 21
154.70400000000001
 31
0.0
  0
LINE
  5
156
  8
0
 62
     7
 10
52.785200000000003
 20
154.70400000000001
 30
0.0
 11
52.785200000000003
 21
154.78200000000001
 31
0.0
  0
LINE
  5
157
  8
0
 62
     7
 10
52.785200000000003
 20
154.78200000000001
 30
0.0
 11
52.811100000000003
 21
154.834
 31
0.0
  0
LINE
  5
158
  8
0
 62
     7
 10
52.811100000000003
 20
154.834
 30
0.0
 11
52.811100000000003
 21
155.01599999999999
 31
0.0
  0
LINE
  5
159
  8
0
 62
     7
 10
52.811100000000003
 20
155.01599999999999
 30
0.0
 11
52.785200000000003
 21
155.042
 31
0.0
  0
ARC
  5
15A
  8
0
 62
     7
 10
61.430723
 20
175.20146500000001
 30
0.0
 40
23.805251999999999
 50
266.24363599999998
 51
294.129524
  0
ARC
  5
15B
  8
0
 62
     7
 10
60.702201000000002
 20
177.08973800000001
 30
0.0
 40
25.826577
 50
293.89201200000002
 51
296.09690599999999
  0
ARC
  5
15C
  8
0
 62
     7
 10
63.012976000000002
 20
171.84816799999999
 30
0.0
 40
20.104210999999999
 50
296.753894
 51
325.94962600000002
  0
ARC
  5
15D
  8
0
 62
     7
 10
62.551288
 20
172.39506
 30
0.0
 40
20.793869000000001
 50
325.4133700000001
 51
335.40907700000002
  0
ARC
  5
15E
  8
0
 62
     7
 10
59.527509999999999
 20
173.924633
 30
0.0
 40
24.180271000000001
 50
335.09502099999997
 51
352.15036700000002
  0
ARC
  5
15F
  8
0
 62
     7
 10
63.211097000000002
 20
173.28827899999999
 30
0.0
 40
20.444686999999998
 50
352.50715500000001
 51
355.001374
  0
ARC
  5
160
  8
0
 62
     7
 10
68.817561999999995
 20
173.27095399999999
 30
0.0
 40
14.865506
 50
353.18476700000002
 51
359.92676999999998
  0
ARC
  5
161
  8
0
 62
     7
 10
64.064533999999995
 20
173.34744800000001
 30
0.0
 40
19.618753999999999
 50
359.721114
 51
18.530870999999991
  0
ARC
  5
162
  8
0
 62
     7
 10
57.846244999999989
 20
170.98326800000001
 30
0.0
 40
26.267354000000001
 50
19.109642999999998
 51
29.391584999999999
  0
ARC
  5
163
  8
0
 62
     7
 10
60.397360999999989
 20
172.242355
 30
0.0
 40
23.427185999999999
 50
29.770674
 51
45.989435
  0
ARC
  5
164
  8
0
 62
     7
 10
62.325839999999999
 20
174.15159800000001
 30
0.0
 40
20.714234000000001
 50
46.156668999999987
 51
77.087425999999994
  0
ARC
  5
165
  8
0
 62
     7
 10
62.885362999999998
 20
175.84849800000001
 30
0.0
 40
18.935941
 50
77.590248000000003
 51
81.75027
  0
ARC
  5
166
  8
0
 62
     7
 10
62.135010000000001
 20
171.357393
 30
0.0
 40
23.488444000000001
 50
81.510801999999998
 51
115.05987500000001
  0
ARC
  5
167
  8
0
 62
     7
 10
61.616962000000001
 20
173.277016
 30
0.0
 40
21.532841999999999
 50
115.974727
 51
138.46022400000001
  0
ARC
  5
168
  8
0
 62
     7
 10
60.791001999999999
 20
174.18691799999999
 30
0.0
 40
20.31166
 50
138.83633
 51
149.72141199999999
  0
ARC
  5
169
  8
0
 62
     7
 10
66.702962999999997
 20
171.00681499999999
 30
0.0
 40
27.021576
 50
150.21875600000001
 51
157.50116199999999
  0
ARC
  5
16A
  8
0
 62
     7
 10
63.125512999999991
 20
172.60781
 30
0.0
 40
23.104033999999999
 50
157.77438799999999
 51
172.827381
  0
ARC
  5
16B
  8
0
 62
     7
 10
57.122184999999988
 20
173.12825000000001
 30
0.0
 40
17.084295000000001
 50
172.04526999999999
 51
195.57123999999999
  0
ARC
  5
16C
  8
0
 62
     7
 10
58.873179
 20
173.493751
 30
0.0
 40
18.869506000000001
 50
195.21311
 51
204.57786300000001
  0
ARC
  5
16D
  8
0
 62
     7
 10
57.175114999999998
 20
172.6691909999999
 30
0.0
 40
16.982388
 50
204.43083899999999
 51
216.593435
  0
ARC
  5
16E
  8
0
 62
     7
 10
58.565379999999998
 20
173.55646300000001
 30
0.0
 40
18.627908000000001
 50
216.23539700000009
 51
232.552368
  0
ARC
  5
16F
  8
0
 62
     7
 10
56.594974999999998
 20
171.20932999999999
 30
0.0
 40
15.567023999999989
 50
233.05727899999999
 51
234.35363000000001
  0
LINE
  5
170
  8
0
 62
     7
 10
47.522799999999989
 20
158.559
 30
0.0
 11
49.26809999999999
 21
157.33500000000001
 31
0.0
  0
LINE
  5
171
  8
0
 62
     7
 10
49.26809999999999
 20
157.33500000000001
 30
0.0
 11
51.117800000000003
 21
156.215
 31
0.0
  0
ARC
  5
172
  8
0
 62
     7
 10
60.551035999999989
 20
173.33045899999999
 30
0.0
 40
19.543158999999999
 50
241.13891000000001
 51
260.55548800000003
  0
LINE
  5
173
  8
0
 62
     7
 10
57.344099999999997
 20
154.05199999999999
 30
0.0
 11
59.376100000000001
 21
153.792
 31
0.0
  0
LINE
  5
174
  8
0
 62
     7
 10
59.376100000000001
 20
153.792
 30
0.0
 11
61.43419999999999
 21
153.68799999999999
 31
0.0
  0
LINE
  5
175
  8
0
 62
     7
 10
61.43419999999999
 20
153.68799999999999
 30
0.0
 11
63.4923
 21
153.68799999999999
 31
0.0
  0
LINE
  5
176
  8
0
 62
     7
 10
63.4923
 20
153.68799999999999
 30
0.0
 11
64.716700000000003
 21
153.76599999999999
 31
0.0
  0
LINE
  5
177
  8
0
 62
     7
 10
64.716700000000003
 20
153.76599999999999
 30
0.0
 11
65.941100000000006
 21
153.922
 31
0.0
  0
LINE
  5
178
  8
0
 62
     7
 10
65.941100000000006
 20
153.922
 30
0.0
 11
67.165499999999994
 21
154.209
 31
0.0
  0
LINE
  5
179
  8
0
 62
     7
 10
67.165499999999994
 20
154.209
 30
0.0
 11
68.36399999999999
 21
154.548
 31
0.0
  0
LINE
  5
17A
  8
0
 62
     7
 10
68.36399999999999
 20
154.548
 30
0.0
 11
69.927099999999996
 21
155.095
 31
0.0
  0
LINE
  5
17B
  8
0
 62
     7
 10
69.927099999999996
 20
155.095
 30
0.0
 11
71.490099999999998
 21
155.72
 31
0.0
  0
ARC
  5
17C
  8
0
 62
     7
 10
61.201131999999987
 20
177.11870300000001
 30
0.0
 40
26.018179
 50
267.069906
 51
283.91549500000002
  0
ARC
  5
17D
  8
0
 62
     7
 10
61.781218999999993
 20
174.25328300000001
 30
0.0
 40
23.097694000000001
 50
284.22815900000001
 51
296.79497099999998
  0
ARC
  5
17E
  8
0
 62
     7
 10
63.782003000000003
 20
170.813783
 30
0.0
 40
19.127006000000002
 50
296.08972
 51
313.36390499999999
  0
ARC
  5
17F
  8
0
 62
     7
 10
62.388626000000002
 20
172.47018899999989
 30
0.0
 40
21.288322999999998
 50
313.029247
 51
325.48951399999999
  0
ARC
  5
180
  8
0
 62
     7
 10
58.058084999999998
 20
174.688985
 30
0.0
 40
26.121343
 50
326.86090300000001
 51
342.53059500000001
  0
ARC
  5
181
  8
0
 62
     7
 10
61.15542099999999
 20
173.567452
 30
0.0
 40
22.830613
 50
342.88193100000001
 51
354.75666000000001
  0
ARC
  5
182
  8
0
 62
     7
 10
60.911302999999997
 20
173.50861699999999
 30
0.0
 40
23.068474999999999
 50
354.95758799999999
 51
1.3480190000000001
  0
ARC
  5
183
  8
0
 62
     7
 10
64.995021999999992
 20
173.50506899999999
 30
0.0
 40
18.986229999999999
 50
1.6486419999999991
 51
17.153212
  0
ARC
  5
184
  8
0
 62
     7
 10
60.624620999999998
 20
172.31198800000001
 30
0.0
 40
23.514578
 50
16.79029899999999
 51
18.27842399999999
  0
ARC
  5
185
  8
0
 62
     7
 10
60.809354999999996
 20
172.35226499999999
 30
0.0
 40
23.326540999999999
 50
18.326796999999999
 51
35.319267000000004
  0
ARC
  5
186
  8
0
 62
     7
 10
60.524726000000001
 20
172.32000099999999
 30
0.0
 40
23.577839999999998
 50
34.983364000000002
 51
46.069152000000003
  0
ARC
  5
187
  8
0
 62
     7
 10
62.704940999999998
 20
174.89236700000001
 30
0.0
 40
20.213808
 50
45.461032000000003
 51
76.252296999999999
  0
ARC
  5
188
  8
0
 62
     7
 10
62.534970999999999
 20
174.64530199999999
 30
0.0
 40
20.494464000000001
 50
75.954874000000004
 51
81.24489100000001
  0
ARC
  5
189
  8
0
 62
     7
 10
62.156466999999999
 20
171.517945
 30
0.0
 40
23.643212999999999
 50
81.491893000000005
 51
115.291421
  0
ARC
  5
18A
  8
0
 62
     7
 10
61.111275999999997
 20
173.91525200000001
 30
0.0
 40
21.029316000000001
 50
115.507149
 51
149.51115300000001
  0
ARC
  5
18B
  8
0
 62
     7
 10
64.317249000000004
 20
172.22939600000001
 30
0.0
 40
24.647960000000001
 50
149.91531900000001
 51
172.33001400000001
  0
ARC
  5
18C
  8
0
 62
     7
 10
58.887267000000001
 20
173.280449
 30
0.0
 40
19.128903999999999
 50
173.27933300000001
 51
198.93330499999999
  0
ARC
  5
18D
  8
0
 62
     7
 10
57.334697999999989
 20
172.887787
 30
0.0
 40
17.533427
 50
199.36577199999991
 51
204.86557999999999
  0
ARC
  5
18E
  8
0
 62
     7
 10
58.651400000000002
 20
173.65443200000001
 30
0.0
 40
19.050961999999998
 50
205.29238799999999
 51
233.57766000000001
  0
LINE
  5
18F
  8
0
 62
     7
 10
47.340200000000003
 20
158.32499999999999
 30
0.0
 11
49.112000000000002
 21
157.09999999999999
 31
0.0
  0
LINE
  5
190
  8
0
 62
     7
 10
49.112000000000002
 20
157.09999999999999
 30
0.0
 11
50.9617
 21
155.95400000000001
 31
0.0
  0
ARC
  5
191
  8
0
 62
     7
 10
58.387602000000001
 20
168.862549
 30
0.0
 40
14.892163999999999
 50
240.08973399999999
 51
244.93917500000001
  0
ARC
  5
192
  8
0
 62
     7
 10
60.539062000000001
 20
173.307422
 30
0.0
 40
19.830016000000001
 50
244.74802299999999
 51
256.92438499999997
  0
ARC
  5
193
  8
0
 62
     7
 10
59.234208999999993
 20
167.92818500000001
 30
0.0
 40
14.295147
 50
257.14097700000002
 51
262.19189299999999
  0
LINE
  5
194
  8
0
 62
     7
 10
57.292099999999998
 20
153.76599999999999
 30
0.0
 11
59.350200000000001
 21
153.505
 31
0.0
  0
LINE
  5
195
  8
0
 62
     7
 10
59.350200000000001
 20
153.505
 30
0.0
 11
61.43419999999999
 21
153.375
 31
0.0
  0
LINE
  5
196
  8
0
 62
     7
 10
61.43419999999999
 20
153.375
 30
0.0
 11
63.4923
 21
153.375
 31
0.0
  0
LINE
  5
197
  8
0
 62
     7
 10
63.4923
 20
153.375
 30
0.0
 11
64.768699999999995
 21
153.453
 31
0.0
  0
LINE
  5
198
  8
0
 62
     7
 10
64.768699999999995
 20
153.453
 30
0.0
 11
66.019300000000001
 21
153.636
 31
0.0
  0
LINE
  5
199
  8
0
 62
     7
 10
66.019300000000001
 20
153.636
 30
0.0
 11
67.243700000000004
 21
153.89599999999999
 31
0.0
  0
LINE
  5
19A
  8
0
 62
     7
 10
67.243700000000004
 20
153.89599999999999
 30
0.0
 11
68.441900000000004
 21
154.261
 31
0.0
  0
LINE
  5
19B
  8
0
 62
     7
 10
68.441900000000004
 20
154.261
 30
0.0
 11
70.031099999999995
 21
154.80799999999999
 31
0.0
  0
LINE
  5
19C
  8
0
 62
     7
 10
70.031099999999995
 20
154.80799999999999
 30
0.0
 11
71.594200000000001
 21
155.43299999999999
 31
0.0
  0
LINE
  5
19D
  8
0
 62
     7
 10
50.492800000000003
 20
152.07300000000001
 30
0.0
 11
59.871099999999998
 21
151.447
 31
0.0
  0
LINE
  5
19E
  8
0
 62
     7
 10
50.466700000000003
 20
151.75999999999999
 30
0.0
 11
59.871099999999998
 21
151.13499999999999
 31
0.0
  0
LINE
  5
19F
  8
0
 62
     7
 10
160.86699999999999
 20
107.89
 30
0.0
 11
160.946
 21
107.89
 31
0.0
  0
LINE
  5
1A0
  8
0
 62
     7
 10
160.946
 20
107.89
 30
0.0
 11
160.946
 21
107.916
 31
0.0
  0
LINE
  5
1A1
  8
0
 62
     7
 10
160.946
 20
107.916
 30
0.0
 11
161.05000000000001
 21
107.916
 31
0.0
  0
LINE
  5
1A2
  8
0
 62
     7
 10
161.05000000000001
 20
107.916
 30
0.0
 11
161.05000000000001
 21
107.94199999999999
 31
0.0
  0
LINE
  5
1A3
  8
0
 62
     7
 10
161.05000000000001
 20
107.94199999999999
 30
0.0
 11
161.07599999999999
 21
107.94199999999999
 31
0.0
  0
LINE
  5
1A4
  8
0
 62
     7
 10
161.07599999999999
 20
107.94199999999999
 30
0.0
 11
161.07599999999999
 21
107.968
 31
0.0
  0
LINE
  5
1A5
  8
0
 62
     7
 10
161.07599999999999
 20
107.968
 30
0.0
 11
161.05000000000001
 21
107.968
 31
0.0
  0
LINE
  5
1A6
  8
0
 62
     7
 10
161.05000000000001
 20
107.968
 30
0.0
 11
161.05000000000001
 21
107.994
 31
0.0
  0
LINE
  5
1A7
  8
0
 62
     7
 10
161.05000000000001
 20
107.994
 30
0.0
 11
160.99700000000001
 21
107.994
 31
0.0
  0
LINE
  5
1A8
  8
0
 62
     7
 10
160.99700000000001
 20
107.994
 30
0.0
 11
160.97200000000001
 21
108.02
 31
0.0
  0
LINE
  5
1A9
  8
0
 62
     7
 10
160.97200000000001
 20
108.02
 30
0.0
 11
160.893
 21
108.02
 31
0.0
  0
LINE
  5
1AA
  8
0
 62
     7
 10
160.893
 20
108.02
 30
0.0
 11
160.84100000000001
 21
108.02
 31
0.0
  0
LINE
  5
1AB
  8
0
 62
     7
 10
160.84100000000001
 20
108.02
 30
0.0
 11
160.78899999999999
 21
108.04600000000001
 31
0.0
  0
LINE
  5
1AC
  8
0
 62
     7
 10
160.78899999999999
 20
108.04600000000001
 30
0.0
 11
160.685
 21
108.04600000000001
 31
0.0
  0
LINE
  5
1AD
  8
0
 62
     7
 10
160.685
 20
108.04600000000001
 30
0.0
 11
160.6329999999999
 21
108.072
 31
0.0
  0
LINE
  5
1AE
  8
0
 62
     7
 10
160.6329999999999
 20
108.072
 30
0.0
 11
160.55500000000001
 21
108.072
 31
0.0
  0
LINE
  5
1AF
  8
0
 62
     7
 10
160.86699999999999
 20
107.89
 30
0.0
 11
160.86699999999999
 21
107.916
 31
0.0
  0
LINE
  5
1B0
  8
0
 62
     7
 10
160.4499999999999
 20
107.83799999999999
 30
0.0
 11
160.58000000000001
 21
107.83799999999999
 31
0.0
  0
LINE
  5
1B1
  8
0
 62
     7
 10
160.58000000000001
 20
107.83799999999999
 30
0.0
 11
160.58000000000001
 21
107.864
 31
0.0
  0
LINE
  5
1B2
  8
0
 62
     7
 10
160.58000000000001
 20
107.864
 30
0.0
 11
160.78899999999999
 21
107.864
 31
0.0
  0
LINE
  5
1B3
  8
0
 62
     7
 10
160.78899999999999
 20
107.864
 30
0.0
 11
160.78899999999999
 21
107.89
 31
0.0
  0
LINE
  5
1B4
  8
0
 62
     7
 10
160.78899999999999
 20
107.89
 30
0.0
 11
160.86699999999999
 21
107.89
 31
0.0
  0
LINE
  5
1B5
  8
0
 62
     7
 10
160.4499999999999
 20
107.83799999999999
 30
0.0
 11
160.4499999999999
 21
107.864
 31
0.0
  0
LINE
  5
1B6
  8
0
 62
     7
 10
159.79900000000001
 20
107.785
 30
0.0
 11
159.95500000000001
 21
107.785
 31
0.0
  0
LINE
  5
1B7
  8
0
 62
     7
 10
159.95500000000001
 20
107.785
 30
0.0
 11
159.95500000000001
 21
107.81100000000001
 31
0.0
  0
LINE
  5
1B8
  8
0
 62
     7
 10
159.95500000000001
 20
107.81100000000001
 30
0.0
 11
160.29400000000001
 21
107.81100000000001
 31
0.0
  0
LINE
  5
1B9
  8
0
 62
     7
 10
160.29400000000001
 20
107.81100000000001
 30
0.0
 11
160.29400000000001
 21
107.83799999999999
 31
0.0
  0
LINE
  5
1BA
  8
0
 62
     7
 10
160.29400000000001
 20
107.83799999999999
 30
0.0
 11
160.4499999999999
 21
107.83799999999999
 31
0.0
  0
LINE
  5
1BB
  8
0
 62
     7
 10
159.79900000000001
 20
107.785
 30
0.0
 11
159.79900000000001
 21
107.81100000000001
 31
0.0
  0
LINE
  5
1BC
  8
0
 62
     7
 10
158.91399999999999
 20
107.73399999999999
 30
0.0
 11
159.06999999999999
 21
107.73399999999999
 31
0.0
  0
LINE
  5
1BD
  8
0
 62
     7
 10
159.06999999999999
 20
107.73399999999999
 30
0.0
 11
159.06999999999999
 21
107.76000000000001
 31
0.0
  0
LINE
  5
1BE
  8
0
 62
     7
 10
159.06999999999999
 20
107.76000000000001
 30
0.0
 11
159.53899999999999
 21
107.76000000000001
 31
0.0
  0
LINE
  5
1BF
  8
0
 62
     7
 10
159.53899999999999
 20
107.76000000000001
 30
0.0
 11
159.53899999999999
 21
107.785
 31
0.0
  0
LINE
  5
1C0
  8
0
 62
     7
 10
159.53899999999999
 20
107.785
 30
0.0
 11
159.79900000000001
 21
107.785
 31
0.0
  0
LINE
  5
1C1
  8
0
 62
     7
 10
158.91399999999999
 20
107.73399999999999
 30
0.0
 11
158.91399999999999
 21
107.76000000000001
 31
0.0
  0
LINE
  5
1C2
  8
0
 62
     7
 10
157.846
 20
107.682
 30
0.0
 11
157.89699999999999
 21
107.682
 31
0.0
  0
LINE
  5
1C3
  8
0
 62
     7
 10
157.89699999999999
 20
107.682
 30
0.0
 11
157.923
 21
107.70699999999999
 31
0.0
  0
LINE
  5
1C4
  8
0
 62
     7
 10
157.923
 20
107.70699999999999
 30
0.0
 11
158.001
 21
107.70699999999999
 31
0.0
  0
LINE
  5
1C5
  8
0
 62
     7
 10
158.001
 20
107.70699999999999
 30
0.0
 11
158.184
 21
107.70699999999999
 31
0.0
  0
LINE
  5
1C6
  8
0
 62
     7
 10
158.184
 20
107.70699999999999
 30
0.0
 11
158.52199999999999
 21
107.70699999999999
 31
0.0
  0
LINE
  5
1C7
  8
0
 62
     7
 10
158.52199999999999
 20
107.70699999999999
 30
0.0
 11
158.52199999999999
 21
107.73399999999999
 31
0.0
  0
LINE
  5
1C8
  8
0
 62
     7
 10
158.52199999999999
 20
107.73399999999999
 30
0.0
 11
158.91399999999999
 21
107.73399999999999
 31
0.0
  0
LINE
  5
1C9
  8
0
 62
     7
 10
157.846
 20
107.682
 30
0.0
 11
157.846
 21
107.70699999999999
 31
0.0
  0
LINE
  5
1CA
  8
0
 62
     7
 10
156.56899999999999
 20
107.655
 30
0.0
 11
157.24600000000001
 21
107.655
 31
0.0
  0
LINE
  5
1CB
  8
0
 62
     7
 10
157.24600000000001
 20
107.655
 30
0.0
 11
157.24600000000001
 21
107.682
 31
0.0
  0
LINE
  5
1CC
  8
0
 62
     7
 10
157.24600000000001
 20
107.682
 30
0.0
 11
157.846
 21
107.682
 31
0.0
  0
LINE
  5
1CD
  8
0
 62
     7
 10
156.56899999999999
 20
107.655
 30
0.0
 11
156.56899999999999
 21
107.682
 31
0.0
  0
LINE
  5
1CE
  8
0
 62
     7
 10
155.11000000000001
 20
107.60299999999999
 30
0.0
 11
155.709
 21
107.60299999999999
 31
0.0
  0
LINE
  5
1CF
  8
0
 62
     7
 10
155.709
 20
107.60299999999999
 30
0.0
 11
155.709
 21
107.63
 31
0.0
  0
LINE
  5
1D0
  8
0
 62
     7
 10
155.709
 20
107.63
 30
0.0
 11
156.517
 21
107.63
 31
0.0
  0
LINE
  5
1D1
  8
0
 62
     7
 10
156.517
 20
107.63
 30
0.0
 11
156.517
 21
107.655
 31
0.0
  0
LINE
  5
1D2
  8
0
 62
     7
 10
156.517
 20
107.655
 30
0.0
 11
156.56899999999999
 21
107.655
 31
0.0
  0
LINE
  5
1D3
  8
0
 62
     7
 10
155.11000000000001
 20
107.60299999999999
 30
0.0
 11
155.11000000000001
 21
107.63
 31
0.0
  0
LINE
  5
1D4
  8
0
 62
     7
 10
153.494
 20
107.551
 30
0.0
 11
153.93700000000001
 21
107.551
 31
0.0
  0
LINE
  5
1D5
  8
0
 62
     7
 10
153.93700000000001
 20
107.551
 30
0.0
 11
153.93700000000001
 21
107.577
 31
0.0
  0
LINE
  5
1D6
  8
0
 62
     7
 10
153.93700000000001
 20
107.577
 30
0.0
 11
154.84899999999999
 21
107.577
 31
0.0
  0
LINE
  5
1D7
  8
0
 62
     7
 10
154.84899999999999
 20
107.577
 30
0.0
 11
154.84899999999999
 21
107.60299999999999
 31
0.0
  0
LINE
  5
1D8
  8
0
 62
     7
 10
154.84899999999999
 20
107.60299999999999
 30
0.0
 11
155.11000000000001
 21
107.60299999999999
 31
0.0
  0
LINE
  5
1D9
  8
0
 62
     7
 10
153.494
 20
107.551
 30
0.0
 11
153.494
 21
107.577
 31
0.0
  0
LINE
  5
1DA
  8
0
 62
     7
 10
151.72300000000001
 20
107.499
 30
0.0
 11
151.93199999999999
 21
107.499
 31
0.0
  0
LINE
  5
1DB
  8
0
 62
     7
 10
151.93199999999999
 20
107.499
 30
0.0
 11
151.93199999999999
 21
107.52500000000001
 31
0.0
  0
LINE
  5
1DC
  8
0
 62
     7
 10
151.93199999999999
 20
107.52500000000001
 30
0.0
 11
152.97399999999999
 21
107.52500000000001
 31
0.0
  0
LINE
  5
1DD
  8
0
 62
     7
 10
152.97399999999999
 20
107.52500000000001
 30
0.0
 11
152.97399999999999
 21
107.551
 31
0.0
  0
LINE
  5
1DE
  8
0
 62
     7
 10
152.97399999999999
 20
107.551
 30
0.0
 11
153.494
 21
107.551
 31
0.0
  0
LINE
  5
1DF
  8
0
 62
     7
 10
151.72300000000001
 20
107.499
 30
0.0
 11
151.72300000000001
 21
107.52500000000001
 31
0.0
  0
LINE
  5
1E0
  8
0
 62
     7
 10
147.816
 20
107.42100000000001
 30
0.0
 11
148.54499999999999
 21
107.42100000000001
 31
0.0
  0
LINE
  5
1E1
  8
0
 62
     7
 10
148.54499999999999
 20
107.42100000000001
 30
0.0
 11
148.54499999999999
 21
107.447
 31
0.0
  0
LINE
  5
1E2
  8
0
 62
     7
 10
148.54499999999999
 20
107.447
 30
0.0
 11
149.1699999999999
 21
107.447
 31
0.0
  0
LINE
  5
1E3
  8
0
 62
     7
 10
149.1699999999999
 20
107.447
 30
0.0
 11
149.483
 21
107.447
 31
0.0
  0
LINE
  5
1E4
  8
0
 62
     7
 10
149.483
 20
107.447
 30
0.0
 11
149.63900000000001
 21
107.447
 31
0.0
  0
LINE
  5
1E5
  8
0
 62
     7
 10
149.63900000000001
 20
107.447
 30
0.0
 11
149.71700000000001
 21
107.447
 31
0.0
  0
LINE
  5
1E6
  8
0
 62
     7
 10
149.71700000000001
 20
107.447
 30
0.0
 11
149.74299999999999
 21
107.473
 31
0.0
  0
LINE
  5
1E7
  8
0
 62
     7
 10
149.74299999999999
 20
107.473
 30
0.0
 11
149.821
 21
107.473
 31
0.0
  0
LINE
  5
1E8
  8
0
 62
     7
 10
149.821
 20
107.473
 30
0.0
 11
150.864
 21
107.473
 31
0.0
  0
LINE
  5
1E9
  8
0
 62
     7
 10
150.864
 20
107.473
 30
0.0
 11
150.864
 21
107.499
 31
0.0
  0
LINE
  5
1EA
  8
0
 62
     7
 10
150.864
 20
107.499
 30
0.0
 11
151.72300000000001
 21
107.499
 31
0.0
  0
LINE
  5
1EB
  8
0
 62
     7
 10
147.816
 20
107.42100000000001
 30
0.0
 11
147.816
 21
107.447
 31
0.0
  0
LINE
  5
1EC
  8
0
 62
     7
 10
145.73099999999999
 20
107.36799999999999
 30
0.0
 11
146.06999999999999
 21
107.36799999999999
 31
0.0
  0
LINE
  5
1ED
  8
0
 62
     7
 10
146.06999999999999
 20
107.36799999999999
 30
0.0
 11
146.06999999999999
 21
107.395
 31
0.0
  0
LINE
  5
1EE
  8
0
 62
     7
 10
146.06999999999999
 20
107.395
 30
0.0
 11
146.929
 21
107.395
 31
0.0
  0
LINE
  5
1EF
  8
0
 62
     7
 10
146.929
 20
107.395
 30
0.0
 11
147.13800000000001
 21
107.395
 31
0.0
  0
LINE
  5
1F0
  8
0
 62
     7
 10
147.13800000000001
 20
107.395
 30
0.0
 11
147.31999999999999
 21
107.395
 31
0.0
  0
LINE
  5
1F1
  8
0
 62
     7
 10
147.31999999999999
 20
107.395
 30
0.0
 11
147.34700000000001
 21
107.42100000000001
 31
0.0
  0
LINE
  5
1F2
  8
0
 62
     7
 10
147.34700000000001
 20
107.42100000000001
 30
0.0
 11
147.37200000000001
 21
107.42100000000001
 31
0.0
  0
LINE
  5
1F3
  8
0
 62
     7
 10
147.37200000000001
 20
107.42100000000001
 30
0.0
 11
147.816
 21
107.42100000000001
 31
0.0
  0
LINE
  5
1F4
  8
0
 62
     7
 10
145.73099999999999
 20
107.36799999999999
 30
0.0
 11
145.73099999999999
 21
107.395
 31
0.0
  0
LINE
  5
1F5
  8
0
 62
     7
 10
143.54300000000001
 20
107.343
 30
0.0
 11
144.637
 21
107.343
 31
0.0
  0
LINE
  5
1F6
  8
0
 62
     7
 10
144.637
 20
107.343
 30
0.0
 11
144.74199999999999
 21
107.343
 31
0.0
  0
LINE
  5
1F7
  8
0
 62
     7
 10
144.74199999999999
 20
107.343
 30
0.0
 11
144.767
 21
107.36799999999999
 31
0.0
  0
LINE
  5
1F8
  8
0
 62
     7
 10
144.767
 20
107.36799999999999
 30
0.0
 11
144.89699999999999
 21
107.36799999999999
 31
0.0
  0
LINE
  5
1F9
  8
0
 62
     7
 10
144.89699999999999
 20
107.36799999999999
 30
0.0
 11
145.184
 21
107.36799999999999
 31
0.0
  0
LINE
  5
1FA
  8
0
 62
     7
 10
145.184
 20
107.36799999999999
 30
0.0
 11
145.73099999999999
 21
107.36799999999999
 31
0.0
  0
LINE
  5
1FB
  8
0
 62
     7
 10
143.54300000000001
 20
107.343
 30
0.0
 11
143.54300000000001
 21
107.36799999999999
 31
0.0
  0
LINE
  5
1FC
  8
0
 62
     7
 10
141.35499999999999
 20
107.291
 30
0.0
 11
142.006
 21
107.291
 31
0.0
  0
LINE
  5
1FD
  8
0
 62
     7
 10
142.006
 20
107.291
 30
0.0
 11
142.006
 21
107.31699999999999
 31
0.0
  0
LINE
  5
1FE
  8
0
 62
     7
 10
142.006
 20
107.31699999999999
 30
0.0
 11
143.387
 21
107.31699999999999
 31
0.0
  0
LINE
  5
1FF
  8
0
 62
     7
 10
143.387
 20
107.31699999999999
 30
0.0
 11
143.387
 21
107.343
 31
0.0
  0
LINE
  5
200
  8
0
 62
     7
 10
143.387
 20
107.343
 30
0.0
 11
143.54300000000001
 21
107.343
 31
0.0
  0
LINE
  5
201
  8
0
 62
     7
 10
141.35499999999999
 20
107.291
 30
0.0
 11
141.35499999999999
 21
107.31699999999999
 31
0.0
  0
LINE
  5
202
  8
0
 62
     7
 10
138.98400000000001
 20
107.264
 30
0.0
 11
140.28700000000001
 21
107.264
 31
0.0
  0
LINE
  5
203
  8
0
 62
     7
 10
140.28700000000001
 20
107.264
 30
0.0
 11
140.547
 21
107.264
 31
0.0
  0
LINE
  5
204
  8
0
 62
     7
 10
140.547
 20
107.264
 30
0.0
 11
140.57300000000001
 21
107.291
 31
0.0
  0
LINE
  5
205
  8
0
 62
     7
 10
140.57300000000001
 20
107.291
 30
0.0
 11
140.67699999999999
 21
107.291
 31
0.0
  0
LINE
  5
206
  8
0
 62
     7
 10
140.67699999999999
 20
107.291
 30
0.0
 11
140.80699999999999
 21
107.291
 31
0.0
  0
LINE
  5
207
  8
0
 62
     7
 10
140.80699999999999
 20
107.291
 30
0.0
 11
141.35499999999999
 21
107.291
 31
0.0
  0
LINE
  5
208
  8
0
 62
     7
 10
161.25800000000001
 20
107.89
 30
0.0
 11
161.25800000000001
 21
107.864
 31
0.0
  0
ARC
  5
209
  8
0
 62
     7
 10
131.52686499999999
 20
-592.55610599999989
 30
0.0
 40
701.30533600000001
 50
88.026091000000008
 51
88.481222999999986
  0
ARC
  5
20A
  8
0
 62
     7
 10
121.275155
 20
-965.32637799999986
 30
0.0
 40
1074.2159999999999
 50
88.461591999999996
 51
88.659702999999993
  0
ARC
  5
20B
  8
0
 62
     7
 10
104.697007
 20
-1677.54
 30
0.0
 40
1786.623
 50
88.662436999999997
 51
88.815593000000007
  0
ARC
  5
20C
  8
0
 62
     7
 10
368.62281000000002
 20
11304.59
 30
0.0
 40
11198.18
 50
268.78420299999999
 51
268.83850000000001
  0
ARC
  5
20D
  8
0
 62
     7
 10
154.595979
 20
1175.9770000000001
 30
0.0
 40
1067.317
 50
268.23584899999997
 51
268.73413599999998
  0
LINE
  5
20E
  8
0
 62
     7
 10
121.321
 20
109.453
 30
0.0
 11
121.34699999999999
 21
109.42700000000001
 31
0.0
  0
LINE
  5
20F
  8
0
 62
     7
 10
160.78899999999999
 20
92.467600000000004
 30
0.0
 11
117.56999999999999
 21
92.467600000000004
 31
0.0
  0
LINE
  5
210
  8
0
 62
     7
 10
160.78899999999999
 20
92.467600000000004
 30
0.0
 11
160.91900000000001
 21
92.519299999999987
 31
0.0
  0
LINE
  5
211
  8
0
 62
     7
 10
160.91900000000001
 20
92.519299999999987
 30
0.0
 11
160.97200000000001
 21
92.650199999999984
 31
0.0
  0
LINE
  5
212
  8
0
 62
     7
 10
161.25800000000001
 20
107.864
 30
0.0
 11
160.97200000000001
 21
92.650199999999984
 31
0.0
  0
LINE
  5
213
  8
0
 62
     7
 10
161.25800000000001
 20
107.89
 30
0.0
 11
161.25800000000001
 21
107.916
 31
0.0
  0
LINE
  5
214
  8
0
 62
     7
 10
161.25800000000001
 20
107.916
 30
0.0
 11
161.232
 21
107.94199999999999
 31
0.0
  0
LINE
  5
215
  8
0
 62
     7
 10
161.232
 20
107.94199999999999
 30
0.0
 11
161.20599999999999
 21
107.94199999999999
 31
0.0
  0
LINE
  5
216
  8
0
 62
     7
 10
161.20599999999999
 20
107.94199999999999
 30
0.0
 11
161.20599999999999
 21
107.968
 31
0.0
  0
LINE
  5
217
  8
0
 62
     7
 10
161.20599999999999
 20
107.968
 30
0.0
 11
161.154
 21
107.968
 31
0.0
  0
LINE
  5
218
  8
0
 62
     7
 10
161.154
 20
107.968
 30
0.0
 11
161.154
 21
107.994
 31
0.0
  0
LINE
  5
219
  8
0
 62
     7
 10
161.154
 20
107.994
 30
0.0
 11
161.05000000000001
 21
107.994
 31
0.0
  0
LINE
  5
21A
  8
0
 62
     7
 10
161.05000000000001
 20
107.994
 30
0.0
 11
161.023
 21
108.02
 31
0.0
  0
LINE
  5
21B
  8
0
 62
     7
 10
161.023
 20
108.02
 30
0.0
 11
160.91900000000001
 21
108.02
 31
0.0
  0
LINE
  5
21C
  8
0
 62
     7
 10
160.91900000000001
 20
108.02
 30
0.0
 11
160.84100000000001
 21
108.04600000000001
 31
0.0
  0
ARC
  5
21D
  8
0
 62
     7
 10
159.34385
 20
95.448106999999993
 30
0.0
 40
12.686973999999999
 50
83.223760999999996
 51
84.580930000000009
  0
ARC
  5
21E
  8
0
 62
     7
 10
178.92860099999999
 20
308.30961500000001
 30
0.0
 40
201.073657
 50
264.533297
 51
264.75343399999991
  0
ARC
  5
21F
  8
0
 62
     7
 10
154.851077
 20
24.043956000000001
 30
0.0
 40
84.250426000000004
 50
86.650974000000005
 51
87.194625999999985
  0
ARC
  5
220
  8
0
 62
     7
 10
151.500077
 20
-45.063693000000001
 30
0.0
 40
153.439266
 50
87.207834000000005
 51
87.709288999999984
  0
ARC
  5
221
  8
0
 62
     7
 10
119.486628
 20
-796.36737400000004
 30
0.0
 40
905.42426099999989
 50
87.585352
 51
87.708866
  0
LINE
  5
222
  8
0
 62
     7
 10
121.24299999999999
 20
109.42700000000001
 30
0.0
 11
120.54000000000001
 21
109.42700000000001
 31
0.0
  0
LINE
  5
223
  8
0
 62
     7
 10
120.54000000000001
 20
109.42700000000001
 30
0.0
 11
120.435
 21
109.401
 31
0.0
  0
LINE
  5
224
  8
0
 62
     7
 10
120.435
 20
109.401
 30
0.0
 11
119.967
 21
109.401
 31
0.0
  0
LINE
  5
225
  8
0
 62
     7
 10
119.967
 20
109.401
 30
0.0
 11
119.94
 21
109.375
 31
0.0
  0
LINE
  5
226
  8
0
 62
     7
 10
119.94
 20
109.375
 30
0.0
 11
119.654
 21
109.375
 31
0.0
  0
LINE
  5
227
  8
0
 62
     7
 10
119.654
 20
109.375
 30
0.0
 11
119.602
 21
109.349
 31
0.0
  0
LINE
  5
228
  8
0
 62
     7
 10
119.602
 20
109.349
 30
0.0
 11
119.47199999999999
 21
109.349
 31
0.0
  0
LINE
  5
229
  8
0
 62
     7
 10
119.47199999999999
 20
109.349
 30
0.0
 11
119.44499999999999
 21
109.32299999999999
 31
0.0
  0
LINE
  5
22A
  8
0
 62
     7
 10
119.44499999999999
 20
109.32299999999999
 30
0.0
 11
119.419
 21
109.32299999999999
 31
0.0
  0
LINE
  5
22B
  8
0
 62
     7
 10
119.419
 20
109.32299999999999
 30
0.0
 11
119.367
 21
109.27
 31
0.0
  0
LINE
  5
22C
  8
0
 62
     7
 10
119.367
 20
109.27
 30
0.0
 11
119.367
 21
109.218
 31
0.0
  0
LINE
  5
22D
  8
0
 62
     7
 10
122.389
 20
106.952
 30
0.0
 11
122.05
 21
108.46299999999999
 31
0.0
  0
LINE
  5
22E
  8
0
 62
     7
 10
122.05
 20
108.46299999999999
 30
0.0
 11
122.02500000000001
 21
108.56699999999999
 31
0.0
  0
LINE
  5
22F
  8
0
 62
     7
 10
122.02500000000001
 20
108.56699999999999
 30
0.0
 11
121.947
 21
108.80200000000001
 31
0.0
  0
LINE
  5
230
  8
0
 62
     7
 10
121.947
 20
108.80200000000001
 30
0.0
 11
121.89400000000001
 21
108.88
 31
0.0
  0
LINE
  5
231
  8
0
 62
     7
 10
121.89400000000001
 20
108.88
 30
0.0
 11
121.86799999999999
 21
108.958
 31
0.0
  0
LINE
  5
232
  8
0
 62
     7
 10
121.86799999999999
 20
108.958
 30
0.0
 11
121.816
 21
109.01000000000001
 31
0.0
  0
LINE
  5
233
  8
0
 62
     7
 10
121.816
 20
109.01000000000001
 30
0.0
 11
121.79000000000001
 21
109.08799999999999
 31
0.0
  0
LINE
  5
234
  8
0
 62
     7
 10
121.79000000000001
 20
109.08799999999999
 30
0.0
 11
121.764
 21
109.14
 31
0.0
  0
LINE
  5
235
  8
0
 62
     7
 10
121.764
 20
109.14
 30
0.0
 11
121.712
 21
109.19199999999999
 31
0.0
  0
LINE
  5
236
  8
0
 62
     7
 10
121.712
 20
109.19199999999999
 30
0.0
 11
121.68600000000001
 21
109.218
 31
0.0
  0
LINE
  5
237
  8
0
 62
     7
 10
121.68600000000001
 20
109.218
 30
0.0
 11
121.68600000000001
 21
109.245
 31
0.0
  0
LINE
  5
238
  8
0
 62
     7
 10
121.68600000000001
 20
109.245
 30
0.0
 11
121.58199999999999
 21
109.349
 31
0.0
  0
LINE
  5
239
  8
0
 62
     7
 10
121.58199999999999
 20
109.349
 30
0.0
 11
121.55500000000001
 21
109.349
 31
0.0
  0
LINE
  5
23A
  8
0
 62
     7
 10
121.55500000000001
 20
109.349
 30
0.0
 11
121.504
 21
109.401
 31
0.0
  0
LINE
  5
23B
  8
0
 62
     7
 10
121.504
 20
109.401
 30
0.0
 11
121.47799999999999
 21
109.401
 31
0.0
  0
LINE
  5
23C
  8
0
 62
     7
 10
121.47799999999999
 20
109.401
 30
0.0
 11
121.425
 21
109.42700000000001
 31
0.0
  0
LINE
  5
23D
  8
0
 62
     7
 10
121.425
 20
109.42700000000001
 30
0.0
 11
121.34699999999999
 21
109.42700000000001
 31
0.0
  0
LINE
  5
23E
  8
0
 62
     7
 10
121.24299999999999
 20
109.42700000000001
 30
0.0
 11
121.26900000000001
 21
109.453
 31
0.0
  0
LINE
  5
23F
  8
0
 62
     7
 10
121.26900000000001
 20
109.453
 30
0.0
 11
121.321
 21
109.453
 31
0.0
  0
ARC
  5
240
  8
0
 62
     7
 10
328.96349700000002
 20
104.516683
 30
0.0
 40
209.64911499999999
 50
178.7149
 51
179.04871199999999
  0
ARC
  5
241
  8
0
 62
     7
 10
164.69120000000001
 20
107.357021
 30
0.0
 40
45.352443000000001
 50
179.19108900000001
 51
180.643664
  0
LINE
  5
242
  8
0
 62
     7
 10
117.361
 20
92.650199999999984
 30
0.0
 11
117.43899999999999
 21
92.519299999999987
 31
0.0
  0
LINE
  5
243
  8
0
 62
     7
 10
117.43899999999999
 20
92.519299999999987
 30
0.0
 11
117.56999999999999
 21
92.467600000000004
 31
0.0
  0
LINE
  5
244
  8
0
 62
     7
 10
156.751
 20
107.655
 30
0.0
 11
156.673
 21
107.655
 31
0.0
  0
LINE
  5
245
  8
0
 62
     7
 10
156.673
 20
107.655
 30
0.0
 11
156.517
 21
107.63
 31
0.0
  0
ARC
  5
246
  8
0
 62
     7
 10
155.650634
 20
-1210.44064
 30
0.0
 40
1317.7840000000001
 50
90.724672999999996
 51
91.348861999999997
  0
ARC
  5
247
  8
0
 62
     7
 10
125.16313
 20
-5.2711709999999989
 30
0.0
 40
112.250908
 50
90.272179000000008
 51
91.388530000000003
  0
ARC
  5
248
  8
0
 62
     7
 10
127.68124400000001
 20
-121.10179599999999
 30
0.0
 40
228.108723
 50
91.315823999999992
 51
91.745644999999982
  0
ARC
  5
249
  8
0
 62
     7
 10
156.13750200000001
 20
-1047.5239999999999
 30
0.0
 40
1154.9680000000001
 50
91.756643000000011
 51
91.841199000000003
  0
ARC
  5
24A
  8
0
 62
     7
 10
118.58431899999999
 20
112.862281
 30
0.0
 40
6.0311260000000004
 50
272.15015499999998
 51
274.22643399999998
  0
ARC
  5
24B
  8
0
 62
     7
 10
122.48324700000001
 20
-4.3748909999999999
 30
0.0
 40
111.27091900000001
 50
91.891459999999995
 51
92.356227000000004
  0
ARC
  5
24C
  8
0
 62
     7
 10
118.211702
 20
102.815755
 30
0.0
 40
3.997701999999999
 50
94.347969000000006
 51
98.485336000000032
  0
LINE
  5
24D
  8
0
 62
     7
 10
117.622
 20
106.77
 30
0.0
 11
117.361
 21
106.77
 31
0.0
  0
LINE
  5
24E
  8
0
 62
     7
 10
117.361
 20
106.77
 30
0.0
 11
117.33499999999999
 21
106.744
 31
0.0
  0
LINE
  5
24F
  8
0
 62
     7
 10
117.33499999999999
 20
106.744
 30
0.0
 11
117.205
 21
106.744
 31
0.0
  0
LINE
  5
250
  8
0
 62
     7
 10
117.205
 20
106.744
 30
0.0
 11
117.205
 21
106.717
 31
0.0
  0
LINE
  5
251
  8
0
 62
     7
 10
117.205
 20
106.717
 30
0.0
 11
117.15300000000001
 21
106.717
 31
0.0
  0
LINE
  5
252
  8
0
 62
     7
 10
117.15300000000001
 20
106.717
 30
0.0
 11
117.15300000000001
 21
106.69199999999999
 31
0.0
  0
LINE
  5
253
  8
0
 62
     7
 10
117.15300000000001
 20
106.69199999999999
 30
0.0
 11
117.127
 21
106.69199999999999
 31
0.0
  0
ARC
  5
254
  8
0
 62
     7
 10
118.969309
 20
106.373372
 30
0.0
 40
1.869537
 50
170.19215
 51
178.584495
  0
ARC
  5
255
  8
0
 62
     7
 10
122.656688
 20
106.30653700000001
 30
0.0
 40
5.5574940000000002
 50
178.834733
 51
181.45201299999999
  0
ARC
  5
256
  8
0
 62
     7
 10
103.541048
 20
106.09554300000001
 30
0.0
 40
13.560112
 50
359.65476699999999
 51
0.296494
  0
ARC
  5
257
  8
0
 62
     7
 10
-178.85536999999999
 20
98.899625999999998
 30
0.0
 40
296.04177700000002
 50
1.0957099999999991
 51
1.3770129999999989
  0
ARC
  5
258
  8
0
 62
     7
 10
220.85485700000001
 20
106.548924
 30
0.0
 40
103.741636
 50
181.09816499999999
 51
182.036957
  0
ARC
  5
259
  8
0
 62
     7
 10
146.942893
 20
103.081819
 30
0.0
 40
29.764934000000011
 50
180.4240189999999
 51
181.32722000000001
  0
ARC
  5
25A
  8
0
 62
     7
 10
181.376362
 20
103.886836
 30
0.0
 40
64.207812000000004
 50
181.33369400000001
 51
182.106876
  0
ARC
  5
25B
  8
0
 62
     7
 10
68.698616999999999
 20
99.390003000000007
 30
0.0
 40
48.560353000000013
 50
0.562069
 51
2.5214599999999989
  0
ARC
  5
25C
  8
0
 62
     7
 10
-70.207269999999994
 20
94.381645999999975
 30
0.0
 40
187.54411999999999
 50
0.8151609999999999
 51
1.6758529999999989
  0
ARC
  5
25D
  8
0
 62
     7
 10
-235.03263899999999
 20
91.749515000000002
 30
0.0
 40
352.39037200000001
 50
0.513133
 51
0.861814
  0
ARC
  5
25E
  8
0
 62
     7
 10
-1048.2950000000001
 20
84.596221999999997
 30
0.0
 40
1165.684
 50
0.395874
 51
0.506726
  0
LINE
  5
25F
  8
0
 62
     7
 10
71.590100000000007
 20
108.645
 30
0.0
 11
71.590100000000007
 21
108.59399999999999
 31
0.0
  0
ARC
  5
260
  8
0
 62
     7
 10
69.095123999999998
 20
-230.63395399999999
 30
0.0
 40
340.03019499999999
 50
90.689174000000008
 51
90.957994999999997
  0
ARC
  5
261
  8
0
 62
     7
 10
44.25003499999999
 20
1931.809
 30
0.0
 40
1822.556
 50
270.65250400000002
 51
270.78512999999998
  0
ARC
  5
262
  8
0
 62
     7
 10
65.490026999999984
 20
344.47414900000001
 30
0.0
 40
235.07923199999999
 50
270.910034
 51
271.27098999999998
  0
LINE
  5
263
  8
0
 62
     7
 10
49.732900000000001
 20
92.467600000000004
 30
0.0
 11
49.732900000000001
 21
92.493099999999984
 31
0.0
  0
LINE
  5
264
  8
0
 62
     7
 10
40.067599999999992
 20
92.467600000000004
 30
0.0
 11
83.235200000000006
 21
92.467600000000004
 31
0.0
  0
ARC
  5
265
  8
0
 62
     7
 10
-304.37046600000002
 20
25827.619999999999
 30
0.0
 40
25723.5
 50
270.80627900000002
 51
270.83606300000002
  0
ARC
  5
266
  8
0
 62
     7
 10
48.000064000000002
 20
1515.6489999999999
 30
0.0
 40
1408.97983
 50
270.93413099999998
 51
271.14687000000009
  0
ARC
  5
267
  8
0
 62
     7
 10
72.843835999999996
 20
297.64836000000003
 30
0.0
 40
190.72631000000001
 50
271.00858099999999
 51
271.36872899999997
  0
ARC
  5
268
  8
0
 62
     7
 10
60.860242
 20
790.06739200000004
 30
0.0
 40
683.29112399999985
 50
271.38701400000002
 51
271.6123
  0
ARC
  5
269
  8
0
 62
     7
 10
102.421986
 20
-759.86123199999997
 30
0.0
 40
867.19572599999992
 50
91.383130999999992
 51
91.475937999999999
  0
ARC
  5
26A
  8
0
 62
     7
 10
82.267106000000027
 20
98.117304000000004
 30
0.0
 40
8.9981740000000006
 50
93.284548000000015
 51
94.956946000000002
  0
ARC
  5
26B
  8
0
 62
     7
 10
83.048213000000004
 20
84.326910999999996
 30
0.0
 40
22.810669000000001
 50
91.996298000000024
 51
93.258685999999969
  0
ARC
  5
26C
  8
0
 62
     7
 10
81.843035999999984
 20
121.52272499999999
 30
0.0
 40
14.404842
 50
271.6332700000001
 51
274.40178100000003
  0
LINE
  5
26D
  8
0
 62
     7
 10
82.948599999999985
 20
107.16
 30
0.0
 11
83.052599999999998
 21
107.187
 31
0.0
  0
LINE
  5
26E
  8
0
 62
     7
 10
83.052599999999998
 20
107.187
 30
0.0
 11
83.261099999999985
 21
107.187
 31
0.0
  0
LINE
  5
26F
  8
0
 62
     7
 10
83.261099999999985
 20
107.187
 30
0.0
 11
83.338899999999995
 21
107.21299999999999
 31
0.0
  0
LINE
  5
270
  8
0
 62
     7
 10
83.338899999999995
 20
107.21299999999999
 30
0.0
 11
83.469499999999996
 21
107.21299999999999
 31
0.0
  0
LINE
  5
271
  8
0
 62
     7
 10
83.469499999999996
 20
107.21299999999999
 30
0.0
 11
83.495299999999986
 21
107.238
 31
0.0
  0
LINE
  5
272
  8
0
 62
     7
 10
83.495299999999986
 20
107.238
 30
0.0
 11
83.547700000000006
 21
107.238
 31
0.0
  0
LINE
  5
273
  8
0
 62
     7
 10
83.547700000000006
 20
107.238
 30
0.0
 11
83.547700000000006
 21
107.264
 31
0.0
  0
LINE
  5
274
  8
0
 62
     7
 10
83.547700000000006
 20
107.264
 30
0.0
 11
83.521199999999993
 21
107.264
 31
0.0
  0
LINE
  5
275
  8
0
 62
     7
 10
83.521199999999993
 20
107.264
 30
0.0
 11
83.495299999999986
 21
107.291
 31
0.0
  0
LINE
  5
276
  8
0
 62
     7
 10
83.495299999999986
 20
107.291
 30
0.0
 11
83.391300000000001
 21
107.291
 31
0.0
  0
LINE
  5
277
  8
0
 62
     7
 10
83.391300000000001
 20
107.291
 30
0.0
 11
83.313100000000006
 21
107.31699999999999
 31
0.0
  0
LINE
  5
278
  8
0
 62
     7
 10
83.313100000000006
 20
107.31699999999999
 30
0.0
 11
83.235200000000006
 21
107.31699999999999
 31
0.0
  0
LINE
  5
279
  8
0
 62
     7
 10
83.235200000000006
 20
107.31699999999999
 30
0.0
 11
83.130899999999997
 21
107.343
 31
0.0
  0
LINE
  5
27A
  8
0
 62
     7
 10
83.130899999999997
 20
107.343
 30
0.0
 11
82.870099999999994
 21
107.343
 31
0.0
  0
LINE
  5
27B
  8
0
 62
     7
 10
82.870099999999994
 20
107.343
 30
0.0
 11
82.739799999999988
 21
107.36799999999999
 31
0.0
  0
ARC
  5
27C
  8
0
 62
     7
 10
83.458562999999984
 20
128.43963299999999
 30
0.0
 40
21.083428999999999
 50
266.957043
 51
268.046426
  0
ARC
  5
27D
  8
0
 62
     7
 10
66.445836
 20
-175.99937399999999
 30
0.0
 40
283.830645
 50
86.789950000000005
 51
87.088670999999991
  0
ARC
  5
27E
  8
0
 62
     7
 10
80.372619999999998
 20
93.371897000000004
 30
0.0
 40
14.101528
 50
88.012551000000002
 51
90.33144999999999
  0
ARC
  5
27F
  8
0
 62
     7
 10
73.837266999999997
 20
-27.577076999999999
 30
0.0
 40
135.204384
 50
87.264023999999992
 51
88.274527000000006
  0
ARC
  5
280
  8
0
 62
     7
 10
68.864508000000001
 20
-182.52728999999999
 30
0.0
 40
290.23423200000002
 50
88.214340000000007
 51
88.591683999999987
  0
ARC
  5
281
  8
0
 62
     7
 10
96.045974000000015
 20
970.92229800000007
 30
0.0
 40
863.53578400000015
 50
268.37537700000001
 51
268.66967799999998
  0
LINE
  5
282
  8
0
 62
     7
 10
83.469499999999996
 20
92.650199999999984
 30
0.0
 11
83.469499999999996
 21
92.675700000000006
 31
0.0
  0
LINE
  5
283
  8
0
 62
     7
 10
57.3917
 20
106.66500000000001
 30
0.0
 11
57.548400000000001
 21
106.66500000000001
 31
0.0
  0
LINE
  5
284
  8
0
 62
     7
 10
39.859099999999998
 20
92.650199999999984
 30
0.0
 11
39.911499999999997
 21
92.519299999999987
 31
0.0
  0
LINE
  5
285
  8
0
 62
     7
 10
39.911499999999997
 20
92.519299999999987
 30
0.0
 11
40.067599999999992
 21
92.467600000000004
 31
0.0
  0
LINE
  5
286
  8
0
 62
     7
 10
71.537700000000001
 20
106.874
 30
0.0
 11
71.590100000000007
 21
108.59399999999999
 31
0.0
  0
LINE
  5
287
  8
0
 62
     7
 10
71.590100000000007
 20
108.645
 30
0.0
 11
71.485699999999994
 21
108.958
 31
0.0
  0
LINE
  5
288
  8
0
 62
     7
 10
71.485699999999994
 20
108.958
 30
0.0
 11
71.277600000000007
 21
109.19199999999999
 31
0.0
  0
LINE
  5
289
  8
0
 62
     7
 10
71.277600000000007
 20
109.19199999999999
 30
0.0
 11
71.016800000000003
 21
109.375
 31
0.0
  0
LINE
  5
28A
  8
0
 62
     7
 10
71.016800000000003
 20
109.375
 30
0.0
 11
70.704300000000003
 21
109.453
 31
0.0
  0
ARC
  5
28B
  8
0
 62
     7
 10
398.21774199999999
 20
-21780.630000000001
 30
0.0
 40
21892.540000000001
 50
90.876261999999997
 51
90.908464999999993
  0
ARC
  5
28C
  8
0
 62
     7
 10
72.231430000000003
 20
-1083.038
 30
0.0
 40
1192.383
 50
91.015111000000005
 51
91.24642399999999
  0
ARC
  5
28D
  8
0
 62
     7
 10
37.602837000000001
 20
378.91192999999998
 30
0.0
 40
269.98977500000001
 50
271.54549199999991
 51
271.84470700000003
  0
ARC
  5
28E
  8
0
 62
     7
 10
48.347552
 20
-46.423034999999992
 30
0.0
 40
155.48197300000001
 50
91.276211000000004
 51
92.747750999999994
  0
ARC
  5
28F
  8
0
 62
     7
 10
45.725524
 20
35.824517999999998
 30
0.0
 40
73.215256000000011
 50
93.783815000000004
 51
94.328838000000005
  0
ARC
  5
290
  8
0
 62
     7
 10
40.467751999999997
 20
106.441121
 30
0.0
 40
2.4048329999999991
 50
96.412197000000006
 51
101.017983
  0
LINE
  5
291
  8
0
 62
     7
 10
40.008099999999999
 20
108.80200000000001
 30
0.0
 11
39.9041
 21
108.80200000000001
 31
0.0
  0
LINE
  5
292
  8
0
 62
     7
 10
39.9041
 20
108.80200000000001
 30
0.0
 11
39.877899999999997
 21
108.77500000000001
 31
0.0
  0
LINE
  5
293
  8
0
 62
     7
 10
39.877899999999997
 20
108.77500000000001
 30
0.0
 11
39.825600000000001
 21
108.77500000000001
 31
0.0
  0
LINE
  5
294
  8
0
 62
     7
 10
39.825600000000001
 20
108.77500000000001
 30
0.0
 11
39.799700000000001
 21
108.75
 31
0.0
  0
LINE
  5
295
  8
0
 62
     7
 10
39.799700000000001
 20
108.75
 30
0.0
 11
39.773499999999999
 21
108.724
 31
0.0
  0
LINE
  5
296
  8
0
 62
     7
 10
39.773499999999999
 20
108.724
 30
0.0
 11
39.747399999999999
 21
108.69799999999999
 31
0.0
  0
LINE
  5
297
  8
0
 62
     7
 10
39.747399999999999
 20
108.69799999999999
 30
0.0
 11
39.747399999999999
 21
108.645
 31
0.0
  0
LINE
  5
298
  8
0
 62
     7
 10
63.644199999999991
 20
109.349
 30
0.0
 11
63.618400000000001
 21
109.349
 31
0.0
  0
LINE
  5
299
  8
0
 62
     7
 10
63.618400000000001
 20
109.349
 30
0.0
 11
63.644199999999991
 21
109.349
 31
0.0
  0
ARC
  5
29A
  8
0
 62
     7
 10
-349.784357
 20
103.36287299999999
 30
0.0
 40
389.56752299999999
 50
0.170464
 51
0.7769260000000001
  0
ARC
  5
29B
  8
0
 62
     7
 10
8654.232
 20
131.68989500000001
 30
0.0
 40
8614.4929100000008
 50
180.18071699999999
 51
180.23557700000001
  0
ARC
  5
29C
  8
0
 62
     7
 10
382.93205799999998
 20
98.982508999999993
 30
0.0
 40
343.13134700000001
 50
180.45233999999999
 51
181.05743899999999
  0
ARC
  5
29D
  8
0
 62
     7
 10
50.453485999999998
 20
104.702781
 30
0.0
 40
1.7945580000000001
 50
97.232087000000007
 51
110.19566500000001
  0
ARC
  5
29E
  8
0
 62
     7
 10
50.197541000000001
 20
105.45652800000001
 30
0.0
 40
0.9989940000000001
 50
111.343118
 51
137.19385700000001
  0
ARC
  5
29F
  8
0
 62
     7
 10
50.131867
 20
105.55399800000001
 30
0.0
 40
0.8849870000000001
 50
138.934573
 51
160.06714099999999
  0
ARC
  5
2A0
  8
0
 62
     7
 10
50.517946999999999
 20
105.398301
 30
0.0
 40
1.3011010000000001
 50
159.41767999999999
 51
170.60588300000001
  0
ARC
  5
2A1
  8
0
 62
     7
 10
51.236151999999997
 20
105.26369200000001
 30
0.0
 40
2.0317050000000001
 50
170.16663500000001
 51
175.185034
  0
ARC
  5
2A2
  8
0
 62
     7
 10
52.255465999999998
 20
105.17734299999999
 30
0.0
 40
3.054670999999999
 50
175.17593299999999
 51
179.08621199999999
  0
ARC
  5
2A3
  8
0
 62
     7
 10
54.888739000000001
 20
105.135925
 30
0.0
 40
5.688269
 50
179.092071
 51
181.75499400000001
  0
ARC
  5
2A4
  8
0
 62
     7
 10
6.636004999999999
 20
103.36962699999999
 30
0.0
 40
42.596896999999998
 50
1.3140739999999991
 51
2.1419749999999991
  0
ARC
  5
2A5
  8
0
 62
     7
 10
45.293730999999987
 20
104.3172
 30
0.0
 40
3.9280759999999999
 50
355.869597
 51
0.4273520000000001
  0
ARC
  5
2A6
  8
0
 62
     7
 10
-194.60858899999999
 20
96.033928000000003
 30
0.0
 40
243.951415
 50
1.5692149999999989
 51
1.879341999999999
  0
ARC
  5
2A7
  8
0
 62
     7
 10
132.31941499999999
 20
104.878424
 30
0.0
 40
83.096259999999987
 50
181.492288
 51
183.062545
  0
ARC
  5
2A8
  8
0
 62
     7
 10
97.137248000000014
 20
100.683858
 30
0.0
 40
47.796044999999999
 50
180.29360700000001
 51
181.00600600000001
  0
ARC
  5
2A9
  8
0
 62
     7
 10
147.48563999999999
 20
101.583715
 30
0.0
 40
98.152476000000007
 50
181.01520500000001
 51
181.639703
  0
ARC
  5
2AA
  8
0
 62
     7
 10
-31.519791000000001
 20
95.939979000000008
 30
0.0
 40
80.942813999999984
 50
0.492362
 51
2.0073240000000001
  0
ARC
  5
2AB
  8
0
 62
     7
 10
30.014956000000002
 20
95.592426000000003
 30
0.0
 40
19.433095000000002
 50
1.974988999999999
 51
3.076953
  0
ARC
  5
2AC
  8
0
 62
     7
 10
12.338317999999999
 20
94.993987000000004
 30
0.0
 40
37.119858000000001
 50
0.9321050000000001
 51
1.957838
  0
ARC
  5
2AD
  8
0
 62
     7
 10
80.950170999999983
 20
95.662499999999994
 30
0.0
 40
31.496973000000001
 50
180.11764600000001
 51
183.064525
  0
LINE
  5
2AE
  8
0
 62
     7
 10
49.49819999999999
 20
93.978700000000003
 30
0.0
 11
49.49819999999999
 21
93.4833
 31
0.0
  0
LINE
  5
2AF
  8
0
 62
     7
 10
49.49819999999999
 20
93.4833
 30
0.0
 11
49.5244
 21
93.014700000000005
 31
0.0
  0
LINE
  5
2B0
  8
0
 62
     7
 10
49.5244
 20
93.014700000000005
 30
0.0
 11
49.5244
 21
92.650199999999984
 31
0.0
  0
LINE
  5
2B1
  8
0
 62
     7
 10
49.5244
 20
92.650199999999984
 30
0.0
 11
49.602600000000002
 21
92.519299999999987
 31
0.0
  0
LINE
  5
2B2
  8
0
 62
     7
 10
49.602600000000002
 20
92.519299999999987
 30
0.0
 11
49.732900000000001
 21
92.467600000000004
 31
0.0
  0
LINE
  5
2B3
  8
0
 62
     7
 10
83.235200000000006
 20
92.467600000000004
 30
0.0
 11
83.391300000000001
 21
92.493099999999984
 31
0.0
  0
LINE
  5
2B4
  8
0
 62
     7
 10
83.391300000000001
 20
92.493099999999984
 30
0.0
 11
83.469499999999996
 21
92.650199999999984
 31
0.0
  0
LINE
  5
2B5
  8
0
 62
     7
 10
57.860900000000001
 20
106.66500000000001
 30
0.0
 11
57.600099999999998
 21
106.66500000000001
 31
0.0
  0
LINE
  5
2B6
  8
0
 62
     7
 10
57.600099999999998
 20
106.66500000000001
 30
0.0
 11
57.600099999999998
 21
106.69199999999999
 31
0.0
  0
LINE
  5
2B7
  8
0
 62
     7
 10
57.600099999999998
 20
106.66500000000001
 30
0.0
 11
57.548400000000001
 21
106.66500000000001
 31
0.0
  0
ARC
  5
2B8
  8
0
 62
     7
 10
1313.9590000000001
 20
72.190743999999995
 30
0.0
 40
1230.6600000000001
 50
178.91018700000001
 51
179.047405
  0
ARC
  5
2B9
  8
0
 62
     7
 10
2878.1480000000001
 20
42.213380999999991
 30
0.0
 40
2795.1350000000002
 50
178.78940900000001
 51
178.90563399999999
  0
LINE
  5
2BA
  8
0
 62
     7
 10
83.636099999999985
 20
101.26600000000001
 30
0.0
 11
83.755799999999994
 21
107.16
 31
0.0
  0
LINE
  5
2BB
  8
0
 62
     7
 10
83.755799999999994
 20
107.16
 30
0.0
 11
83.755799999999994
 21
107.21299999999999
 31
0.0
  0
LINE
  5
2BC
  8
0
 62
     7
 10
83.755799999999994
 20
107.21299999999999
 30
0.0
 11
83.730000000000004
 21
107.21299999999999
 31
0.0
  0
LINE
  5
2BD
  8
0
 62
     7
 10
83.730000000000004
 20
107.21299999999999
 30
0.0
 11
83.730000000000004
 21
107.238
 31
0.0
  0
LINE
  5
2BE
  8
0
 62
     7
 10
83.730000000000004
 20
107.238
 30
0.0
 11
83.704099999999997
 21
107.238
 31
0.0
  0
LINE
  5
2BF
  8
0
 62
     7
 10
83.704099999999997
 20
107.238
 30
0.0
 11
83.677899999999994
 21
107.264
 31
0.0
  0
LINE
  5
2C0
  8
0
 62
     7
 10
83.677899999999994
 20
107.264
 30
0.0
 11
83.625600000000006
 21
107.264
 31
0.0
  0
LINE
  5
2C1
  8
0
 62
     7
 10
83.625600000000006
 20
107.264
 30
0.0
 11
83.599699999999999
 21
107.291
 31
0.0
  0
LINE
  5
2C2
  8
0
 62
     7
 10
83.599699999999999
 20
107.291
 30
0.0
 11
83.495299999999986
 21
107.291
 31
0.0
  0
LINE
  5
2C3
  8
0
 62
     7
 10
83.495299999999986
 20
107.291
 30
0.0
 11
83.469499999999996
 21
107.31699999999999
 31
0.0
  0
ARC
  5
2C4
  8
0
 62
     7
 10
83.400809999999993
 20
108.84110200000001
 30
0.0
 40
1.525868
 50
262.7996
 51
272.58044200000001
  0
ARC
  5
2C5
  8
0
 62
     7
 10
81.169177000000005
 20
90.477158000000003
 30
0.0
 40
16.973193999999999
 50
83.095658999999998
 51
84.403152999999989
  0
ARC
  5
2C6
  8
0
 62
     7
 10
82.724130999999986
 20
105.820266
 30
0.0
 40
1.5524219999999991
 50
86.291648999999992
 51
94.230659000000003
  0
ARC
  5
2C7
  8
0
 62
     7
 10
77.774193000000011
 20
33.616743999999997
 30
0.0
 40
73.910056000000012
 50
86.248854000000009
 51
87.600626000000005
  0
ARC
  5
2C8
  8
0
 62
     7
 10
75.444452999999996
 20
-19.545531
 30
0.0
 40
127.12329800000001
 50
87.554617000000007
 51
88.825254000000015
  0
ARC
  5
2C9
  8
0
 62
     7
 10
56.99327499999999
 20
110.23870599999999
 30
0.0
 40
3.595880999999999
 50
273.75878399999999
 51
276.36132500000002
  0
ARC
  5
2CA
  8
0
 62
     7
 10
56.816600999999999
 20
112.902276
 30
0.0
 40
6.2653040000000004
 50
271.270647
 51
273.774157
  0
ARC
  5
2CB
  8
0
 62
     7
 10
56.485529999999997
 20
129.224884
 30
0.0
 40
22.591260999999999
 50
269.88566900000001
 51
271.19211799999999
  0
ARC
  5
2CC
  8
0
 62
     7
 10
56.369776000000002
 20
97.345795999999993
 30
0.0
 40
9.2881409999999995
 50
89.564041000000003
 51
93.821208999999996
  0
ARC
  5
2CD
  8
0
 62
     7
 10
56.319080999999997
 20
79.15745600000001
 30
0.0
 40
27.461711999999999
 50
91.185766000000001
 51
92.112898999999999
  0
ARC
  5
2CE
  8
0
 62
     7
 10
51.598607000000001
 20
200.35316499999999
 30
0.0
 40
93.825966000000008
 50
271.619077
 51
272.26492300000001
  0
ARC
  5
2CF
  8
0
 62
     7
 10
53.862240999999997
 20
123.128029
 30
0.0
 40
16.567899000000001
 50
269.23366600000003
 51
271.33969200000001
  0
ARC
  5
2D0
  8
0
 62
     7
 10
49.96901900000001
 20
191.908974
 30
0.0
 40
85.426303000000004
 50
270.17342200000002
 51
272.463346
  0
LINE
  5
2D1
  8
0
  6
AIGENLINE002
 62
     7
 10
139.25299999999999
 20
161.178
 30
0.0
 11
139.25299999999999
 21
185.774
 31
0.0
  0
LINE
  5
2D2
  8
0
  6
AIGENLINE002
 62
     7
 10
139.25299999999999
 20
90.621700000000004
 30
0.0
 11
139.25299999999999
 21
111.377
 31
0.0
  0
LINE
  5
2D3
  8
0
  6
AIGENLINE002
 62
     7
 10
61.755600000000001
 20
90.621700000000004
 30
0.0
 11
61.755600000000001
 21
111.377
 31
0.0
  0
LINE
  5
2D4
  8
0
  6
AIGENLINE002
 62
     7
 10
61.755600000000001
 20
148.40199999999999
 30
0.0
 11
61.755600000000001
 21
197.7459999999999
 31
0.0
  0
LINE
  5
2D5
  8
0
 62
     7
 10
83.755799999999994
 20
178.35599999999999
 30
0.0
 11
83.755799999999994
 21
203.56800000000001
 31
0.0
  0
LINE
  5
2D6
  8
0
 62
     7
 10
83.755799999999994
 20
108.379
 30
0.0
 11
83.755799999999994
 21
117.786
 31
0.0
  0
LINE
  5
2D7
  8
0
 62
     7
 10
39.755400000000002
 20
109.919
 30
0.0
 11
39.755400000000002
 21
117.786
 31
0.0
  0
LINE
  5
2D8
  8
0
 62
     7
 10
39.755400000000002
 20
178.35599999999999
 30
0.0
 11
39.755400000000002
 21
203.56800000000001
 31
0.0
  0
LINE
  5
2D9
  8
_________2
 62
     7
 10
139.75999999999999
 20
258.911
 30
0.0
 11
139.75999999999999
 21
237.911
 31
0.0
  0
LINE
  5
2DA
  8
_________2
 62
     7
 10
165.18100000000001
 20
258.911
 30
0.0
 11
165.18100000000001
 21
237.911
 31
0.0
  0
LINE
  5
2DB
  8
_________2
 62
     7
 10
139.75999999999999
 20
237.911
 30
0.0
 11
183.55099999999999
 21
237.911
 31
0.0
  0
TEXT
  5
2DC
  8
_________2
 62
     7
 10
169.56470200000001
 20
240.06200000000001
 30
0.0
 40
3.9929099999999988
  1
ブラック
 41
0.5
 72
     1
 11
174.09
 21
240.06200000000001
 31
0.0
  0
TEXT
  5
2DD
  8
_________2
 62
     7
 10
169.63125049999999
 20
247.06100000000001
 30
0.0
 40
3.9929099999999988
  1
ホワイト
 41
0.5
 72
     1
 11
174.09
 21
247.06100000000001
 31
0.0
  0
TEXT
  5
2DE
  8
_________2
 62
     7
 10
171.96044800000001
 20
254.06200000000001
 30
0.0
 40
3.9929099999999988
  1
仕上
 41
0.5
 72
     1
 11
174.09
 21
254.06200000000001
 31
0.0
  0
TEXT
  5
2DF
  8
_________2
 62
     7
 10
142.96446750000001
 20
240.06200000000001
 30
0.0
 40
3.9929099999999988
  1
FLRL44L-BL
 41
0.5
 72
     1
 11
152.614
 21
240.06200000000001
 31
0.0
  0
TEXT
  5
2E0
  8
_________2
 62
     7
 10
145.95914999999999
 20
247.06200000000001
 30
0.0
 40
3.9929099999999988
  1
FLRL44L
 41
0.5
 72
     1
 11
152.614
 21
247.06200000000001
 31
0.0
  0
TEXT
  5
2E1
  8
_________2
 62
     7
 10
150.48444799999999
 20
254.06200000000001
 30
0.0
 40
3.9929099999999988
  1
品番
 41
0.5
 72
     1
 11
152.614
 21
254.06200000000001
 31
0.0
  0
LINE
  5
2E2
  8
_________2
 62
     7
 10
139.75999999999999
 20
244.911
 30
0.0
 11
183.55099999999999
 21
244.911
 31
0.0
  0
LINE
  5
2E3
  8
_________2
 62
     7
 10
139.75999999999999
 20
251.911
 30
0.0
 11
183.55099999999999
 21
251.911
 31
0.0
  0
TEXT
  5
2E4
  8
_________2
 62
     7
 10
109.179
 20
24.303899999999999
 30
0.0
 40
4.6583899999999989
  1
ロール 洗面器
 41
0.5
  0
LINE
  5
2E5
  8
_________2
 62
     7
 10
205.30099999999999
 20
127.489
 30
0.0
 11
183.55099999999999
 21
127.489
 31
0.0
  0
LINE
  5
2E6
  8
_________2
 62
     7
 10
100.3
 20
-4.0128699999999986
 30
0.0
 11
100.3
 21
-20.993200000000002
 31
0.0
  0
LINE
  5
2E7
  8
_________2
 62
     7
 10
100.3
 20
276.00900000000001
 30
0.0
 11
100.3
 21
258.988
 31
0.0
  0
LINE
  5
2E8
  8
_________2
 62
     7
 10
17.049499999999998
 20
127.489
 30
0.0
 11
-4.7008599999999987
 21
127.489
 31
0.0
  0
LINE
  5
2E9
  8
_________2
 62
     7
 10
76.741
 20
29.882899999999999
 30
0.0
 11
74.554699999999997
 21
29.882899999999999
 31
0.0
  0
LINE
  5
2EA
  8
_________2
 62
     7
 10
77.233699999999999
 20
29.882899999999999
 30
0.0
 11
76.981499999999997
 21
29.882899999999999
 31
0.0
  0
LINE
  5
2EB
  8
_________2
 62
     7
 10
77.726299999999995
 20
29.882899999999999
 30
0.0
 11
80.651200000000003
 21
29.882899999999999
 31
0.0
  0
LINE
  5
2EC
  8
_________2
 62
     7
 10
77.233699999999999
 20
29.882899999999999
 30
0.0
 11
77.485900000000001
 21
29.882899999999999
 31
0.0
  0
LINE
  5
2ED
  8
_________2
 62
     7
 10
70.837500000000006
 20
29.882899999999999
 30
0.0
 11
68.650499999999994
 21
29.882899999999999
 31
0.0
  0
LINE
  5
2EE
  8
_________2
 62
     7
 10
71.329400000000007
 20
29.882899999999999
 30
0.0
 11
71.0779
 21
29.882899999999999
 31
0.0
  0
LINE
  5
2EF
  8
_________2
 62
     7
 10
71.329400000000007
 20
30.375599999999999
 30
0.0
 11
71.329400000000007
 21
32.56260000000001
 31
0.0
  0
LINE
  5
2F0
  8
_________2
 62
     7
 10
71.329400000000007
 20
29.882899999999999
 30
0.0
 11
71.329400000000007
 21
30.135100000000001
 31
0.0
  0
LINE
  5
2F1
  8
_________2
 62
     7
 10
71.822100000000006
 20
29.882899999999999
 30
0.0
 11
74.009
 21
29.882899999999999
 31
0.0
  0
LINE
  5
2F2
  8
_________2
 62
     7
 10
71.329400000000007
 20
29.882899999999999
 30
0.0
 11
71.581599999999995
 21
29.882899999999999
 31
0.0
  0
LINE
  5
2F3
  8
_________2
 62
     7
 10
71.329400000000007
 20
29.390999999999998
 30
0.0
 11
71.329400000000007
 21
27.204000000000001
 31
0.0
  0
LINE
  5
2F4
  8
_________2
 62
     7
 10
71.329400000000007
 20
29.882899999999999
 30
0.0
 11
71.329400000000007
 21
29.631499999999999
 31
0.0
  0
LINE
  5
2F5
  8
_________2
 62
     7
 10
75.040499999999994
 20
28.663399999999999
 30
0.0
 11
80.218500000000006
 21
27.7987
 31
0.0
  0
LINE
  5
2F6
  8
_________2
 62
     7
 10
75.040499999999994
 20
31.102499999999999
 30
0.0
 11
80.218500000000006
 21
31.9679
 31
0.0
  0
LINE
  5
2F7
  8
_________2
 62
     7
 10
80.218500000000006
 20
27.7987
 30
0.0
 11
80.218500000000006
 21
31.9679
 31
0.0
  0
LINE
  5
2F8
  8
_________2
 62
     7
 10
75.040499999999994
 20
28.663399999999999
 30
0.0
 11
75.040499999999994
 21
31.102499999999999
 31
0.0
  0
ARC
  5
2F9
  8
_________2
 62
     7
 10
71.283190000000005
 20
29.835991
 30
0.0
 40
1.2673709999999989
 50
2.1232950000000002
 51
87.909056000000007
  0
ARC
  5
2FA
  8
_________2
 62
     7
 10
71.375959999999992
 20
29.836417000000001
 30
0.0
 40
1.2669559999999991
 50
92.104701000000006
 51
177.89526900000001
  0
ARC
  5
2FB
  8
_________2
 62
     7
 10
71.376357999999996
 20
29.929874999999999
 30
0.0
 40
1.2673680000000001
 50
182.12203600000001
 51
267.877993
  0
ARC
  5
2FC
  8
_________2
 62
     7
 10
71.282541000000009
 20
29.930551999999999
 30
0.0
 40
1.2680439999999991
 50
272.11916400000001
 51
357.84848499999998
  0
ARC
  5
2FD
  8
_________2
 62
     7
 10
71.329430000000002
 20
29.882947000000001
 30
0.0
 40
2.0849849999999992
 50
0.00001
 51
89.999980000000008
  0
ARC
  5
2FE
  8
_________2
 62
     7
 10
71.409075999999999
 20
29.804017000000002
 30
0.0
 40
2.165379999999999
 50
92.107876000000005
 51
177.91103200000001
  0
ARC
  5
2FF
  8
_________2
 62
     7
 10
71.409439000000006
 20
29.962955999999998
 30
0.0
 40
2.1657829999999998
 50
182.117133
 51
267.88289700000001
  0
ARC
  5
300
  8
_________2
 62
     7
 10
71.249459000000002
 20
29.963633999999999
 30
0.0
 40
2.1664590000000001
 50
272.11546800000002
 51
357.86560400000002
  0
TEXT
  5
301
  8
_________2
 62
     7
 10
104.605
 20
1.7576999999999989
 30
0.0
 40
3.660169999999999
  1
図番
 41
0.5
  0
LINE
  5
302
  8
_________2
 62
     7
 10
103.551
 20
5.9869199999999987
 30
0.0
 11
183.55099999999999
 21
5.9869199999999987
 31
0.0
  0
TEXT
  5
303
  8
_________2
 62
     7
 10
104.605
 20
11.7575
 30
0.0
 40
3.660169999999999
  1
品番
 41
0.5
  0
TEXT
  5
304
  8
_________2
 62
     7
 10
104.605
 20
31.8963
 30
0.0
 40
3.660169999999999
  1
名称
 41
0.5
  0
TEXT
  5
305
  8
_________2
 62
     7
 10
91.565645833333335
 20
26.900200000000002
 30
0.0
 40
4.3256500000000004
  1
mm
 41
0.5
 72
     1
 11
93.367999999999995
 21
26.900200000000002
 31
0.0
  0
TEXT
  5
306
  8
_________2
 62
     7
 10
85.643199999999993
 20
31.8963
 30
0.0
 40
3.660169999999999
  1
単位
 41
0.5
  0
TEXT
  5
307
  8
_________2
 62
     7
 10
85.643199999999993
 20
19.489000000000001
 30
0.0
 40
3.660169999999999
  1
尺度
 41
0.5
  0
TEXT
  5
308
  8
_________2
 62
     7
 10
89.381920416666674
 20
13.296099999999999
 30
0.0
 40
4.3256500000000004
  1
1 ： 10
 41
0.5
 72
     1
 11
93.959900000000005
 21
13.296099999999999
 31
0.0
  0
TEXT
  5
309
  8
_________2
 62
     7
 10
135.3978175
 20
9.1860600000000012
 30
0.0
 40
4.6583899999999989
  1
図中の表参照
 41
0.5
 72
     1
 11
143.55000000000001
 21
9.1860600000000012
 31
0.0
  0
TEXT
  5
30A
  8
_________2
 62
     7
 10
135.7860166666666
 20
-0.8144259999999999
 30
0.0
 40
4.6583899999999989
  1
FLRL44L
 41
0.5
 72
     1
 11
143.55000000000001
 21
-0.8144259999999999
 31
0.0
  0
TEXT
  5
30B
  8
_________2
 62
     7
 10
24.5868
 20
0.7854870000000001
 30
0.0
 40
4.6583899999999989
  1
重量：11.0kg、オーバーフローなし
 41
0.5
  0
TEXT
  5
30C
  8
_________2
 62
     7
 10
39.078580833333341
 20
13.6812
 30
0.0
 40
4.3256500000000004
  1
早川
 41
0.5
 72
     1
 11
41.313499999999998
 21
13.6812
 31
0.0
  0
TEXT
  5
30D
  8
_________2
 62
     7
 10
20.432486666666659
 20
13.6812
 30
0.0
 40
4.3256500000000004
  1
菅原
 41
0.5
 72
     1
 11
22.7395
 21
13.6812
 31
0.0
  0
TEXT
  5
30E
  8
_________2
 62
     7
 10
67.785799999999995
 20
13.296099999999999
 30
0.0
 40
4.3256500000000004
  1
15.04.16
 41
0.5
  0
TEXT
  5
30F
  8
_________2
 62
     7
 10
66.593100000000007
 20
19.489000000000001
 30
0.0
 40
3.660169999999999
  1
日付
 41
0.5
  0
TEXT
  5
310
  8
_________2
 62
     7
 10
29.639399999999998
 20
19.489000000000001
 30
0.0
 40
3.660169999999999
  1
検図
 41
0.5
  0
TEXT
  5
311
  8
_________2
 62
     7
 10
18.021100000000001
 20
5.2896299999999998
 30
0.0
 40
3.660169999999999
  1
備考
 41
0.5
  0
TEXT
  5
312
  8
_________2
 62
     7
 10
18.021100000000001
 20
19.489000000000001
 30
0.0
 40
3.660169999999999
  1
製図
 41
0.5
  0
TEXT
  5
313
  8
_________2
 62
     7
 10
20.594830666666692
 20
28.015000000000001
 30
0.0
 40
5.3238799999999991
  1
セラトレーディング株式会社
 41
0.5
 72
     1
 11
41.180500000000002
 21
28.015000000000001
 31
0.0
  0
LINE
  5
314
  8
_________2
 62
     7
 10
183.55099999999999
 20
-4.0128699999999986
 30
0.0
 11
17.049499999999998
 21
-4.0128699999999986
 31
0.0
  0
LINE
  5
315
  8
_________2
 62
     7
 10
17.049499999999998
 20
-4.0128699999999986
 30
0.0
 11
17.049499999999998
 21
258.988
 31
0.0
  0
LINE
  5
316
  8
_________2
 62
     7
 10
17.049499999999998
 20
258.988
 30
0.0
 11
183.55099999999999
 21
258.988
 31
0.0
  0
LINE
  5
317
  8
_________2
 62
     7
 10
183.55099999999999
 20
258.988
 30
0.0
 11
183.55099999999999
 21
-4.0128699999999986
 31
0.0
  0
LINE
  5
318
  8
_________2
 62
     7
 10
65.549899999999994
 20
9.4871600000000011
 30
0.0
 11
65.549899999999994
 21
35.987000000000002
 31
0.0
  0
LINE
  5
319
  8
_________2
 62
     7
 10
84.549700000000016
 20
9.4871600000000011
 30
0.0
 11
84.549700000000016
 21
35.987000000000002
 31
0.0
  0
LINE
  5
31A
  8
_________2
 62
     7
 10
103.551
 20
-4.0128699999999986
 30
0.0
 11
103.551
 21
35.987000000000002
 31
0.0
  0
LINE
  5
31B
  8
_________2
 62
     7
 10
28.549299999999999
 20
9.4871600000000011
 30
0.0
 11
28.549299999999999
 21
23.487400000000001
 31
0.0
  0
LINE
  5
31C
  8
_________2
 62
     7
 10
17.049499999999998
 20
9.4871600000000011
 30
0.0
 11
103.551
 21
9.4871600000000011
 31
0.0
  0
LINE
  5
31D
  8
_________2
 62
     7
 10
17.049499999999998
 20
23.487400000000001
 30
0.0
 11
103.551
 21
23.487400000000001
 31
0.0
  0
LINE
  5
31E
  8
_________2
 62
     7
 10
103.551
 20
15.986700000000001
 30
0.0
 11
183.55099999999999
 21
15.986700000000001
 31
0.0
  0
LINE
  5
31F
  8
_________2
 62
     7
 10
17.049499999999998
 20
35.987000000000002
 30
0.0
 11
183.55099999999999
 21
35.987000000000002
 31
0.0
  0
ENDSEC
  0
EOF
