  0
SECTION
  2
HEADER
  9
$ACADVER
  1
AC1009
  9
$INSBASE
 10
0.0
 20
0.0
 30
0.0
  9
$EXTMIN
 10
-4.70052
 20
-21.071400000000001
 30
0.0
  9
$EXTMAX
 10
205.30099999999999
 20
275.93099999999993
 30
0.0
  9
$LIMMIN
 10
0.0
 20
0.0
  9
$LIMMAX
 10
12.0
 20
9.0
  9
$ORTHOMODE
 70
     0
  9
$REGENMODE
 70
     1
  9
$FILLMODE
 70
     1
  9
$QTEXTMODE
 70
     0
  9
$MIRRTEXT
 70
     1
  9
$DRAGMODE
 70
     2
  9
$LTSCALE
 40
1.0
  9
$OSMODE
 70
    37
  9
$ATTMODE
 70
     1
  9
$TEXTSIZE
 40
0.0
  9
$TRACEWID
 40
0.05
  9
$TEXTSTYLE
  7
STANDARD
  9
$CLAYER
  8
0
  9
$CELTYPE
  6
CONTINUOUS
  9
$CECOLOR
 62
   256
  9
$DIMSCALE
 40
1.0
  9
$DIMASZ
 40
0.18
  9
$DIMEXO
 40
0.0625
  9
$DIMDLI
 40
0.38
  9
$DIMRND
 40
0.0
  9
$DIMDLE
 40
0.0
  9
$DIMEXE
 40
0.18
  9
$DIMTP
 40
0.0
  9
$DIMTM
 40
0.0
  9
$DIMTXT
 40
0.18
  9
$DIMCEN
 40
0.09
  9
$DIMTSZ
 40
0.0
  9
$DIMTOL
 70
     0
  9
$DIMLIM
 70
     0
  9
$DIMTIH
 70
     1
  9
$DIMTOH
 70
     1
  9
$DIMSE1
 70
     0
  9
$DIMSE2
 70
     0
  9
$DIMTAD
 70
     0
  9
$DIMZIN
 70
     0
  9
$DIMBLK
  1

  9
$DIMASO
 70
     1
  9
$DIMSHO
 70
     1
  9
$DIMPOST
  1

  9
$DIMAPOST
  1

  9
$DIMALT
 70
     0
  9
$DIMALTD
 70
     2
  9
$DIMALTF
 40
25.399999999999999
  9
$DIMLFAC
 40
1.0
  9
$DIMTOFL
 70
     0
  9
$DIMTVP
 40
0.0
  9
$DIMTIX
 70
     0
  9
$DIMSOXD
 70
     0
  9
$DIMSAH
 70
     0
  9
$DIMBLK1
  1

  9
$DIMBLK2
  1

  9
$DIMSTYLE
  2
STANDARD
  9
$DIMCLRD
 70
     0
  9
$DIMCLRE
 70
     0
  9
$DIMCLRT
 70
     0
  9
$DIMTFAC
 40
1.0
  9
$DIMGAP
 40
0.09
  9
$LUNITS
 70
     2
  9
$LUPREC
 70
     4
  9
$SKETCHINC
 40
0.1
  9
$FILLETRAD
 40
0.0
  9
$AUNITS
 70
     0
  9
$AUPREC
 70
     0
  9
$MENU
  1
.
  9
$ELEVATION
 40
0.0
  9
$PELEVATION
 40
0.0
  9
$THICKNESS
 40
0.0
  9
$LIMCHECK
 70
     0
  9
$BLIPMODE
 70
     0
  9
$CHAMFERA
 40
0.0
  9
$CHAMFERB
 40
0.0
  9
$SKPOLY
 70
     0
  9
$TDCREATE
 40
2444972.375
  9
$TDUPDATE
 40
2456687.250113437
  9
$TDINDWG
 40
0.0000103009
  9
$TDUSRTIMER
 40
0.0000103009
  9
$USRTIMER
 70
     1
  9
$ANGBASE
 50
0.0
  9
$ANGDIR
 70
     0
  9
$PDMODE
 70
     0
  9
$PDSIZE
 40
0.0
  9
$PLINEWID
 40
0.0
  9
$COORDS
 70
     1
  9
$SPLFRAME
 70
     0
  9
$SPLINETYPE
 70
     6
  9
$SPLINESEGS
 70
     8
  9
$ATTDIA
 70
     0
  9
$ATTREQ
 70
     1
  9
$HANDLING
 70
     1
  9
$HANDSEED
  5
3EE
  9
$SURFTAB1
 70
     6
  9
$SURFTAB2
 70
     6
  9
$SURFTYPE
 70
     6
  9
$SURFU
 70
     6
  9
$SURFV
 70
     6
  9
$UCSNAME
  2

  9
$UCSORG
 10
0.0
 20
0.0
 30
0.0
  9
$UCSXDIR
 10
1.0
 20
0.0
 30
0.0
  9
$UCSYDIR
 10
0.0
 20
1.0
 30
0.0
  9
$PUCSNAME
  2

  9
$PUCSORG
 10
0.0
 20
0.0
 30
0.0
  9
$PUCSXDIR
 10
1.0
 20
0.0
 30
0.0
  9
$PUCSYDIR
 10
0.0
 20
1.0
 30
0.0
  9
$USERI1
 70
     0
  9
$USERI2
 70
     0
  9
$USERI3
 70
     0
  9
$USERI4
 70
     0
  9
$USERI5
 70
     0
  9
$USERR1
 40
0.0
  9
$USERR2
 40
0.0
  9
$USERR3
 40
0.0
  9
$USERR4
 40
0.0
  9
$USERR5
 40
0.0
  9
$WORLDVIEW
 70
     1
  9
$SHADEDGE
 70
     3
  9
$SHADEDIF
 70
    70
  9
$TILEMODE
 70
     1
  9
$MAXACTVP
 70
    48
  9
$PLIMCHECK
 70
     0
  9
$PEXTMIN
 10
1.0000000000000000E+020
 20
1.0000000000000000E+020
 30
1.0000000000000000E+020
  9
$PEXTMAX
 10
-1.0000000000000000E+020
 20
-1.0000000000000000E+020
 30
-1.0000000000000000E+020
  9
$PLIMMIN
 10
0.0
 20
0.0
  9
$PLIMMAX
 10
12.0
 20
9.0
  9
$UNITMODE
 70
     0
  9
$VISRETAIN
 70
     1
  9
$PLINEGEN
 70
     0
  9
$PSLTSCALE
 70
     1
  0
ENDSEC
  0
SECTION
  2
TABLES
  0
TABLE
  2
VPORT
 70
     2
  0
VPORT
  2
*ACTIVE
 70
     0
 10
0.0
 20
0.0
 11
1.0
 21
1.0
 12
202.00678374696719
 22
127.4298
 13
0.0
 23
0.0
 14
1.0
 24
1.0
 15
0.0
 25
0.0
 16
0.0
 26
0.0
 36
1.0
 17
0.0
 27
0.0
 37
0.0
 40
299.45358899587342
 41
2.2894736842105261
 42
50.0
 43
0.0
 44
0.0
 50
0.0
 51
0.0
 71
     0
 72
   100
 73
     1
 74
     1
 75
     0
 76
     0
 77
     0
 78
     0
  0
ENDTAB
  0
TABLE
  2
LTYPE
 70
     3
  0
LTYPE
  2
CONTINUOUS
 70
     0
  3
Solid line
 72
    65
 73
     0
 40
0.0
  0
LTYPE
  2
AIGENLINE001
 70
     0
  3
generate AI->DXF Converter
 72
    65
 73
     4
 40
5.8558209999999988
 49
3.5278
 49
-0.776007
 49
0.776007
 49
-0.776007
  0
LTYPE
  2
AIGENLINE002
 70
     0
  3
generate AI->DXF Converter
 72
    65
 73
     4
 40
5.8561449999999988
 49
3.5278
 49
-0.776115
 49
0.776115
 49
-0.776115
  0
ENDTAB
  0
TABLE
  2
LAYER
 70
     2
  0
LAYER
  2
0
 70
     0
 62
     7
  6
CONTINUOUS
  0
LAYER
  2
_________2
 70
     0
 62
     7
  6
CONTINUOUS
  0
ENDTAB
  0
TABLE
  2
STYLE
 70
     1
  0
STYLE
  2
STANDARD
 70
     0
 40
0.0
 41
0.0
 50
0.0
 71
     0
 42
0.0
  3
TXT
  4
EXTFONT.SHX
  0
ENDTAB
  0
TABLE
  2
VIEW
 70
     0
  0
ENDTAB
  0
TABLE
  2
UCS
 70
     0
  0
ENDTAB
  0
TABLE
  2
APPID
 70
     1
  0
APPID
  2
ACAD
 70
     0
  0
ENDTAB
  0
TABLE
  2
DIMSTYLE
 70
     1
  0
DIMSTYLE
  2
STANDARD
 70
     0
  3

  4

  5

  6

  7

 40
1.0
 41
0.18
 42
0.0625
 43
0.38
 44
0.18
 45
0.0
 46
0.0
 47
0.0
 48
0.0
140
0.18
141
0.09
142
0.0
143
25.399999999999999
144
1.0
145
0.0
146
1.0
147
0.09
 71
     0
 72
     0
 73
     1
 74
     1
 75
     0
 76
     0
 77
     0
 78
     0
170
     0
171
     2
172
     0
173
     0
174
     0
175
     0
176
     0
177
     0
178
     0
  0
ENDTAB
  0
ENDSEC
  0
SECTION
  2
BLOCKS
  0
BLOCK
  8
0
  2
$MODEL_SPACE
 70
     0
 10
0.0
 20
0.0
 30
0.0
  3
$MODEL_SPACE
  1

  0
ENDBLK
  5
1A
  8
0
  0
BLOCK
 67
     1
  8
0
  2
$PAPER_SPACE
 70
     0
 10
0.0
 20
0.0
 30
0.0
  3
$PAPER_SPACE
  1

  0
ENDBLK
  5
17
 67
     1
  8
0
  0
ENDSEC
  0
SECTION
  2
ENTITIES
  0
TEXT
  5
23
  8
0
 62
     7
 10
126.1759999999999
 20
58.913899999999998
 30
0.0
 40
3.0923400000000001
  1
G 1/2
 41
0.5
  0
TEXT
  5
24
  8
0
 62
     7
 10
137.789242
 20
177.702
 30
0.0
 40
3.0923400000000001
  1
水栓金具取付穴
 41
0.5
 72
     1
 11
144.077
 21
177.702
 31
0.0
  0
TEXT
  5
25
  8
0
 62
     7
 10
154.6821359999999
 20
187.78099999999989
 30
0.0
 40
3.0923400000000001
  1
%%c25～28
 41
0.5
 72
     2
 11
163.7529999999999
 21
187.78099999999989
 31
0.0
  0
TEXT
  5
26
  8
0
 62
     7
 10
94.438282500000014
 20
95.629599999999996
 30
0.0
 40
3.0923400000000001
  1
30%%d
 41
0.5
 72
     1
 11
96.113299999999995
 21
95.629599999999996
 31
0.0
  0
TEXT
  5
27
  8
0
 62
     7
 10
67.193600000000004
 20
75.421899999999994
 30
0.0
 40
3.0923400000000001
  1
%%c41
 41
0.5
  0
TEXT
  5
28
  8
0
 62
     7
 10
124.371
 20
73.927422500000006
 30
0.0
 40
3.0923400000000001
  1
max.30
 50
90.0
 41
0.5
 72
     1
 11
124.371
 21
77.664000000000001
 31
0.0
  0
TEXT
  5
29
  8
0
 62
     7
 10
168.80500000000001
 20
115.66213499999991
 30
0.0
 40
3.0923400000000001
  1
129
 50
90.0
 41
0.5
 72
     1
 11
168.80500000000001
 21
117.46599999999999
 31
0.0
  0
TEXT
  5
2A
  8
0
 62
     7
 10
168.80500000000001
 20
70.928725
 30
0.0
 40
3.0923400000000001
  1
52
 50
90.0
 41
0.5
 72
     1
 11
168.80500000000001
 21
72.217200000000005
 31
0.0
  0
TEXT
  5
2B
  8
0
 62
     7
 10
145.54452499999991
 20
157.2889999999999
 30
0.0
 40
3.0923400000000001
  1
68
 41
0.5
 72
     1
 11
146.83299999999991
 21
157.2889999999999
 31
0.0
  0
TEXT
  5
2C
  8
0
 62
     7
 10
120.3613725
 20
165.70999999999989
 30
0.0
 40
3.0923400000000001
  1
90
 41
0.5
 72
     1
 11
121.521
 21
165.70999999999989
 31
0.0
  0
TEXT
  5
2D
  8
0
 62
     7
 10
109.6579999999999
 20
96.178024999999991
 30
0.0
 40
3.0923400000000001
  1
49
 50
90.0
 41
0.5
 72
     1
 11
109.6579999999999
 21
97.466499999999996
 31
0.0
  0
TEXT
  5
2E
  8
0
 62
     7
 10
86.435599999999994
 20
96.551524999999984
 30
0.0
 40
3.0923400000000001
  1
53
 50
90.0
 41
0.5
 72
     1
 11
86.435599999999994
 21
97.840000000000003
 31
0.0
  0
LINE
  5
2F
  8
0
 62
     7
 10
67.222899999999996
 20
68.967500000000001
 30
0.0
 11
44.722799999999999
 21
68.967500000000001
 31
0.0
  0
LINE
  5
30
  8
0
 62
     7
 10
44.722799999999999
 20
68.967500000000001
 30
0.0
 11
44.722799999999999
 21
69.466999999999985
 31
0.0
  0
LINE
  5
31
  8
0
 62
     7
 10
44.722799999999999
 20
69.466999999999985
 30
0.0
 11
67.222899999999996
 21
69.466999999999985
 31
0.0
  0
LINE
  5
32
  8
0
 62
     7
 10
67.222899999999996
 20
69.466999999999985
 30
0.0
 11
67.222899999999996
 21
68.967500000000001
 31
0.0
  0
LINE
  5
33
  8
0
 62
     7
 10
65.722800000000007
 20
69.466999999999985
 30
0.0
 11
46.222799999999992
 21
69.466999999999985
 31
0.0
  0
LINE
  5
34
  8
0
 62
     7
 10
46.222799999999992
 20
69.466999999999985
 30
0.0
 11
46.222799999999992
 21
70.216700000000003
 31
0.0
  0
LINE
  5
35
  8
0
 62
     7
 10
46.222799999999992
 20
70.216700000000003
 30
0.0
 11
65.722800000000007
 21
70.216700000000003
 31
0.0
  0
LINE
  5
36
  8
0
 62
     7
 10
65.722800000000007
 20
70.216700000000003
 30
0.0
 11
65.722800000000007
 21
69.466999999999985
 31
0.0
  0
LINE
  5
37
  8
0
 62
     7
 10
60.722299999999997
 20
83.715999999999994
 30
0.0
 11
60.722299999999997
 21
70.216700000000003
 31
0.0
  0
LINE
  5
38
  8
0
 62
     7
 10
51.222700000000003
 20
70.216700000000003
 30
0.0
 11
51.222700000000003
 21
83.715999999999994
 31
0.0
  0
LINE
  5
39
  8
0
 62
     7
 10
60.721899999999991
 20
59.216099999999997
 30
0.0
 11
60.721899999999991
 21
66.9679
 31
0.0
  0
LINE
  5
3A
  8
0
 62
     7
 10
51.222000000000001
 20
66.9679
 30
0.0
 11
51.222000000000001
 21
59.216099999999997
 31
0.0
  0
LINE
  5
3B
  8
0
 62
     7
 10
50.721800000000002
 20
59.715899999999991
 30
0.0
 11
61.221800000000002
 21
59.715899999999991
 31
0.0
  0
LINE
  5
3C
  8
0
 62
     7
 10
59.473100000000002
 20
68.967500000000001
 30
0.0
 11
59.473100000000002
 21
66.9679
 31
0.0
  0
LINE
  5
3D
  8
0
 62
     7
 10
52.4726
 20
68.967500000000001
 30
0.0
 11
52.4726
 21
66.9679
 31
0.0
  0
LINE
  5
3E
  8
0
 62
     7
 10
48.972000000000001
 20
68.967500000000001
 30
0.0
 11
48.972000000000001
 21
66.9679
 31
0.0
  0
LINE
  5
3F
  8
0
 62
     7
 10
48.972000000000001
 20
66.9679
 30
0.0
 11
62.971899999999998
 21
66.9679
 31
0.0
  0
LINE
  5
40
  8
0
 62
     7
 10
62.971899999999998
 20
66.9679
 30
0.0
 11
62.971899999999998
 21
68.967500000000001
 31
0.0
  0
LINE
  5
41
  8
0
 62
     7
 10
61.221800000000002
 20
84.214500000000001
 30
0.0
 11
61.221800000000002
 21
70.216700000000003
 31
0.0
  0
LINE
  5
42
  8
0
 62
     7
 10
50.721800000000002
 20
84.214500000000001
 30
0.0
 11
50.721800000000002
 21
70.216700000000003
 31
0.0
  0
LINE
  5
43
  8
0
 62
     7
 10
61.221800000000002
 20
66.9679
 30
0.0
 11
61.221800000000002
 21
59.715899999999991
 31
0.0
  0
LINE
  5
44
  8
0
 62
     7
 10
61.221800000000002
 20
59.715899999999991
 30
0.0
 11
60.721899999999991
 21
59.216099999999997
 31
0.0
  0
LINE
  5
45
  8
0
 62
     7
 10
60.721899999999991
 20
59.216099999999997
 30
0.0
 11
51.222000000000001
 21
59.216099999999997
 31
0.0
  0
LINE
  5
46
  8
0
 62
     7
 10
51.222000000000001
 20
59.216099999999997
 30
0.0
 11
50.721800000000002
 21
59.715899999999991
 31
0.0
  0
LINE
  5
47
  8
0
 62
     7
 10
50.721800000000002
 20
59.715899999999991
 30
0.0
 11
50.721800000000002
 21
66.9679
 31
0.0
  0
LINE
  5
48
  8
0
 62
     7
 10
155.30600000000001
 20
68.967500000000001
 30
0.0
 11
132.80500000000001
 21
68.967500000000001
 31
0.0
  0
LINE
  5
49
  8
0
 62
     7
 10
132.80500000000001
 20
68.967500000000001
 30
0.0
 11
132.80500000000001
 21
69.466999999999985
 31
0.0
  0
LINE
  5
4A
  8
0
 62
     7
 10
132.80500000000001
 20
69.466999999999985
 30
0.0
 11
155.30600000000001
 21
69.466999999999985
 31
0.0
  0
LINE
  5
4B
  8
0
 62
     7
 10
155.30600000000001
 20
69.466999999999985
 30
0.0
 11
155.30600000000001
 21
68.967500000000001
 31
0.0
  0
LINE
  5
4C
  8
0
 62
     7
 10
153.80600000000001
 20
69.466999999999985
 30
0.0
 11
134.30500000000001
 21
69.466999999999985
 31
0.0
  0
LINE
  5
4D
  8
0
 62
     7
 10
134.30500000000001
 20
69.466999999999985
 30
0.0
 11
134.30500000000001
 21
70.216700000000003
 31
0.0
  0
LINE
  5
4E
  8
0
 62
     7
 10
134.30500000000001
 20
70.216700000000003
 30
0.0
 11
153.80600000000001
 21
70.216700000000003
 31
0.0
  0
LINE
  5
4F
  8
0
 62
     7
 10
153.80600000000001
 20
70.216700000000003
 30
0.0
 11
153.80600000000001
 21
69.466999999999985
 31
0.0
  0
ARC
  5
50
  8
0
 62
     7
 10
60.991606999999988
 20
111.717602
 30
0.0
 40
0.68495
 50
329.90657199999998
 51
359.88234899999998
  0
ARC
  5
51
  8
0
 62
     7
 10
60.70487700000001
 20
111.86291199999999
 30
0.0
 40
1.006054
 50
316.687523
 51
330.93439099999989
  0
ARC
  5
52
  8
0
 62
     7
 10
60.268630999999999
 20
112.25995500000001
 30
0.0
 40
1.595872999999999
 50
301.42676599999999
 51
317.05937099999989
  0
ARC
  5
53
  8
0
 62
     7
 10
59.593246999999991
 20
113.270876
 30
0.0
 40
2.8110810000000002
 50
290.66445299999992
 51
302.42975799999988
  0
ARC
  5
54
  8
0
 62
     7
 10
58.926504000000001
 20
114.88681200000001
 30
0.0
 40
4.5586570000000002
 50
281.55672599999991
 51
291.33804900000001
  0
ARC
  5
55
  8
0
 62
     7
 10
58.485528000000002
 20
116.812634
 30
0.0
 40
6.5339450000000001
 50
269.54826400000002
 51
281.96204
  0
ARC
  5
56
  8
0
 62
     7
 10
58.434492000000013
 20
106.13193
 30
0.0
 40
7.022257999999999
 50
78.161830000000009
 51
90.003904999999989
  0
ARC
  5
57
  8
0
 62
     7
 10
58.837114
 20
108.2549269999999
 30
0.0
 40
4.8619949999999994
 50
68.198199999999986
 51
77.673125999999996
  0
ARC
  5
58
  8
0
 62
     7
 10
59.497222000000001
 20
109.975511
 30
0.0
 40
3.019426999999999
 50
56.938630000000011
 51
67.702427
  0
ARC
  5
59
  8
0
 62
     7
 10
60.198177000000001
 20
111.0897159999999
 30
0.0
 40
1.7033519999999991
 50
41.903321999999989
 51
56.253146999999998
  0
ARC
  5
5A
  8
0
 62
     7
 10
60.741706999999991
 20
111.6002439999999
 30
0.0
 40
0.9579979999999999
 50
20.473492
 51
40.888846999999998
  0
ARC
  5
5B
  8
0
 62
     7
 10
60.998542999999998
 20
111.7133399999999
 30
0.0
 40
0.67802
 50
0.2412809999999999
 51
19.111272
  0
ARC
  5
5C
  8
0
 62
     7
 10
50.95472199999999
 20
111.717602
 30
0.0
 40
0.68495
 50
180.11767
 51
210.09344799999991
  0
ARC
  5
5D
  8
0
 62
     7
 10
51.241453
 20
111.86291199999999
 30
0.0
 40
1.006054
 50
209.065629
 51
223.31249699999989
  0
ARC
  5
5E
  8
0
 62
     7
 10
51.67769899999999
 20
112.25995500000001
 30
0.0
 40
1.595872999999999
 50
222.94064800000001
 51
238.57325399999999
  0
ARC
  5
5F
  8
0
 62
     7
 10
52.353082000000001
 20
113.270876
 30
0.0
 40
2.8110810000000002
 50
237.5702619999999
 51
249.335567
  0
ARC
  5
60
  8
0
 62
     7
 10
53.019824999999997
 20
114.88681200000001
 30
0.0
 40
4.5586570000000002
 50
248.66197099999991
 51
258.44329399999992
  0
ARC
  5
61
  8
0
 62
     7
 10
53.460800999999996
 20
116.812634
 30
0.0
 40
6.5339450000000001
 50
258.03798
 51
270.45175499999988
  0
ARC
  5
62
  8
0
 62
     7
 10
53.511837999999997
 20
106.13193
 30
0.0
 40
7.022257999999999
 50
89.996075000000005
 51
101.83815
  0
ARC
  5
63
  8
0
 62
     7
 10
53.109216000000004
 20
108.2549269999999
 30
0.0
 40
4.8619949999999994
 50
102.32685499999999
 51
111.80177999999999
  0
ARC
  5
64
  8
0
 62
     7
 10
52.449106999999998
 20
109.975511
 30
0.0
 40
3.019426999999999
 50
112.29755299999999
 51
123.0613509999999
  0
ARC
  5
65
  8
0
 62
     7
 10
51.748152000000012
 20
111.0897159999999
 30
0.0
 40
1.7033519999999991
 50
123.746833
 51
138.09665799999999
  0
ARC
  5
66
  8
0
 62
     7
 10
51.204622000000001
 20
111.6002439999999
 30
0.0
 40
0.9579979999999999
 50
139.11113299999991
 51
159.526488
  0
ARC
  5
67
  8
0
 62
     7
 10
50.947786999999991
 20
111.7133399999999
 30
0.0
 40
0.67802
 50
160.88870800000001
 51
179.75869900000001
  0
ARC
  5
68
  8
0
 62
     7
 10
58.434216999999997
 20
117.49471699999999
 30
0.0
 40
7.7780670000000001
 50
269.99469099999988
 51
284.65244599999988
  0
ARC
  5
69
  8
0
 62
     7
 10
59.006957999999997
 20
115.03877300000001
 30
0.0
 40
5.2575459999999987
 50
285.384027
 51
296.14817699999992
  0
ARC
  5
6A
  8
0
 62
     7
 10
59.817013000000003
 20
113.308182
 30
0.0
 40
3.3472699999999991
 50
296.75600099999991
 51
307.67218700000001
  0
ARC
  5
6B
  8
0
 62
     7
 10
60.555871000000003
 20
112.31746099999999
 30
0.0
 40
2.1116479999999989
 50
308.232527
 51
321.59617400000002
  0
ARC
  5
6C
  8
0
 62
     7
 10
61.180878999999997
 20
111.804104
 30
0.0
 40
1.303037
 50
322.21344799999991
 51
349.30692399999998
  0
ARC
  5
6D
  8
0
 62
     7
 10
61.458762
 20
111.7164519999999
 30
0.0
 40
1.014305999999999
 50
351.260017
 51
359.98549300000002
  0
ARC
  5
6E
  8
0
 62
     7
 10
61.41464899999999
 20
111.714215
 30
0.0
 40
1.0584199999999999
 50
0.10723
 51
29.796484
  0
ARC
  5
6F
  8
0
 62
     7
 10
61.004080999999999
 20
111.5089929999999
 30
0.0
 40
1.51691
 50
28.817063000000001
 51
45.106423999999997
  0
ARC
  5
70
  8
0
 62
     7
 10
60.399755999999996
 20
110.945385
 30
0.0
 40
2.342905
 50
44.364784999999991
 51
58.002876000000001
  0
ARC
  5
71
  8
0
 62
     7
 10
59.652012999999997
 20
109.8365049999999
 30
0.0
 40
3.6798239999999991
 50
57.27770799999999
 51
67.83680600000001
  0
ARC
  5
72
  8
0
 62
     7
 10
58.950699
 20
108.2286689999999
 30
0.0
 40
5.4336000000000002
 50
67.383940999999993
 51
78.316836999999992
  0
ARC
  5
73
  8
0
 62
     7
 10
58.483834999999999
 20
106.275577
 30
0.0
 40
7.4410239999999996
 50
77.841806999999989
 51
90.387607000000003
  0
ARC
  5
74
  8
0
 62
     7
 10
50.966800999999997
 20
121.92862700000001
 30
0.0
 40
1.622639999999999
 50
204.846532
 51
224.02338499999999
  0
ARC
  5
75
  8
0
 62
     7
 10
50.585791999999998
 20
121.724656
 30
0.0
 40
1.191454999999999
 50
180.41663
 51
203.644496
  0
ARC
  5
76
  8
0
 62
     7
 10
50.571843999999999
 20
121.7137
 30
0.0
 40
1.1774770000000001
 50
149.1231939999999
 51
179.88838200000001
  0
ARC
  5
77
  8
0
 62
     7
 10
50.974532000000004
 20
121.4984419999999
 30
0.0
 40
1.6337090000000001
 50
129.2569629999999
 51
149.89153200000001
  0
ARC
  5
78
  8
0
 62
     7
 10
51.526609999999998
 20
120.89064499999991
 30
0.0
 40
2.4540649999999991
 50
114.071934
 51
130.25789499999999
  0
ARC
  5
79
  8
0
 62
     7
 10
51.999996000000003
 20
119.93381699999991
 30
0.0
 40
3.5210180000000002
 50
96.683359000000024
 51
114.754465
  0
ARC
  5
7A
  8
0
 62
     7
 10
52.140469000000003
 20
119.190262
 30
0.0
 40
4.2761969999999989
 50
89.946865999999986
 51
97.393265000000014
  0
ARC
  5
7B
  8
0
 62
     7
 10
52.144868000000002
 20
119.314429
 30
0.0
 40
4.1520279999999987
 50
70.546762000000001
 51
90.005984999999995
  0
ARC
  5
7C
  8
0
 62
     7
 10
60.979960999999989
 20
121.928067
 30
0.0
 40
1.621354999999999
 50
316.02793899999989
 51
335.18988300000001
  0
ARC
  5
7D
  8
0
 62
     7
 10
61.36069899999999
 20
121.72450499999999
 30
0.0
 40
1.1906030000000001
 50
336.39360899999991
 51
359.59038099999992
  0
ARC
  5
7E
  8
0
 62
     7
 10
61.373797000000003
 20
121.7137
 30
0.0
 40
1.1774770000000001
 50
0.111598
 51
30.876785999999999
  0
ARC
  5
7F
  8
0
 62
     7
 10
60.971108999999998
 20
121.4984419999999
 30
0.0
 40
1.6337090000000001
 50
30.108447999999999
 51
50.743017000000002
  0
ARC
  5
80
  8
0
 62
     7
 10
60.419030000000006
 20
120.89064499999991
 30
0.0
 40
2.4540649999999991
 50
49.742084999999989
 51
65.928045999999995
  0
ARC
  5
81
  8
0
 62
     7
 10
59.945644999999992
 20
119.93381699999991
 30
0.0
 40
3.5210180000000002
 50
65.245514999999997
 51
83.316621999999995
  0
ARC
  5
82
  8
0
 62
     7
 10
59.805171999999999
 20
119.190262
 30
0.0
 40
4.2761969999999989
 50
82.606714999999994
 51
90.053114000000008
  0
ARC
  5
83
  8
0
 62
     7
 10
59.804456999999992
 20
119.2977919999999
 30
0.0
 40
4.1686659999999991
 50
90.044661000000005
 51
109.65477299999991
  0
LINE
  5
84
  8
0
  6
AIGENLINE001
 62
     7
 10
55.972799999999999
 20
153.024
 30
0.0
 11
55.972799999999999
 21
62.386600000000001
 31
0.0
  0
ARC
  5
85
  8
0
 62
     7
 10
58.473027000000002
 20
119.2166459999999
 30
0.0
 40
4.0000400000000003
 50
359.99877600000002
 51
89.998745999999997
  0
LINE
  5
86
  8
0
 62
     7
 10
62.473100000000002
 20
111.71599999999999
 30
0.0
 11
62.473100000000002
 21
119.217
 31
0.0
  0
ARC
  5
87
  8
0
 62
     7
 10
53.473301999999997
 20
119.2166459999999
 30
0.0
 40
4.0000400000000003
 50
90.001234000000011
 51
180.0012439999999
  0
ARC
  5
88
  8
0
 62
     7
 10
48.436835000000002
 20
145.07467600000001
 30
0.0
 40
0.188225
 50
281.01547299999987
 51
294.46001999999999
  0
ARC
  5
89
  8
0
 62
     7
 10
48.360636
 20
145.25008500000001
 30
0.0
 40
0.379457
 50
293.96638899999988
 51
315.93834700000002
  0
ARC
  5
8A
  8
0
 62
     7
 10
48.178479000000003
 20
145.44260199999991
 30
0.0
 40
0.6443410000000001
 50
314.90114699999998
 51
331.87161600000007
  0
ARC
  5
8B
  8
0
 62
     7
 10
47.870145000000001
 20
145.62477799999991
 30
0.0
 40
1.0022619999999991
 50
330.99716599999988
 51
338.04818
  0
ARC
  5
8C
  8
0
 62
     7
 10
42.195490999999997
 20
142.41123899999991
 30
0.0
 40
3.3056169999999989
 50
38.646529999999998
 51
89.534903
  0
ARC
  5
8D
  8
0
 62
     7
 10
42.222496
 20
142.46679499999991
 30
0.0
 40
3.2499519999999991
 50
90.003036999999992
 51
180.00304700000001
  0
ARC
  5
8E
  8
0
 62
     7
 10
42.222495000000002
 20
142.46645000000001
 30
0.0
 40
3.2499509999999989
 50
179.99693300000001
 51
269.996983
  0
ARC
  5
8F
  8
0
 62
     7
 10
42.198267000000001
 20
142.51643300000001
 30
0.0
 40
3.3000210000000001
 50
270.41768699999989
 51
321.36907400000001
  0
LINE
  5
90
  8
0
 62
     7
 10
44.776200000000003
 20
140.45799999999991
 30
0.0
 11
45.442500000000003
 21
139.65000000000001
 31
0.0
  0
LINE
  5
91
  8
0
 62
     7
 10
45.442500000000003
 20
145.2829999999999
 30
0.0
 11
44.776200000000003
 21
144.47499999999991
 31
0.0
  0
LINE
  5
92
  8
0
 62
     7
 10
45.442500000000003
 20
142.46700000000001
 30
0.0
 11
45.442500000000003
 21
139.65000000000001
 31
0.0
  0
ARC
  5
93
  8
0
 62
     7
 10
39.84702399999999
 20
142.46329099999991
 30
0.0
 40
9.1160169999999994
 50
353.97898800000002
 51
0.020946
  0
ARC
  5
94
  8
0
 62
     7
 10
43.690437000000003
 20
142.09563199999991
 30
0.0
 40
5.255374999999999
 50
345.13387399999999
 51
353.56996199999998
  0
ARC
  5
95
  8
0
 62
     7
 10
45.901171999999988
 20
141.54332999999991
 30
0.0
 40
2.977125
 50
329.74546600000002
 51
344.49156599999998
  0
ARC
  5
96
  8
0
 62
     7
 10
39.84702399999999
 20
142.469956
 30
0.0
 40
9.1160169999999994
 50
359.97905400000002
 51
6.0210120000000007
  0
ARC
  5
97
  8
0
 62
     7
 10
43.690437000000003
 20
142.837615
 30
0.0
 40
5.255374999999999
 50
6.4300379999999979
 51
14.866125999999991
  0
ARC
  5
98
  8
0
 62
     7
 10
45.901171999999988
 20
143.38991699999991
 30
0.0
 40
2.977125
 50
15.508433999999991
 51
30.254534
  0
LINE
  5
99
  8
0
 62
     7
 10
44.776200000000003
 20
144.47499999999991
 30
0.0
 11
44.776200000000003
 21
140.45799999999991
 31
0.0
  0
LINE
  5
9A
  8
0
 62
     7
 10
45.442500000000003
 20
145.2829999999999
 30
0.0
 11
45.442500000000003
 21
142.46700000000001
 31
0.0
  0
ARC
  5
9B
  8
0
 62
     7
 10
50.394331000000001
 20
152.913984
 30
0.0
 40
9.0969949999999997
 50
237.0204589999999
 51
240.79688599999989
  0
ARC
  5
9C
  8
0
 62
     7
 10
47.679982000000003
 20
148.108116
 30
0.0
 40
3.5777079999999999
 50
241.1896449999999
 51
251.48461299999991
  0
ARC
  5
9D
  8
0
 62
     7
 10
47.194482999999991
 20
146.79167100000001
 30
0.0
 40
2.175641999999999
 50
252.5991709999999
 51
280.71912200000003
  0
ARC
  5
9E
  8
0
 62
     7
 10
46.967840000000002
 20
148.36911499999999
 30
0.0
 40
3.7683779999999989
 50
279.64398699999998
 51
286.49395099999992
  0
ARC
  5
9F
  8
0
 62
     7
 10
46.230567000000001
 20
150.987055
 30
0.0
 40
6.4880129999999987
 50
286.17306999999988
 51
290.250629
  0
ARC
  5
A0
  8
0
 62
     7
 10
50.394331000000001
 20
132.01908999999989
 30
0.0
 40
9.0969949999999997
 50
119.2031139999999
 51
122.9795409999999
  0
ARC
  5
A1
  8
0
 62
     7
 10
47.679982000000003
 20
136.82495800000001
 30
0.0
 40
3.5777079999999999
 50
108.515387
 51
118.8103549999999
  0
ARC
  5
A2
  8
0
 62
     7
 10
47.194482999999991
 20
138.14140299999991
 30
0.0
 40
2.175641999999999
 50
79.280878000000001
 51
107.400829
  0
ARC
  5
A3
  8
0
 62
     7
 10
46.967840000000002
 20
136.56396000000001
 30
0.0
 40
3.7683779999999989
 50
73.506049000000004
 51
80.356013000000004
  0
ARC
  5
A4
  8
0
 62
     7
 10
46.230567000000001
 20
133.94601900000001
 30
0.0
 40
6.4880129999999987
 50
69.749370999999996
 51
73.826930000000004
  0
LINE
  5
A5
  8
0
 62
     7
 10
48.472799999999999
 20
139.697
 30
0.0
 11
48.472799999999999
 21
140.04300000000001
 31
0.0
  0
ARC
  5
A6
  8
0
 62
     7
 10
49.510985999999988
 20
139.734824
 30
0.0
 40
1.038889999999999
 50
182.10986
 51
267.90003899999999
  0
LINE
  5
A7
  8
0
 62
     7
 10
49.222799999999999
 20
146.24100000000001
 30
0.0
 11
48.799700000000001
 21
145.25
 31
0.0
  0
ARC
  5
A8
  8
0
 62
     7
 10
63.497805000000007
 20
145.0346909999999
 30
0.0
 40
0.146909
 50
247.18659700000001
 51
260.21604200000002
  0
ARC
  5
A9
  8
0
 62
     7
 10
63.572355000000002
 20
145.22962100000001
 30
0.0
 40
0.355562
 50
226.03775099999999
 51
248.29252099999991
  0
ARC
  5
AA
  8
0
 62
     7
 10
63.737487000000002
 20
145.41822300000001
 30
0.0
 40
0.606069
 50
210.00617500000001
 51
227.17825799999989
  0
ARC
  5
AB
  8
0
 62
     7
 10
64.037589999999994
 20
145.60708799999989
 30
0.0
 40
0.960495
 50
201.8183499999999
 51
210.80980600000001
  0
ARC
  5
AC
  8
0
 62
     7
 10
69.750148999999993
 20
142.41123899999991
 30
0.0
 40
3.3056169999999989
 50
90.465077000000008
 51
141.35345000000001
  0
ARC
  5
AD
  8
0
 62
     7
 10
69.723143999999991
 20
142.46679499999991
 30
0.0
 40
3.2499519999999991
 50
359.99697300000003
 51
89.996942999999987
  0
ARC
  5
AE
  8
0
 62
     7
 10
69.723143999999991
 20
142.466452
 30
0.0
 40
3.2499519999999991
 50
270.0030569999999
 51
0.003027
  0
ARC
  5
AF
  8
0
 62
     7
 10
69.747372999999996
 20
142.51643300000001
 30
0.0
 40
3.3000210000000001
 50
218.630945
 51
269.58233300000001
  0
LINE
  5
B0
  8
0
 62
     7
 10
67.169499999999999
 20
140.45799999999991
 30
0.0
 11
66.503200000000007
 21
139.65000000000001
 31
0.0
  0
LINE
  5
B1
  8
0
 62
     7
 10
66.503200000000007
 20
145.2829999999999
 30
0.0
 11
67.169499999999999
 21
144.47499999999991
 31
0.0
  0
LINE
  5
B2
  8
0
 62
     7
 10
66.503200000000007
 20
142.46700000000001
 30
0.0
 11
66.503200000000007
 21
139.65000000000001
 31
0.0
  0
ARC
  5
B3
  8
0
 62
     7
 10
72.098556000000002
 20
142.46328799999989
 30
0.0
 40
9.1159569999999999
 50
179.97901499999989
 51
186.021051
  0
ARC
  5
B4
  8
0
 62
     7
 10
68.255204000000006
 20
142.09563199999991
 30
0.0
 40
5.255374999999999
 50
186.430058
 51
194.8661459999999
  0
ARC
  5
B5
  8
0
 62
     7
 10
66.044468000000009
 20
141.54332999999991
 30
0.0
 40
2.977125
 50
195.508454
 51
210.25455400000001
  0
ARC
  5
B6
  8
0
 62
     7
 10
72.098556000000002
 20
142.46995899999999
 30
0.0
 40
9.1159569999999999
 50
173.97894899999989
 51
180.020985
  0
ARC
  5
B7
  8
0
 62
     7
 10
68.255204000000006
 20
142.837615
 30
0.0
 40
5.255374999999999
 50
165.13385400000001
 51
173.56994199999991
  0
ARC
  5
B8
  8
0
 62
     7
 10
66.044468000000009
 20
143.38991699999991
 30
0.0
 40
2.977125
 50
149.7454459999999
 51
164.49154599999989
  0
LINE
  5
B9
  8
0
 62
     7
 10
67.169499999999999
 20
144.47499999999991
 30
0.0
 11
67.169499999999999
 21
140.45799999999991
 31
0.0
  0
LINE
  5
BA
  8
0
 62
     7
 10
66.503200000000007
 20
145.2829999999999
 30
0.0
 11
66.503200000000007
 21
142.46700000000001
 31
0.0
  0
ARC
  5
BB
  8
0
 62
     7
 10
61.551310000000001
 20
152.913984
 30
0.0
 40
9.0969949999999997
 50
299.20313399999998
 51
302.97956099999988
  0
ARC
  5
BC
  8
0
 62
     7
 10
64.265658999999985
 20
148.108116
 30
0.0
 40
3.5777079999999999
 50
288.51540699999998
 51
298.81037500000002
  0
ARC
  5
BD
  8
0
 62
     7
 10
64.75115799999999
 20
146.79167100000001
 30
0.0
 40
2.175641999999999
 50
259.28089799999998
 51
287.40084899999999
  0
ARC
  5
BE
  8
0
 62
     7
 10
64.977800000000002
 20
148.36911499999999
 30
0.0
 40
3.7683779999999989
 50
253.50606899999991
 51
260.35603300000002
  0
ARC
  5
BF
  8
0
 62
     7
 10
65.715073000000004
 20
150.987055
 30
0.0
 40
6.4880129999999987
 50
249.749391
 51
253.82695000000001
  0
ARC
  5
C0
  8
0
 62
     7
 10
61.551310000000001
 20
132.01908999999989
 30
0.0
 40
9.0969949999999997
 50
57.020439000000003
 51
60.796865999999987
  0
ARC
  5
C1
  8
0
 62
     7
 10
64.265658999999985
 20
136.82495800000001
 30
0.0
 40
3.5777079999999999
 50
61.189625000000007
 51
71.484593000000004
  0
ARC
  5
C2
  8
0
 62
     7
 10
64.75115799999999
 20
138.14140299999991
 30
0.0
 40
2.175641999999999
 50
72.599151000000006
 51
100.71910200000001
  0
ARC
  5
C3
  8
0
 62
     7
 10
64.977800000000002
 20
136.56396000000001
 30
0.0
 40
3.7683779999999989
 50
99.643967000000004
 51
106.493931
  0
ARC
  5
C4
  8
0
 62
     7
 10
65.715073000000004
 20
133.94601900000001
 30
0.0
 40
6.4880129999999987
 50
106.17305
 51
110.250609
  0
ARC
  5
C5
  8
0
 62
     7
 10
55.954361999999989
 20
72.638443000000009
 30
0.0
 40
77.078259000000003
 50
89.986268999999993
 51
90.526433000000011
  0
ARC
  5
C6
  8
0
 62
     7
 10
55.423065999999999
 20
133.67693
 30
0.0
 40
16.037495
 50
90.632003000000012
 51
95.316182999999981
  0
ARC
  5
C7
  8
0
 62
     7
 10
55.089640000000003
 20
138.310192
 30
0.0
 40
11.393686000000001
 50
95.805431999999996
 51
105.8015989999999
  0
ARC
  5
C8
  8
0
 62
     7
 10
56.301564999999997
 20
133.724986
 30
0.0
 40
16.135844999999989
 50
105.508803
 51
110.226782
  0
LINE
  5
C9
  8
0
 62
     7
 10
49.472900000000003
 20
138.697
 30
0.0
 11
55.972799999999999
 21
138.697
 31
0.0
  0
ARC
  5
CA
  8
0
 62
     7
 10
50.877836000000002
 20
136.82145399999999
 30
0.0
 40
1.8751779999999989
 50
0.00001
 51
89.999980000000008
  0
LINE
  5
CB
  8
0
 62
     7
 10
55.972799999999999
 20
146.24100000000001
 30
0.0
 11
55.972799999999999
 21
147.64099999999999
 31
0.0
  0
LINE
  5
CC
  8
0
 62
     7
 10
55.194200000000002
 20
146.24100000000001
 30
0.0
 11
55.194200000000002
 21
147.64099999999999
 31
0.0
  0
LINE
  5
CD
  8
0
 62
     7
 10
54.496200000000002
 20
146.24100000000001
 30
0.0
 11
54.496200000000002
 21
147.64099999999999
 31
0.0
  0
LINE
  5
CE
  8
0
 62
     7
 10
53.799599999999998
 20
146.24100000000001
 30
0.0
 11
53.799599999999998
 21
147.64099999999999
 31
0.0
  0
LINE
  5
CF
  8
0
 62
     7
 10
53.086500000000001
 20
146.24100000000001
 30
0.0
 11
53.086500000000001
 21
147.64099999999999
 31
0.0
  0
LINE
  5
D0
  8
0
 62
     7
 10
52.500100000000003
 20
146.24100000000001
 30
0.0
 11
52.500100000000003
 21
147.64099999999999
 31
0.0
  0
LINE
  5
D1
  8
0
 62
     7
 10
49.445399999999992
 20
146.24100000000001
 30
0.0
 11
49.445399999999992
 21
147.64099999999999
 31
0.0
  0
LINE
  5
D2
  8
0
 62
     7
 10
49.686199999999999
 20
146.24100000000001
 30
0.0
 11
49.686199999999999
 21
147.64099999999999
 31
0.0
  0
LINE
  5
D3
  8
0
 62
     7
 10
51.4435
 20
146.24100000000001
 30
0.0
 11
51.4435
 21
147.64099999999999
 31
0.0
  0
LINE
  5
D4
  8
0
 62
     7
 10
51.945500000000003
 20
146.24100000000001
 30
0.0
 11
51.945500000000003
 21
147.64099999999999
 31
0.0
  0
LINE
  5
D5
  8
0
 62
     7
 10
50.929499999999997
 20
146.24100000000001
 30
0.0
 11
50.929499999999997
 21
147.64099999999999
 31
0.0
  0
LINE
  5
D6
  8
0
 62
     7
 10
50.4651
 20
146.24100000000001
 30
0.0
 11
50.4651
 21
147.64099999999999
 31
0.0
  0
LINE
  5
D7
  8
0
 62
     7
 10
50.0383
 20
146.24100000000001
 30
0.0
 11
50.0383
 21
147.64099999999999
 31
0.0
  0
LINE
  5
D8
  8
0
 62
     7
 10
49.222799999999999
 20
146.24100000000001
 30
0.0
 11
55.972799999999999
 21
146.24100000000001
 31
0.0
  0
LINE
  5
D9
  8
0
 62
     7
 10
49.222799999999999
 20
146.24100000000001
 30
0.0
 11
49.222799999999999
 21
147.64099999999999
 31
0.0
  0
LINE
  5
DA
  8
0
 62
     7
 10
49.222799999999999
 20
147.64099999999999
 30
0.0
 11
55.972799999999999
 21
147.64099999999999
 31
0.0
  0
LINE
  5
DB
  8
0
 62
     7
 10
50.544299999999993
 20
148.86600000000001
 30
0.0
 11
55.972799999999999
 21
148.86600000000001
 31
0.0
  0
ARC
  5
DC
  8
0
 62
     7
 10
50.544348999999997
 20
147.64067199999991
 30
0.0
 40
1.2250840000000001
 50
90.0
 51
179.99996999999991
  0
ARC
  5
DD
  8
0
 62
     7
 10
55.991278999999999
 20
72.638443000000009
 30
0.0
 40
77.078259000000003
 50
89.473546999999996
 51
90.013711000000001
  0
ARC
  5
DE
  8
0
 62
     7
 10
56.52257500000001
 20
133.67693
 30
0.0
 40
16.037495
 50
84.683796999999984
 51
89.36797700000001
  0
ARC
  5
DF
  8
0
 62
     7
 10
56.856000000000002
 20
138.310192
 30
0.0
 40
11.393686000000001
 50
74.198381000000012
 51
84.194547999999998
  0
ARC
  5
E0
  8
0
 62
     7
 10
55.644075000000001
 20
133.724986
 30
0.0
 40
16.135844999999989
 50
69.773197999999994
 51
74.491177000000008
  0
LINE
  5
E1
  8
0
 62
     7
 10
63.472799999999999
 20
139.697
 30
0.0
 11
63.472799999999999
 21
140.04300000000001
 31
0.0
  0
LINE
  5
E2
  8
0
 62
     7
 10
62.472700000000003
 20
138.697
 30
0.0
 11
61.067799999999998
 21
138.697
 31
0.0
  0
ARC
  5
E3
  8
0
 62
     7
 10
62.434654000000002
 20
139.734824
 30
0.0
 40
1.038889999999999
 50
272.09999799999991
 51
357.89014300000002
  0
LINE
  5
E4
  8
0
 62
     7
 10
61.067799999999998
 20
138.697
 30
0.0
 11
55.972799999999999
 21
138.697
 31
0.0
  0
ARC
  5
E5
  8
0
 62
     7
 10
61.067804000000002
 20
136.82145399999999
 30
0.0
 40
1.8751779999999989
 50
90.0
 51
179.99996999999991
  0
ARC
  5
E6
  8
0
 62
     7
 10
55.972735
 20
142.46653699999999
 30
0.0
 40
3.2500379999999991
 50
89.998481999999996
 51
179.99845199999999
  0
ARC
  5
E7
  8
0
 62
     7
 10
55.972906000000002
 20
142.46653699999999
 30
0.0
 40
3.2500379999999991
 50
0.001528
 51
90.001499000000024
  0
ARC
  5
E8
  8
0
 62
     7
 10
55.972906000000002
 20
142.46671000000001
 30
0.0
 40
3.2500379999999991
 50
269.99850099999992
 51
359.99847199999999
  0
ARC
  5
E9
  8
0
 62
     7
 10
55.972733999999988
 20
142.4667089999999
 30
0.0
 40
3.250036999999999
 50
180.00152800000001
 51
270.00153799999993
  0
LINE
  5
EA
  8
0
 62
     7
 10
56.75180000000001
 20
146.24100000000001
 30
0.0
 11
56.75180000000001
 21
147.64099999999999
 31
0.0
  0
LINE
  5
EB
  8
0
 62
     7
 10
57.44939999999999
 20
146.24100000000001
 30
0.0
 11
57.44939999999999
 21
147.64099999999999
 31
0.0
  0
LINE
  5
EC
  8
0
 62
     7
 10
58.146000000000001
 20
146.24100000000001
 30
0.0
 11
58.146000000000001
 21
147.64099999999999
 31
0.0
  0
LINE
  5
ED
  8
0
 62
     7
 10
58.859099999999991
 20
146.24100000000001
 30
0.0
 11
58.859099999999991
 21
147.64099999999999
 31
0.0
  0
LINE
  5
EE
  8
0
 62
     7
 10
59.445500000000003
 20
146.24100000000001
 30
0.0
 11
59.445500000000003
 21
147.64099999999999
 31
0.0
  0
LINE
  5
EF
  8
0
 62
     7
 10
62.500300000000003
 20
146.24100000000001
 30
0.0
 11
62.500300000000003
 21
147.64099999999999
 31
0.0
  0
LINE
  5
F0
  8
0
 62
     7
 10
62.259500000000003
 20
146.24100000000001
 30
0.0
 11
62.259500000000003
 21
147.64099999999999
 31
0.0
  0
LINE
  5
F1
  8
0
 62
     7
 10
60.502099999999992
 20
146.24100000000001
 30
0.0
 11
60.502099999999992
 21
147.64099999999999
 31
0.0
  0
LINE
  5
F2
  8
0
 62
     7
 10
60.0002
 20
146.24100000000001
 30
0.0
 11
60.0002
 21
147.64099999999999
 31
0.0
  0
LINE
  5
F3
  8
0
 62
     7
 10
61.016100000000002
 20
146.24100000000001
 30
0.0
 11
61.016100000000002
 21
147.64099999999999
 31
0.0
  0
LINE
  5
F4
  8
0
 62
     7
 10
61.480499999999999
 20
146.24100000000001
 30
0.0
 11
61.480499999999999
 21
147.64099999999999
 31
0.0
  0
LINE
  5
F5
  8
0
 62
     7
 10
61.907400000000003
 20
146.24100000000001
 30
0.0
 11
61.907400000000003
 21
147.64099999999999
 31
0.0
  0
LINE
  5
F6
  8
0
 62
     7
 10
62.722799999999999
 20
146.24100000000001
 30
0.0
 11
63.14589999999999
 21
145.25
 31
0.0
  0
LINE
  5
F7
  8
0
 62
     7
 10
62.722799999999999
 20
146.24100000000001
 30
0.0
 11
55.972799999999999
 21
146.24100000000001
 31
0.0
  0
LINE
  5
F8
  8
0
 62
     7
 10
62.722799999999999
 20
146.24100000000001
 30
0.0
 11
62.722799999999999
 21
147.64099999999999
 31
0.0
  0
LINE
  5
F9
  8
0
 62
     7
 10
62.722799999999999
 20
147.64099999999999
 30
0.0
 11
55.972799999999999
 21
147.64099999999999
 31
0.0
  0
LINE
  5
FA
  8
0
 62
     7
 10
61.401299999999999
 20
148.86600000000001
 30
0.0
 11
55.972799999999999
 21
148.86600000000001
 31
0.0
  0
ARC
  5
FB
  8
0
 62
     7
 10
61.401291000000001
 20
147.64067199999991
 30
0.0
 40
1.2250840000000001
 50
0.00001
 51
89.999980000000008
  0
LINE
  5
FC
  8
0
  6
AIGENLINE001
 62
     7
 10
75.166300000000007
 20
142.46700000000001
 30
0.0
 11
36.977800000000002
 21
142.46700000000001
 31
0.0
  0
ARC
  5
FD
  8
0
 62
     7
 10
136.519498
 20
145.074794
 30
0.0
 40
0.188347
 50
281.01691499999993
 51
294.45431500000001
  0
ARC
  5
FE
  8
0
 62
     7
 10
136.44336200000001
 20
145.25002499999991
 30
0.0
 40
0.379389
 50
293.96597799999989
 51
315.94120099999998
  0
ARC
  5
FF
  8
0
 62
     7
 10
136.26116999999991
 20
145.44260199999991
 30
0.0
 40
0.6443410000000001
 50
314.90114699999998
 51
331.87161600000007
  0
ARC
  5
100
  8
0
 62
     7
 10
135.95283599999999
 20
145.62477799999991
 30
0.0
 40
1.0022619999999991
 50
330.99716599999988
 51
338.04818
  0
ARC
  5
101
  8
0
 62
     7
 10
130.27758099999991
 20
142.41000199999999
 30
0.0
 40
3.3068589999999989
 50
38.656770999999999
 51
89.524662000000006
  0
ARC
  5
102
  8
0
 62
     7
 10
130.3051879999999
 20
142.46679499999991
 30
0.0
 40
3.2499519999999991
 50
90.003036999999992
 51
180.00304700000001
  0
ARC
  5
103
  8
0
 62
     7
 10
130.30518699999999
 20
142.46645000000001
 30
0.0
 40
3.2499509999999989
 50
179.99693300000001
 51
269.996983
  0
ARC
  5
104
  8
0
 62
     7
 10
130.28095300000001
 20
142.5164429999999
 30
0.0
 40
3.3000309999999988
 50
270.417776
 51
321.36898600000001
  0
LINE
  5
105
  8
0
 62
     7
 10
132.85900000000001
 20
140.45799999999991
 30
0.0
 11
133.52500000000001
 21
139.65000000000001
 31
0.0
  0
LINE
  5
106
  8
0
 62
     7
 10
133.52500000000001
 20
145.2829999999999
 30
0.0
 11
132.85900000000001
 21
144.47499999999991
 31
0.0
  0
LINE
  5
107
  8
0
 62
     7
 10
133.52500000000001
 20
142.46700000000001
 30
0.0
 11
133.52500000000001
 21
139.65000000000001
 31
0.0
  0
ARC
  5
108
  8
0
 62
     7
 10
127.907737
 20
142.4644429999999
 30
0.0
 40
9.1379950000000001
 50
353.98626100000001
 51
0.013673
  0
ARC
  5
109
  8
0
 62
     7
 10
131.772558
 20
142.09570299999999
 30
0.0
 40
5.2559490000000002
 50
345.13473299999993
 51
353.569886
  0
ARC
  5
10A
  8
0
 62
     7
 10
133.98278599999989
 20
141.54380599999999
 30
0.0
 40
2.9782959999999989
 50
329.74798700000002
 51
344.48830099999992
  0
ARC
  5
10B
  8
0
 62
     7
 10
127.907737
 20
142.46880400000001
 30
0.0
 40
9.1379950000000001
 50
359.98632700000002
 51
6.0137390000000011
  0
ARC
  5
10C
  8
0
 62
     7
 10
131.772558
 20
142.83754400000001
 30
0.0
 40
5.2559490000000002
 50
6.4301139999999997
 51
14.865266999999999
  0
ARC
  5
10D
  8
0
 62
     7
 10
133.98278599999989
 20
143.38943999999989
 30
0.0
 40
2.9782959999999989
 50
15.511699
 51
30.252013000000002
  0
LINE
  5
10E
  8
0
 62
     7
 10
132.85900000000001
 20
144.47499999999991
 30
0.0
 11
132.85900000000001
 21
140.45799999999991
 31
0.0
  0
LINE
  5
10F
  8
0
 62
     7
 10
133.52500000000001
 20
145.2829999999999
 30
0.0
 11
133.52500000000001
 21
142.46700000000001
 31
0.0
  0
ARC
  5
110
  8
0
 62
     7
 10
138.47702200000001
 20
152.913984
 30
0.0
 40
9.0969949999999997
 50
237.0204589999999
 51
240.79688599999989
  0
ARC
  5
111
  8
0
 62
     7
 10
135.76304999999991
 20
148.10897800000001
 30
0.0
 40
3.578644999999999
 50
241.19099600000001
 51
251.483262
  0
ARC
  5
112
  8
0
 62
     7
 10
135.277174
 20
146.79167100000001
 30
0.0
 40
2.175641999999999
 50
252.5991709999999
 51
280.71912200000003
  0
ARC
  5
113
  8
0
 62
     7
 10
135.05072200000001
 20
148.36829299999999
 30
0.0
 40
3.7675360000000002
 50
279.64322099999993
 51
286.49471699999992
  0
ARC
  5
114
  8
0
 62
     7
 10
134.31325799999999
 20
150.987055
 30
0.0
 40
6.4880129999999987
 50
286.17306999999988
 51
290.250629
  0
ARC
  5
115
  8
0
 62
     7
 10
138.47702200000001
 20
132.01908999999989
 30
0.0
 40
9.0969949999999997
 50
119.2031139999999
 51
122.9795409999999
  0
ARC
  5
116
  8
0
 62
     7
 10
135.76304999999991
 20
136.82409699999999
 30
0.0
 40
3.578644999999999
 50
108.5167379999999
 51
118.8090039999999
  0
ARC
  5
117
  8
0
 62
     7
 10
135.277174
 20
138.14140299999991
 30
0.0
 40
2.175641999999999
 50
79.280878000000001
 51
107.400829
  0
ARC
  5
118
  8
0
 62
     7
 10
135.05072200000001
 20
136.56478100000001
 30
0.0
 40
3.7675360000000002
 50
73.505282999999991
 51
80.356779000000003
  0
ARC
  5
119
  8
0
 62
     7
 10
134.31325799999999
 20
133.94601900000001
 30
0.0
 40
6.4880129999999987
 50
69.749370999999996
 51
73.826930000000004
  0
LINE
  5
11A
  8
0
 62
     7
 10
136.55500000000001
 20
139.697
 30
0.0
 11
136.55500000000001
 21
140.04300000000001
 31
0.0
  0
ARC
  5
11B
  8
0
 62
     7
 10
137.59406899999991
 20
139.73521599999989
 30
0.0
 40
1.039296999999999
 50
182.13067599999991
 51
267.87922300000002
  0
LINE
  5
11C
  8
0
 62
     7
 10
137.30500000000001
 20
146.24100000000001
 30
0.0
 11
136.88200000000001
 21
145.25
 31
0.0
  0
ARC
  5
11D
  8
0
 62
     7
 10
151.5806189999999
 20
145.03510999999989
 30
0.0
 40
0.147342
 50
247.205815
 51
260.19682399999999
  0
ARC
  5
11E
  8
0
 62
     7
 10
151.65504599999991
 20
145.22962100000001
 30
0.0
 40
0.355562
 50
226.03775099999999
 51
248.29252099999991
  0
ARC
  5
11F
  8
0
 62
     7
 10
151.82055899999989
 20
145.41852800000001
 30
0.0
 40
0.6065510000000001
 50
210.01305600000001
 51
227.17137700000001
  0
ARC
  5
120
  8
0
 62
     7
 10
152.12028100000001
 20
145.60708799999989
 30
0.0
 40
0.960495
 50
201.8183499999999
 51
210.80980600000001
  0
ARC
  5
121
  8
0
 62
     7
 10
56.405968999999992
 20
184.7012499999999
 30
0.0
 40
16.035786999999988
 50
273.93402400000002
 51
280.32142199999998
  0
ARC
  5
122
  8
0
 62
     7
 10
55.994062
 20
189.0955449999999
 30
0.0
 40
20.448281000000001
 50
269.94049100000001
 51
274.24071499999991
  0
ARC
  5
123
  8
0
 62
     7
 10
58.351491000000003
 20
172.9420199999999
 30
0.0
 40
4.1225709999999989
 50
283.00085000000001
 51
358.63681999999989
  0
ARC
  5
124
  8
0
 62
     7
 10
58.416750999999991
 20
172.84544700000001
 30
0.0
 40
4.0561439999999997
 50
359.97878100000003
 51
2.6928239999999999
  0
ARC
  5
125
  8
0
 62
     7
 10
449.86073599999997
 20
206.48575
 30
0.0
 40
388.83376099999992
 50
183.6280459999999
 51
184.93503499999991
  0
ARC
  5
126
  8
0
 62
     7
 10
329.76088199999992
 20
198.55390700000001
 30
0.0
 40
268.47286999999989
 50
181.98637500000001
 51
183.5605679999999
  0
ARC
  5
127
  8
0
 62
     7
 10
241.292137
 20
195.2091419999999
 30
0.0
 40
179.941563
 50
179.97692000000001
 51
181.89839799999999
  0
ARC
  5
128
  8
0
 62
     7
 10
178.071416
 20
194.997657
 30
0.0
 40
116.721172
 50
177.48262800000001
 51
179.86061699999999
  0
ARC
  5
129
  8
0
 62
     7
 10
134.604579
 20
196.70934700000001
 30
0.0
 40
73.221372000000002
 50
174.34863200000001
 51
177.32682500000001
  0
ARC
  5
12A
  8
0
 62
     7
 10
106.063861
 20
199.36833299999989
 30
0.0
 40
44.557836000000002
 50
170.38382799999999
 51
174.13713200000001
  0
ARC
  5
12B
  8
0
 62
     7
 10
88.35476899999999
 20
202.235105
 30
0.0
 40
26.619015000000001
 50
165.404248
 51
170.10023099999989
  0
ARC
  5
12C
  8
0
 62
     7
 10
78.633064000000005
 20
204.65699799999999
 30
0.0
 40
16.601078999999999
 50
160.34119799999991
 51
165.038027
  0
ARC
  5
12D
  8
0
 62
     7
 10
73.743853000000001
 20
206.35643200000001
 30
0.0
 40
11.425212
 50
149.7741739999999
 51
160.11833999999999
  0
ARC
  5
12E
  8
0
 62
     7
 10
57.640115000000002
 20
215.828441
 30
0.0
 40
7.2579019999999996
 50
329.16236700000002
 51
333.333709
  0
ARC
  5
12F
  8
0
 62
     7
 10
55.539671999999989
 20
184.7012499999999
 30
0.0
 40
16.035786999999988
 50
259.67859800000002
 51
266.06599599999993
  0
ARC
  5
130
  8
0
 62
     7
 10
55.951579000000002
 20
189.0955449999999
 30
0.0
 40
20.448281000000001
 50
265.75930499999998
 51
270.05952899999988
  0
ARC
  5
131
  8
0
 62
     7
 10
53.594147
 20
172.9420179999999
 30
0.0
 40
4.1225690000000004
 50
181.36318199999991
 51
256.99918699999989
  0
ARC
  5
132
  8
0
 62
     7
 10
53.528830000000013
 20
172.845448
 30
0.0
 40
4.0560849999999986
 50
177.30713600000001
 51
180.02125799999999
  0
ARC
  5
133
  8
0
 62
     7
 10
56.010457999999993
 20
217.13871399999999
 30
0.0
 40
10.295548
 50
194.13817299999991
 51
228.76390099999989
  0
ARC
  5
134
  8
0
 62
     7
 10
55.884822
 20
217.16913099999991
 30
0.0
 40
10.351782
 50
311.34292099999999
 51
345.77153399999997
  0
ARC
  5
135
  8
0
 62
     7
 10
-337.91509500000001
 20
206.48575
 30
0.0
 40
388.83376099999992
 50
355.06498499999998
 51
356.37197400000002
  0
ARC
  5
136
  8
0
 62
     7
 10
-217.8152419999999
 20
198.55390700000001
 30
0.0
 40
268.47286999999989
 50
356.43945200000002
 51
358.01364499999988
  0
ARC
  5
137
  8
0
 62
     7
 10
-129.35021399999991
 20
195.209203
 30
0.0
 40
179.945279
 50
358.10164099999997
 51
0.02304
  0
ARC
  5
138
  8
0
 62
     7
 10
-66.125775000000004
 20
194.997657
 30
0.0
 40
116.721172
 50
0.139363
 51
2.5173519999999998
  0
ARC
  5
139
  8
0
 62
     7
 10
-22.658939
 20
196.70934700000001
 30
0.0
 40
73.221372000000002
 50
2.6731549999999991
 51
5.6513489999999988
  0
ARC
  5
13A
  8
0
 62
     7
 10
5.881778999999999
 20
199.36833299999989
 30
0.0
 40
44.557836000000002
 50
5.8628489999999998
 51
9.6161519999999996
  0
ARC
  5
13B
  8
0
 62
     7
 10
23.590872000000001
 20
202.235105
 30
0.0
 40
26.619015000000001
 50
9.8997489999999981
 51
14.595731999999989
  0
ARC
  5
13C
  8
0
 62
     7
 10
33.312576
 20
204.65699799999999
 30
0.0
 40
16.601078999999999
 50
14.961954
 51
19.658782999999989
  0
ARC
  5
13D
  8
0
 62
     7
 10
38.201788000000001
 20
206.35643200000001
 30
0.0
 40
11.425212
 50
19.881640000000001
 51
30.225805999999992
  0
ARC
  5
13E
  8
0
 62
     7
 10
54.30552500000001
 20
215.828441
 30
0.0
 40
7.2579019999999996
 50
206.66631100000001
 51
210.83765299999999
  0
ARC
  5
13F
  8
0
 62
     7
 10
55.921395999999987
 20
217.09463
 30
0.0
 40
9.2789619999999982
 50
193.5976189999999
 51
209.18367799999999
  0
ARC
  5
140
  8
0
 62
     7
 10
55.813014000000003
 20
216.95171999999999
 30
0.0
 40
9.5265229999999992
 50
14.330147999999999
 51
75.664096999999998
  0
ARC
  5
141
  8
0
 62
     7
 10
56.132404999999999
 20
216.95222200000001
 30
0.0
 40
9.5257679999999993
 50
104.33032
 51
165.6696499999999
  0
ARC
  5
142
  8
0
 62
     7
 10
56.010068999999987
 20
217.09944899999999
 30
0.0
 40
9.2939539999999994
 50
330.83879400000001
 51
346.39200399999999
  0
ARC
  5
143
  8
0
 62
     7
 10
56.143071999999989
 20
216.94202200000001
 30
0.0
 40
10.458943
 50
104.716398
 51
165.28621799999999
  0
ARC
  5
144
  8
0
 62
     7
 10
55.803581999999992
 20
216.94258099999999
 30
0.0
 40
10.458277000000001
 50
14.71058199999999
 51
75.285438999999997
  0
ARC
  5
145
  8
0
 62
     7
 10
56.067624000000002
 20
217.205669
 30
0.0
 40
7.6219169999999989
 50
199.16481399999989
 51
250.80578499999999
  0
ARC
  5
146
  8
0
 62
     7
 10
55.879072000000001
 20
217.20590000000001
 30
0.0
 40
7.6216819999999998
 50
289.18782199999998
 51
340.81218799999999
  0
ARC
  5
147
  8
0
 62
     7
 10
55.879317000000007
 20
217.01738499999999
 30
0.0
 40
7.6215020000000004
 50
19.189526999999998
 51
70.799944999999994
  0
ARC
  5
148
  8
0
 62
     7
 10
56.065781000000008
 20
217.01934
 30
0.0
 40
7.6196820000000001
 50
109.193622
 51
160.82948200000001
  0
ARC
  5
149
  8
0
 62
     7
 10
56.030776000000003
 20
230.89004499999999
 30
0.0
 40
3.3078529999999988
 50
180.48353099999991
 51
231.33505500000001
  0
ARC
  5
14A
  8
0
 62
     7
 10
55.973078999999998
 20
230.86204399999991
 30
0.0
 40
3.2500379999999991
 50
89.998481999999996
 51
179.99845199999999
  0
ARC
  5
14B
  8
0
 62
     7
 10
55.97325
 20
230.86204399999991
 30
0.0
 40
3.2500379999999991
 50
0.001528
 51
90.001499000000024
  0
ARC
  5
14C
  8
0
 62
     7
 10
55.923724
 20
230.88618299999999
 30
0.0
 40
3.2996519999999991
 50
308.62786199999988
 51
359.58235999999999
  0
LINE
  5
14D
  8
0
 62
     7
 10
57.9818
 20
228.30799999999991
 30
0.0
 11
58.78949999999999
 21
227.64199999999991
 31
0.0
  0
LINE
  5
14E
  8
0
 62
     7
 10
53.156999999999989
 20
227.64199999999991
 30
0.0
 11
53.964700000000001
 21
228.30799999999991
 31
0.0
  0
LINE
  5
14F
  8
0
 62
     7
 10
55.973199999999991
 20
227.64199999999991
 30
0.0
 11
58.78949999999999
 21
227.64199999999991
 31
0.0
  0
ARC
  5
150
  8
0
 62
     7
 10
55.975681000000009
 20
264.72338999999988
 30
0.0
 40
40.601975000000003
 50
269.9964589999999
 51
271.73654099999987
  0
ARC
  5
151
  8
0
 62
     7
 10
56.648125
 20
241.603645
 30
0.0
 40
17.472494000000001
 50
271.82991399999997
 51
275.04272099999991
  0
ARC
  5
152
  8
0
 62
     7
 10
59.331354000000012
 20
209.58789999999999
 30
0.0
 40
14.65586499999999
 50
93.657357000000005
 51
94.490341999999984
  0
ARC
  5
153
  8
0
 62
     7
 10
55.970649000000002
 20
264.72338999999988
 30
0.0
 40
40.601975000000003
 50
268.26347900000002
 51
270.00356099999999
  0
ARC
  5
154
  8
0
 62
     7
 10
55.298204000000013
 20
241.603645
 30
0.0
 40
17.472494000000001
 50
264.95729899999998
 51
268.17010599999998
  0
ARC
  5
155
  8
0
 62
     7
 10
52.614975000000001
 20
209.58789999999999
 30
0.0
 40
14.65586499999999
 50
85.509639000000007
 51
86.342623000000003
  0
LINE
  5
156
  8
0
 62
     7
 10
53.964700000000001
 20
228.30799999999991
 30
0.0
 11
57.9818
 21
228.30799999999991
 31
0.0
  0
LINE
  5
157
  8
0
 62
     7
 10
53.156999999999989
 20
227.64199999999991
 30
0.0
 11
55.973199999999991
 21
227.64199999999991
 31
0.0
  0
ARC
  5
158
  8
0
 62
     7
 10
157.83344099999999
 20
142.41000199999999
 30
0.0
 40
3.3068589999999989
 50
90.475317999999987
 51
141.343209
  0
ARC
  5
159
  8
0
 62
     7
 10
157.805835
 20
142.46679499999991
 30
0.0
 40
3.2499519999999991
 50
359.99697300000003
 51
89.996942999999987
  0
ARC
  5
15A
  8
0
 62
     7
 10
157.805835
 20
142.466452
 30
0.0
 40
3.2499519999999991
 50
270.0030569999999
 51
0.003027
  0
ARC
  5
15B
  8
0
 62
     7
 10
157.8300689999999
 20
142.5164429999999
 30
0.0
 40
3.3000309999999988
 50
218.63103399999989
 51
269.582244
  0
LINE
  5
15C
  8
0
 62
     7
 10
155.25200000000001
 20
140.45799999999991
 30
0.0
 11
154.58600000000001
 21
139.65000000000001
 31
0.0
  0
LINE
  5
15D
  8
0
 62
     7
 10
154.58600000000001
 20
145.2829999999999
 30
0.0
 11
155.25200000000001
 21
144.47499999999991
 31
0.0
  0
LINE
  5
15E
  8
0
 62
     7
 10
154.58600000000001
 20
142.46700000000001
 30
0.0
 11
154.58600000000001
 21
139.65000000000001
 31
0.0
  0
ARC
  5
15F
  8
0
 62
     7
 10
160.203226
 20
142.464439
 30
0.0
 40
9.1379339999999996
 50
179.986287
 51
186.01377899999989
  0
ARC
  5
160
  8
0
 62
     7
 10
156.3384649999999
 20
142.09570299999999
 30
0.0
 40
5.2559490000000002
 50
186.43013300000001
 51
194.865287
  0
ARC
  5
161
  8
0
 62
     7
 10
154.12823599999999
 20
141.54380599999999
 30
0.0
 40
2.9782959999999989
 50
195.51171899999991
 51
210.25203300000001
  0
ARC
  5
162
  8
0
 62
     7
 10
160.203226
 20
142.468807
 30
0.0
 40
9.1379339999999996
 50
173.986221
 51
180.01371299999991
  0
ARC
  5
163
  8
0
 62
     7
 10
156.3384649999999
 20
142.83754400000001
 30
0.0
 40
5.2559490000000002
 50
165.13471299999989
 51
173.5698669999999
  0
ARC
  5
164
  8
0
 62
     7
 10
154.12823599999999
 20
143.38943999999989
 30
0.0
 40
2.9782959999999989
 50
149.7479669999999
 51
164.488281
  0
LINE
  5
165
  8
0
 62
     7
 10
155.25200000000001
 20
144.47499999999991
 30
0.0
 11
155.25200000000001
 21
140.45799999999991
 31
0.0
  0
LINE
  5
166
  8
0
 62
     7
 10
154.58600000000001
 20
145.2829999999999
 30
0.0
 11
154.58600000000001
 21
142.46700000000001
 31
0.0
  0
ARC
  5
167
  8
0
 62
     7
 10
149.63400100000001
 20
152.913984
 30
0.0
 40
9.0969949999999997
 50
299.20313399999998
 51
302.97956099999988
  0
ARC
  5
168
  8
0
 62
     7
 10
152.347972
 20
148.10897800000001
 30
0.0
 40
3.578644999999999
 50
288.51675799999998
 51
298.80902400000002
  0
ARC
  5
169
  8
0
 62
     7
 10
152.8338489999999
 20
146.79167100000001
 30
0.0
 40
2.175641999999999
 50
259.28089799999998
 51
287.40084899999999
  0
ARC
  5
16A
  8
0
 62
     7
 10
153.06030100000001
 20
148.36829299999999
 30
0.0
 40
3.7675360000000002
 50
253.50530299999991
 51
260.35679900000002
  0
ARC
  5
16B
  8
0
 62
     7
 10
153.797765
 20
150.987055
 30
0.0
 40
6.4880129999999987
 50
249.749391
 51
253.82695000000001
  0
ARC
  5
16C
  8
0
 62
     7
 10
149.63400100000001
 20
132.01908999999989
 30
0.0
 40
9.0969949999999997
 50
57.020439000000003
 51
60.796865999999987
  0
ARC
  5
16D
  8
0
 62
     7
 10
152.347972
 20
136.82409699999999
 30
0.0
 40
3.578644999999999
 50
61.190975999999992
 51
71.483242000000004
  0
ARC
  5
16E
  8
0
 62
     7
 10
152.8338489999999
 20
138.14140299999991
 30
0.0
 40
2.175641999999999
 50
72.599151000000006
 51
100.71910200000001
  0
ARC
  5
16F
  8
0
 62
     7
 10
153.06030100000001
 20
136.56478100000001
 30
0.0
 40
3.7675360000000002
 50
99.643201000000005
 51
106.494697
  0
ARC
  5
170
  8
0
 62
     7
 10
153.797765
 20
133.94601900000001
 30
0.0
 40
6.4880129999999987
 50
106.17305
 51
110.250609
  0
ARC
  5
171
  8
0
 62
     7
 10
69.751455000000007
 20
217.054272
 30
0.0
 40
3.307602999999999
 50
90.481445999999977
 51
141.33708100000001
  0
ARC
  5
172
  8
0
 62
     7
 10
69.723574999999997
 20
217.11171999999999
 30
0.0
 40
3.2500379999999991
 50
359.998492
 51
89.998462000000004
  0
ARC
  5
173
  8
0
 62
     7
 10
69.723574999999997
 20
217.111549
 30
0.0
 40
3.2500379999999991
 50
270.00153799999993
 51
0.001508
  0
ARC
  5
174
  8
0
 62
     7
 10
69.747718000000006
 20
217.1610859999999
 30
0.0
 40
3.2996629999999989
 50
218.62796
 51
269.58228100000002
  0
LINE
  5
175
  8
0
 62
     7
 10
67.169600000000003
 20
215.10299999999989
 30
0.0
 11
66.503299999999996
 21
214.2949999999999
 31
0.0
  0
LINE
  5
176
  8
0
 62
     7
 10
66.503299999999996
 20
219.92799999999991
 30
0.0
 11
67.169600000000003
 21
219.12
 31
0.0
  0
LINE
  5
177
  8
0
 62
     7
 10
66.503299999999996
 20
217.11199999999999
 30
0.0
 11
66.503299999999996
 21
214.2949999999999
 31
0.0
  0
ARC
  5
178
  8
0
 62
     7
 10
103.5601489999999
 20
217.1090979999999
 30
0.0
 40
40.577204999999999
 50
179.996398
 51
181.73758199999989
  0
ARC
  5
179
  8
0
 62
     7
 10
80.447091
 20
216.43560400000001
 30
0.0
 40
17.454373999999991
 50
181.82831100000001
 51
185.044419
  0
ARC
  5
17A
  8
0
 62
     7
 10
48.533743000000001
 20
213.760243
 30
0.0
 40
14.571289999999999
 50
3.651837
 51
4.4896949999999993
  0
ARC
  5
17B
  8
0
 62
     7
 10
103.5601489999999
 20
217.114171
 30
0.0
 40
40.577204999999999
 50
178.262418
 51
180.003602
  0
ARC
  5
17C
  8
0
 62
     7
 10
80.447091
 20
217.78766499999989
 30
0.0
 40
17.454373999999991
 50
174.95558099999991
 51
178.17168899999999
  0
ARC
  5
17D
  8
0
 62
     7
 10
48.533743000000001
 20
220.46302600000001
 30
0.0
 40
14.571289999999999
 50
355.5103049999999
 51
356.348163
  0
LINE
  5
17E
  8
0
 62
     7
 10
67.169600000000003
 20
219.12
 30
0.0
 11
67.169600000000003
 21
215.10299999999989
 31
0.0
  0
LINE
  5
17F
  8
0
 62
     7
 10
66.503299999999996
 20
219.92799999999991
 30
0.0
 11
66.503299999999996
 21
217.11199999999999
 31
0.0
  0
ARC
  5
180
  8
0
 62
     7
 10
55.915554
 20
203.333224
 30
0.0
 40
3.3078529999999988
 50
0.483511
 51
51.335034999999998
  0
ARC
  5
181
  8
0
 62
     7
 10
55.97325
 20
203.36122499999999
 30
0.0
 40
3.2500379999999991
 50
269.99850099999992
 51
359.99847199999999
  0
ARC
  5
182
  8
0
 62
     7
 10
55.973078000000001
 20
203.36122399999999
 30
0.0
 40
3.250036999999999
 50
180.00152800000001
 51
270.00153799999993
  0
ARC
  5
183
  8
0
 62
     7
 10
56.022604000000001
 20
203.33708799999999
 30
0.0
 40
3.2996500000000002
 50
128.62782300000001
 51
179.58235899999991
  0
LINE
  5
184
  8
0
 62
     7
 10
53.964500000000001
 20
205.91499999999991
 30
0.0
 11
53.156799999999997
 21
206.5809999999999
 31
0.0
  0
LINE
  5
185
  8
0
 62
     7
 10
58.789400000000001
 20
206.5809999999999
 30
0.0
 11
57.981699999999989
 21
205.91499999999991
 31
0.0
  0
LINE
  5
186
  8
0
 62
     7
 10
55.973199999999991
 20
206.5809999999999
 30
0.0
 11
53.156799999999997
 21
206.5809999999999
 31
0.0
  0
ARC
  5
187
  8
0
 62
     7
 10
55.970649000000002
 20
169.49987899999991
 30
0.0
 40
40.601975000000003
 50
89.996438999999995
 51
91.736520999999996
  0
ARC
  5
188
  8
0
 62
     7
 10
55.298204000000013
 20
192.6196239999999
 30
0.0
 40
17.472494000000001
 50
91.829893999999996
 51
95.042701000000008
  0
ARC
  5
189
  8
0
 62
     7
 10
52.614975000000001
 20
224.63536899999991
 30
0.0
 40
14.65586499999999
 50
273.657377
 51
274.49036100000001
  0
ARC
  5
18A
  8
0
 62
     7
 10
55.975681000000009
 20
169.49987899999991
 30
0.0
 40
40.601975000000003
 50
88.263458999999983
 51
90.003540999999998
  0
ARC
  5
18B
  8
0
 62
     7
 10
56.648125
 20
192.6196239999999
 30
0.0
 40
17.472494000000001
 50
84.957279
 51
88.170085999999984
  0
ARC
  5
18C
  8
0
 62
     7
 10
59.331354000000012
 20
224.63536899999991
 30
0.0
 40
14.65586499999999
 50
265.50965799999989
 51
266.34264300000001
  0
LINE
  5
18D
  8
0
 62
     7
 10
57.981699999999989
 20
205.91499999999991
 30
0.0
 11
53.964500000000001
 21
205.91499999999991
 31
0.0
  0
LINE
  5
18E
  8
0
 62
     7
 10
58.789400000000001
 20
206.5809999999999
 30
0.0
 11
55.973199999999991
 21
206.5809999999999
 31
0.0
  0
ARC
  5
18F
  8
0
 62
     7
 10
42.194875000000003
 20
217.16899699999999
 30
0.0
 40
3.307602999999999
 50
270.48146600000001
 51
321.3371009999999
  0
ARC
  5
190
  8
0
 62
     7
 10
42.222754000000002
 20
217.111548
 30
0.0
 40
3.250036999999999
 50
179.99845199999999
 51
269.99850099999992
  0
ARC
  5
191
  8
0
 62
     7
 10
42.222754999999999
 20
217.11171999999999
 30
0.0
 40
3.2500379999999991
 50
90.00151799999999
 51
180.00152800000001
  0
ARC
  5
192
  8
0
 62
     7
 10
42.198611
 20
217.06218299999989
 30
0.0
 40
3.2996629999999989
 50
38.627940000000002
 51
89.582261000000003
  0
LINE
  5
193
  8
0
 62
     7
 10
158.84399999999999
 20
155.78
 30
0.0
 11
161.05500000000001
 21
156.37200000000001
 31
0.0
  0
LINE
  5
194
  8
0
 62
     7
 10
161.05500000000001
 20
156.37200000000001
 30
0.0
 11
158.84399999999999
 21
156.965
 31
0.0
  0
LINE
  5
195
  8
0
 62
     7
 10
158.84399999999999
 20
156.965
 30
0.0
 11
158.84399999999999
 21
155.78
 31
0.0
  0
LINE
  5
196
  8
0
 62
     7
 10
129.26699999999991
 20
156.9499999999999
 30
0.0
 11
127.0559999999999
 21
156.35799999999989
 31
0.0
  0
LINE
  5
197
  8
0
 62
     7
 10
127.0559999999999
 20
156.35799999999989
 30
0.0
 11
129.26699999999991
 21
155.7649999999999
 31
0.0
  0
LINE
  5
198
  8
0
 62
     7
 10
129.26699999999991
 20
155.7649999999999
 30
0.0
 11
129.26699999999991
 21
156.9499999999999
 31
0.0
  0
LINE
  5
199
  8
0
 62
     7
 10
161.05600000000001
 20
156.35799999999989
 30
0.0
 11
127.05500000000001
 21
156.35799999999989
 31
0.0
  0
LINE
  5
19A
  8
0
 62
     7
 10
137.55799999999999
 20
60.543799999999997
 30
0.0
 11
138.80399999999989
 21
62.462699999999991
 31
0.0
  0
LINE
  5
19B
  8
0
 62
     7
 10
138.80399999999989
 20
62.462699999999991
 30
0.0
 11
136.76599999999991
 21
61.423999999999999
 31
0.0
  0
LINE
  5
19C
  8
0
 62
     7
 10
136.76599999999991
 20
61.423999999999999
 30
0.0
 11
137.55799999999999
 21
60.543799999999997
 31
0.0
  0
LINE
  5
19D
  8
0
 62
     7
 10
138.80399999999989
 20
62.462699999999991
 30
0.0
 11
134.08600000000001
 21
58.213900000000002
 31
0.0
  0
LINE
  5
19E
  8
0
 62
     7
 10
134.08600000000001
 20
58.213900000000002
 30
0.0
 11
126.1759999999999
 21
58.213900000000002
 31
0.0
  0
ARC
  5
19F
  8
0
 62
     7
 10
137.60180399999999
 20
120.24368200000001
 30
0.0
 40
3.2231359999999998
 50
89.816806999999997
 51
102.3943249999999
  0
ARC
  5
1A0
  8
0
 62
     7
 10
137.61079499999991
 20
120.244192
 30
0.0
 40
3.2226099999999991
 50
65.626997000000017
 51
89.976628000000005
  0
ARC
  5
1A1
  8
0
 62
     7
 10
137.92978299999999
 20
121.0492659999999
 30
0.0
 40
2.3580149999999991
 50
44.264176999999997
 51
64.61432099999999
  0
ARC
  5
1A2
  8
0
 62
     7
 10
138.431546
 20
121.583225
 30
0.0
 40
1.6263199999999991
 50
18.956092999999999
 51
43.130769000000001
  0
ARC
  5
1A3
  8
0
 62
     7
 10
138.72323299999999
 20
121.71369299999991
 30
0.0
 40
1.3083839999999991
 50
0.100702
 51
17.701810999999999
  0
ARC
  5
1A4
  8
0
 62
     7
 10
138.70025599999991
 20
121.718879
 30
0.0
 40
1.331361
 50
326.124932
 51
359.875787
  0
ARC
  5
1A5
  8
0
 62
     7
 10
138.32603
 20
121.93715400000001
 30
0.0
 40
1.763938999999999
 50
308.4335779999999
 51
327.01380699999987
  0
ARC
  5
1A6
  8
0
 62
     7
 10
137.92493699999989
 20
122.402636
 30
0.0
 40
2.3780179999999991
 50
291.35935699999987
 51
309.03210300000001
  0
ARC
  5
1A7
  8
0
 62
     7
 10
137.645039
 20
123.040904
 30
0.0
 40
3.074517999999999
 50
269.38630899999993
 51
291.88498799999991
  0
ARC
  5
1A8
  8
0
 62
     7
 10
137.609565
 20
123.267556
 30
0.0
 40
3.300994999999999
 50
257.6422839999999
 51
270.04416299999991
  0
ARC
  5
1A9
  8
0
 62
     7
 10
136.27216299999989
 20
118.85110899999999
 30
0.0
 40
1.282154999999999
 50
4.3697419999999987
 51
44.786380999999999
  0
ARC
  5
1AA
  8
0
 62
     7
 10
136.079995
 20
118.818285
 30
0.0
 40
1.4763770000000001
 50
322.46382799999992
 51
5.0716559999999991
  0
ARC
  5
1AB
  8
0
 62
     7
 10
138.958913
 20
121.724785
 30
0.0
 40
2.6532049999999989
 50
180.174995
 51
227.95890800000001
  0
ARC
  5
1AC
  8
0
 62
     7
 10
139.22485900000001
 20
121.44955899999999
 30
0.0
 40
3.020607
 50
123.54697400000001
 51
144.5698669999999
  0
ARC
  5
1AD
  8
0
 62
     7
 10
138.925468
 20
121.7209669999999
 30
0.0
 40
2.6197520000000001
 50
145.61074999999991
 51
180.09373400000001
  0
ARC
  5
1AE
  8
0
 62
     7
 10
137.7119689999999
 20
117.45997300000001
 30
0.0
 40
0.6505860000000001
 50
135.15205599999999
 51
166.764398
  0
ARC
  5
1AF
  8
0
 62
     7
 10
137.78125800000001
 20
117.424035
 30
0.0
 40
0.726515
 50
165.25637900000001
 51
177.605941
  0
LINE
  5
1B0
  8
0
 62
     7
 10
137.05500000000001
 20
117.45399999999989
 30
0.0
 11
137.05500000000001
 21
115.217
 31
0.0
  0
ARC
  5
1B1
  8
0
 62
     7
 10
150.509219
 20
120.24368200000001
 30
0.0
 40
3.2231359999999998
 50
77.605654999999999
 51
90.183172999999996
  0
ARC
  5
1B2
  8
0
 62
     7
 10
150.50022799999999
 20
120.244192
 30
0.0
 40
3.2226099999999991
 50
90.023353
 51
114.372983
  0
ARC
  5
1B3
  8
0
 62
     7
 10
150.18124
 20
121.0492659999999
 30
0.0
 40
2.3580149999999991
 50
115.3856589999999
 51
135.735803
  0
ARC
  5
1B4
  8
0
 62
     7
 10
149.67947699999991
 20
121.583225
 30
0.0
 40
1.6263199999999991
 50
136.869212
 51
161.04388700000001
  0
ARC
  5
1B5
  8
0
 62
     7
 10
149.38779
 20
121.71369299999991
 30
0.0
 40
1.3083839999999991
 50
162.298169
 51
179.89927800000001
  0
ARC
  5
1B6
  8
0
 62
     7
 10
149.410766
 20
121.718879
 30
0.0
 40
1.331361
 50
180.124233
 51
213.87508799999989
  0
ARC
  5
1B7
  8
0
 62
     7
 10
149.7849929999999
 20
121.93715400000001
 30
0.0
 40
1.763938999999999
 50
212.98621299999991
 51
231.566441
  0
ARC
  5
1B8
  8
0
 62
     7
 10
150.18608599999999
 20
122.402636
 30
0.0
 40
2.3780179999999991
 50
230.967917
 51
248.64066299999999
  0
ARC
  5
1B9
  8
0
 62
     7
 10
150.46598299999999
 20
123.040904
 30
0.0
 40
3.074517999999999
 50
248.1150319999999
 51
270.61371099999991
  0
ARC
  5
1BA
  8
0
 62
     7
 10
150.50145800000001
 20
123.267556
 30
0.0
 40
3.300994999999999
 50
269.95585699999992
 51
282.35773599999987
  0
ARC
  5
1BB
  8
0
 62
     7
 10
144.0551659999999
 20
195.46389699999989
 30
0.0
 40
6.2501329999999991
 50
270.00002000000001
 51
359.99998999999991
  0
ARC
  5
1BC
  8
0
 62
     7
 10
144.0551659999999
 20
195.46389500000001
 30
0.0
 40
6.2501309999999988
 50
179.99996999999991
 51
270.00002000000001
  0
ARC
  5
1BD
  8
0
 62
     7
 10
144.0551679999999
 20
195.46389500000001
 30
0.0
 40
6.2501329999999991
 50
90.0
 51
179.99996999999991
  0
ARC
  5
1BE
  8
0
 62
     7
 10
144.0551659999999
 20
195.46389500000001
 30
0.0
 40
6.2501329999999991
 50
0.00001
 51
89.999980000000008
  0
LINE
  5
1BF
  8
0
 62
     7
 10
137.708
 20
200.98400000000001
 30
0.0
 11
139.69
 21
199.839
 31
0.0
  0
LINE
  5
1C0
  8
0
 62
     7
 10
139.69
 20
199.839
 30
0.0
 11
138.54599999999991
 21
201.82099999999991
 31
0.0
  0
LINE
  5
1C1
  8
0
 62
     7
 10
138.54599999999991
 20
201.82099999999991
 30
0.0
 11
137.708
 21
200.98400000000001
 31
0.0
  0
LINE
  5
1C2
  8
0
 62
     7
 10
135.90299999999991
 20
203.6159999999999
 30
0.0
 11
139.6279999999999
 21
199.875
 31
0.0
  0
LINE
  5
1C3
  8
0
 62
     7
 10
139.636
 20
199.8829999999999
 30
0.0
 11
148.47499999999999
 21
191.04400000000001
 31
0.0
  0
LINE
  5
1C4
  8
0
 62
     7
 10
150.49600000000001
 20
189.84999999999999
 30
0.0
 11
148.5149999999999
 21
190.994
 31
0.0
  0
LINE
  5
1C5
  8
0
 62
     7
 10
148.5149999999999
 20
190.994
 30
0.0
 11
149.6579999999999
 21
189.01199999999989
 31
0.0
  0
LINE
  5
1C6
  8
0
 62
     7
 10
149.6579999999999
 20
189.01199999999989
 30
0.0
 11
150.49600000000001
 21
189.84999999999999
 31
0.0
  0
LINE
  5
1C7
  8
0
 62
     7
 10
148.5389999999999
 20
190.9799999999999
 30
0.0
 11
152.59
 21
186.929
 31
0.0
  0
LINE
  5
1C8
  8
0
  6
AIGENLINE001
 62
     7
 10
144.05600000000001
 20
183.36099999999999
 30
0.0
 11
144.05600000000001
 21
207.56700000000001
 31
0.0
  0
LINE
  5
1C9
  8
0
 62
     7
 10
152.59
 20
186.929
 30
0.0
 11
163.87999999999991
 21
186.929
 31
0.0
  0
LINE
  5
1CA
  8
0
  6
AIGENLINE001
 62
     7
 10
131.953
 20
195.464
 30
0.0
 11
156.15899999999991
 21
195.464
 31
0.0
  0
LINE
  5
1CB
  8
0
 62
     7
 10
148.80500000000001
 20
83.715999999999994
 30
0.0
 11
149.30500000000001
 21
84.214500000000001
 31
0.0
  0
LINE
  5
1CC
  8
0
 62
     7
 10
138.80499999999989
 20
84.214500000000001
 30
0.0
 11
139.30500000000001
 21
83.715999999999994
 31
0.0
  0
LINE
  5
1CD
  8
0
 62
     7
 10
148.80500000000001
 20
83.715999999999994
 30
0.0
 11
148.80500000000001
 21
70.216700000000003
 31
0.0
  0
LINE
  5
1CE
  8
0
 62
     7
 10
139.30500000000001
 20
70.216700000000003
 30
0.0
 11
139.30500000000001
 21
83.715999999999994
 31
0.0
  0
LINE
  5
1CF
  8
0
 62
     7
 10
149.30500000000001
 20
83.715999999999994
 30
0.0
 11
138.80499999999989
 21
83.715999999999994
 31
0.0
  0
LINE
  5
1D0
  8
0
 62
     7
 10
51.2241
 20
83.715999999999994
 30
0.0
 11
50.72379999999999
 21
84.214500000000001
 31
0.0
  0
LINE
  5
1D1
  8
0
 62
     7
 10
61.2239
 20
84.214500000000001
 30
0.0
 11
60.72359999999999
 21
83.715999999999994
 31
0.0
  0
LINE
  5
1D2
  8
0
 62
     7
 10
101.20999999999989
 20
100.4889999999999
 30
0.0
 11
99.056100000000015
 21
99.716200000000015
 31
0.0
  0
LINE
  5
1D3
  8
0
 62
     7
 10
99.056100000000015
 20
99.716200000000015
 30
0.0
 11
101.30799999999989
 21
99.309000000000012
 31
0.0
  0
LINE
  5
1D4
  8
0
 62
     7
 10
101.30799999999989
 20
99.309000000000012
 30
0.0
 11
101.20999999999989
 21
100.4889999999999
 31
0.0
  0
LINE
  5
1D5
  8
0
 62
     7
 10
90.915999999999997
 20
102.136
 30
0.0
 11
93.054699999999997
 21
101.32299999999989
 31
0.0
  0
LINE
  5
1D6
  8
0
 62
     7
 10
93.054699999999997
 20
101.32299999999989
 30
0.0
 11
91.609099999999984
 21
103.096
 31
0.0
  0
LINE
  5
1D7
  8
0
 62
     7
 10
91.609099999999984
 20
103.096
 30
0.0
 11
90.915999999999997
 21
102.136
 31
0.0
  0
ARC
  5
1D8
  8
0
 62
     7
 10
144.03704999999999
 20
72.637872000000002
 30
0.0
 40
77.078830000000011
 50
89.986266999999998
 51
90.526431000000002
  0
ARC
  5
1D9
  8
0
 62
     7
 10
143.50576599999999
 20
133.67665299999999
 30
0.0
 40
16.037772
 50
90.632043999999993
 51
95.316141999999985
  0
ARC
  5
1DA
  8
0
 62
     7
 10
143.172314
 20
138.3102979999999
 30
0.0
 40
11.393579000000001
 50
95.805427999999992
 51
105.80166199999989
  0
ARC
  5
1DB
  8
0
 62
     7
 10
144.38516599999991
 20
133.7221659999999
 30
0.0
 40
16.138804999999991
 50
105.509236
 51
110.226349
  0
ARC
  5
1DC
  8
0
 62
     7
 10
151.83885900000001
 20
118.85110899999999
 30
0.0
 40
1.282154999999999
 50
135.2135989999999
 51
175.63023799999991
  0
ARC
  5
1DD
  8
0
 62
     7
 10
152.03102699999991
 20
118.818285
 30
0.0
 40
1.4763759999999999
 50
174.92830499999999
 51
217.53621100000001
  0
LINE
  5
1DE
  8
0
 62
     7
 10
137.60099999999991
 20
117.7179999999999
 30
0.0
 11
144.05600000000001
 21
117.7179999999999
 31
0.0
  0
LINE
  5
1DF
  8
0
 62
     7
 10
137.60099999999991
 20
119.467
 30
0.0
 11
144.05600000000001
 21
119.467
 31
0.0
  0
ARC
  5
1E0
  8
0
 62
     7
 10
149.152108
 20
121.724785
 30
0.0
 40
2.6532070000000001
 50
312.04113100000001
 51
359.82500599999997
  0
ARC
  5
1E1
  8
0
 62
     7
 10
148.88616399999989
 20
121.44955899999999
 30
0.0
 40
3.020607
 50
35.430114000000003
 51
56.453006999999992
  0
ARC
  5
1E2
  8
0
 62
     7
 10
149.185552
 20
121.7209659999999
 30
0.0
 40
2.6197550000000001
 50
359.90630499999992
 51
34.389209999999999
  0
LINE
  5
1E3
  8
0
 62
     7
 10
138.43100000000001
 20
125.217
 30
0.0
 11
138.5689999999999
 21
125.217
 31
0.0
  0
LINE
  5
1E4
  8
0
 62
     7
 10
137.55600000000001
 20
124.342
 30
0.0
 11
137.55600000000001
 21
123.967
 31
0.0
  0
ARC
  5
1E5
  8
0
 62
     7
 10
138.46445700000001
 20
124.3077149999999
 30
0.0
 40
0.9094889999999999
 50
92.129067000000006
 51
177.848342
  0
LINE
  5
1E6
  8
0
 62
     7
 10
141.30600000000001
 20
133.71700000000001
 30
0.0
 11
144.05600000000001
 21
133.71700000000001
 31
0.0
  0
LINE
  5
1E7
  8
0
 62
     7
 10
140.83600000000001
 20
134.18600000000001
 30
0.0
 11
141.30600000000001
 21
133.71700000000001
 31
0.0
  0
LINE
  5
1E8
  8
0
 62
     7
 10
140.55600000000001
 20
132.71700000000001
 30
0.0
 11
144.05600000000001
 21
132.71700000000001
 31
0.0
  0
LINE
  5
1E9
  8
0
 62
     7
 10
140.83600000000001
 20
134.18600000000001
 30
0.0
 11
144.05600000000001
 21
134.18600000000001
 31
0.0
  0
LINE
  5
1EA
  8
0
 62
     7
 10
140.83600000000001
 20
136.82099999999991
 30
0.0
 11
140.83600000000001
 21
134.18600000000001
 31
0.0
  0
LINE
  5
1EB
  8
0
 62
     7
 10
137.55600000000001
 20
138.697
 30
0.0
 11
144.05600000000001
 21
138.697
 31
0.0
  0
ARC
  5
1EC
  8
0
 62
     7
 10
138.96052700000001
 20
136.82145399999999
 30
0.0
 40
1.8751779999999989
 50
0.00001
 51
89.999980000000008
  0
LINE
  5
1ED
  8
0
 62
     7
 10
141.30600000000001
 20
133.71700000000001
 30
0.0
 11
141.30600000000001
 21
132.71700000000001
 31
0.0
  0
ARC
  5
1EE
  8
0
 62
     7
 10
145.99929099999989
 20
121.713711
 30
0.0
 40
1.0803469999999991
 50
0.121005
 51
31.469325000000001
  0
ARC
  5
1EF
  8
0
 62
     7
 10
145.60276999999991
 20
121.5018289999999
 30
0.0
 40
1.5293840000000001
 50
30.484663999999999
 51
47.203651999999998
  0
ARC
  5
1F0
  8
0
 62
     7
 10
145.04550099999989
 20
120.93752600000001
 30
0.0
 40
2.3222009999999988
 50
46.573865000000012
 51
63.301000999999992
  0
ARC
  5
1F1
  8
0
 62
     7
 10
144.43126399999991
 20
119.8462029999999
 30
0.0
 40
3.5736219999999999
 50
62.364445000000003
 51
76.484329000000002
  0
ARC
  5
1F2
  8
0
 62
     7
 10
144.08767800000001
 20
118.6368939999999
 30
0.0
 40
4.8300150000000004
 50
75.874095999999994
 51
90.381569999999996
  0
ARC
  5
1F3
  8
0
 62
     7
 10
144.05520599999991
 20
118.444754
 30
0.0
 40
5.0220469999999988
 50
89.996504000000002
 51
106.67660100000001
  0
ARC
  5
1F4
  8
0
 62
     7
 10
143.68620799999999
 20
119.82846000000001
 30
0.0
 40
3.5909140000000002
 50
107.37235099999999
 51
120.448902
  0
ARC
  5
1F5
  8
0
 62
     7
 10
143.06612599999991
 20
120.937076
 30
0.0
 40
2.3211179999999998
 50
121.121629
 51
137.2300149999999
  0
ARC
  5
1F6
  8
0
 62
     7
 10
142.459138
 20
121.53738800000001
 30
0.0
 40
1.468167
 50
138.3423469999999
 51
155.1792989999999
  0
ARC
  5
1F7
  8
0
 62
     7
 10
142.1291929999999
 20
121.7064159999999
 30
0.0
 40
1.097847999999999
 50
155.95748
 51
179.500181
  0
ARC
  5
1F8
  8
0
 62
     7
 10
142.10935799999999
 20
121.718284
 30
0.0
 40
1.077972999999999
 50
180.12177500000001
 51
211.50487699999999
  0
ARC
  5
1F9
  8
0
 62
     7
 10
142.50760700000001
 20
121.931327
 30
0.0
 40
1.5290779999999999
 50
210.51284699999999
 51
227.22599700000001
  0
ARC
  5
1FA
  8
0
 62
     7
 10
143.06575000000001
 20
122.4971
 30
0.0
 40
2.3235549999999989
 50
226.59776099999991
 51
243.31153199999989
  0
ARC
  5
1FB
  8
0
 62
     7
 10
143.68023199999999
 20
123.5896139999999
 30
0.0
 40
3.5761389999999991
 50
242.37702799999991
 51
256.48624899999999
  0
ARC
  5
1FC
  8
0
 62
     7
 10
144.02355499999999
 20
124.798911
 30
0.0
 40
4.8324540000000002
 50
255.878817
 51
270.37889699999999
  0
ARC
  5
1FD
  8
0
 62
     7
 10
144.055814
 20
124.98961199999999
 30
0.0
 40
5.0230489999999994
 50
269.99655899999999
 51
286.67323399999998
  0
ARC
  5
1FE
  8
0
 62
     7
 10
144.430126
 20
123.5896789999999
 30
0.0
 40
3.574838999999999
 50
287.36377399999998
 51
300.96556299999992
  0
ARC
  5
1FF
  8
0
 62
     7
 10
145.073691
 20
122.459644
 30
0.0
 40
2.2749239999999991
 50
301.71076599999998
 51
318.03851800000001
  0
ARC
  5
200
  8
0
 62
     7
 10
145.67589099999989
 20
121.87943300000001
 30
0.0
 40
1.439473
 50
319.18460800000003
 51
336.25717300000002
  0
ARC
  5
201
  8
0
 62
     7
 10
145.9923269999999
 20
121.72399899999991
 30
0.0
 40
1.087337999999999
 50
337.04079100000001
 51
359.57812000000001
  0
LINE
  5
202
  8
0
 62
     7
 10
144.05600000000001
 20
146.24100000000001
 30
0.0
 11
144.05600000000001
 21
147.64099999999999
 31
0.0
  0
LINE
  5
203
  8
0
 62
     7
 10
143.27699999999999
 20
146.24100000000001
 30
0.0
 11
143.27699999999999
 21
147.64099999999999
 31
0.0
  0
LINE
  5
204
  8
0
 62
     7
 10
142.57900000000001
 20
146.24100000000001
 30
0.0
 11
142.57900000000001
 21
147.64099999999999
 31
0.0
  0
LINE
  5
205
  8
0
 62
     7
 10
141.88200000000001
 20
146.24100000000001
 30
0.0
 11
141.88200000000001
 21
147.64099999999999
 31
0.0
  0
LINE
  5
206
  8
0
 62
     7
 10
141.1689999999999
 20
146.24100000000001
 30
0.0
 11
141.1689999999999
 21
147.64099999999999
 31
0.0
  0
LINE
  5
207
  8
0
 62
     7
 10
140.58299999999991
 20
146.24100000000001
 30
0.0
 11
140.58299999999991
 21
147.64099999999999
 31
0.0
  0
LINE
  5
208
  8
0
 62
     7
 10
137.52799999999991
 20
146.24100000000001
 30
0.0
 11
137.52799999999991
 21
147.64099999999999
 31
0.0
  0
LINE
  5
209
  8
0
 62
     7
 10
137.76900000000001
 20
146.24100000000001
 30
0.0
 11
137.76900000000001
 21
147.64099999999999
 31
0.0
  0
LINE
  5
20A
  8
0
 62
     7
 10
139.52600000000001
 20
146.24100000000001
 30
0.0
 11
139.52600000000001
 21
147.64099999999999
 31
0.0
  0
LINE
  5
20B
  8
0
 62
     7
 10
140.02799999999991
 20
146.24100000000001
 30
0.0
 11
140.02799999999991
 21
147.64099999999999
 31
0.0
  0
LINE
  5
20C
  8
0
 62
     7
 10
139.012
 20
146.24100000000001
 30
0.0
 11
139.012
 21
147.64099999999999
 31
0.0
  0
LINE
  5
20D
  8
0
 62
     7
 10
138.548
 20
146.24100000000001
 30
0.0
 11
138.548
 21
147.64099999999999
 31
0.0
  0
LINE
  5
20E
  8
0
 62
     7
 10
138.12100000000001
 20
146.24100000000001
 30
0.0
 11
138.12100000000001
 21
147.64099999999999
 31
0.0
  0
LINE
  5
20F
  8
0
 62
     7
 10
137.30500000000001
 20
146.24100000000001
 30
0.0
 11
144.05600000000001
 21
146.24100000000001
 31
0.0
  0
LINE
  5
210
  8
0
 62
     7
 10
137.30500000000001
 20
146.24100000000001
 30
0.0
 11
137.30500000000001
 21
147.64099999999999
 31
0.0
  0
LINE
  5
211
  8
0
 62
     7
 10
137.30500000000001
 20
147.64099999999999
 30
0.0
 11
144.05600000000001
 21
147.64099999999999
 31
0.0
  0
LINE
  5
212
  8
0
 62
     7
 10
138.62700000000001
 20
148.86600000000001
 30
0.0
 11
144.05600000000001
 21
148.86600000000001
 31
0.0
  0
ARC
  5
213
  8
0
 62
     7
 10
138.62703999999991
 20
147.64067199999991
 30
0.0
 40
1.2250840000000001
 50
90.0
 51
179.99996999999991
  0
ARC
  5
214
  8
0
 62
     7
 10
144.073972
 20
72.637872999999999
 30
0.0
 40
77.078830000000011
 50
89.473549000000006
 51
90.013712999999996
  0
ARC
  5
215
  8
0
 62
     7
 10
144.60525699999991
 20
133.67665299999999
 30
0.0
 40
16.037772
 50
84.683837999999994
 51
89.367935999999986
  0
ARC
  5
216
  8
0
 62
     7
 10
144.93870899999999
 20
138.3102979999999
 30
0.0
 40
11.393579000000001
 50
74.198318
 51
84.194551999999987
  0
ARC
  5
217
  8
0
 62
     7
 10
143.72585699999999
 20
133.7221659999999
 30
0.0
 40
16.138804999999991
 50
69.773631000000009
 51
74.490743999999992
  0
LINE
  5
218
  8
0
 62
     7
 10
144.05600000000001
 20
115.21599999999999
 30
0.0
 11
137.054
 21
115.21599999999999
 31
0.0
  0
LINE
  5
219
  8
0
 62
     7
 10
95.591699999999989
 20
113.71599999999999
 30
0.0
 11
102.51899999999991
 21
109.717
 31
0.0
  0
LINE
  5
21A
  8
0
 62
     7
 10
135.92500000000001
 20
113.42700000000001
 30
0.0
 11
137.054
 21
115.21599999999999
 31
0.0
  0
LINE
  5
21B
  8
0
 62
     7
 10
151.05600000000001
 20
115.217
 30
0.0
 11
144.05600000000001
 21
115.21599999999999
 31
0.0
  0
ARC
  5
21C
  8
0
 62
     7
 10
91.603898999999998
 20
59.473096999999989
 30
0.0
 40
58.898727000000001
 50
47.433471999999988
 51
66.990306000000004
  0
ARC
  5
21D
  8
0
 62
     7
 10
110.8670429999999
 20
101.558716
 30
0.0
 40
12.838938000000001
 50
86.197345999999996
 51
96.711175000000011
  0
ARC
  5
21E
  8
0
 62
     7
 10
110.98947099999999
 20
104.6202899999999
 30
0.0
 40
9.7763190000000009
 50
71.628776999999999
 51
85.723302000000004
  0
ARC
  5
21F
  8
0
 62
     7
 10
111.3565159999999
 20
105.96726200000001
 30
0.0
 40
8.3826600000000013
 50
67.038985999999994
 51
71.108009999999993
  0
ARC
  5
220
  8
0
 62
     7
 10
110.19389099999989
 20
108.65326499999991
 30
0.0
 40
14.783372999999999
 50
110.293148
 51
120.41517399999989
  0
ARC
  5
221
  8
0
 62
     7
 10
109.09213699999999
 20
111.320645
 30
0.0
 40
11.899934999999999
 50
83.365192000000008
 51
109.771899
  0
ARC
  5
222
  8
0
 62
     7
 10
108.806247
 20
107.941311
 30
0.0
 40
15.290037999999999
 50
74.61143100000001
 51
83.764184
  0
ARC
  5
223
  8
0
 62
     7
 10
107.59748999999999
 20
103.059523
 30
0.0
 40
20.317982999999991
 50
69.942955999999995
 51
74.978106000000011
  0
ARC
  5
224
  8
0
 62
     7
 10
88.847794999999977
 20
50.767609
 30
0.0
 40
75.869469999999993
 50
65.180959999999985
 51
70.185552000000001
  0
ARC
  5
225
  8
0
 62
     7
 10
80.604022000000001
 20
32.207959999999993
 30
0.0
 40
96.175760999999994
 50
60.591258000000003
 51
65.364518000000004
  0
ARC
  5
226
  8
0
 62
     7
 10
74.410549000000003
 20
20.724639
 30
0.0
 40
109.220822
 50
58.10598000000001
 51
60.718918999999993
  0
ARC
  5
227
  8
0
 62
     7
 10
219.35145700000001
 20
252.50390499999989
 30
0.0
 40
164.14657299999999
 50
237.89718199999999
 51
238.41160499999989
  0
ARC
  5
228
  8
0
 62
     7
 10
133.779156
 20
113.34325699999999
 30
0.0
 40
0.7810189999999999
 50
238.343108
 51
245.1906569999999
  0
ARC
  5
229
  8
0
 62
     7
 10
110.10711499999989
 20
104.54585299999999
 30
0.0
 40
9.1820330000000006
 50
139.38551299999989
 51
145.72655299999991
  0
ARC
  5
22A
  8
0
 62
     7
 10
112.935603
 20
102.2255209999999
 30
0.0
 40
12.839862999999999
 50
121.70787
 51
139.74191899999991
  0
ARC
  5
22B
  8
0
 62
     7
 10
111.0897129999999
 20
105.0587139999999
 30
0.0
 40
9.4597259999999999
 50
109.368809
 51
121.2155909999999
  0
ARC
  5
22C
  8
0
 62
     7
 10
110.2621749999999
 20
107.2073409999999
 30
0.0
 40
7.1585770000000002
 50
97.186611000000013
 51
108.823624
  0
ARC
  5
22D
  8
0
 62
     7
 10
117.09585
 20
102.165097
 30
0.0
 40
24.410308000000001
 50
143.17099699999989
 51
151.756765
  0
ARC
  5
22E
  8
0
 62
     7
 10
112.6221409999999
 20
105.36294599999999
 30
0.0
 40
18.912935999999998
 50
130.7817409999999
 51
142.80133900000001
  0
ARC
  5
22F
  8
0
 62
     7
 10
110.841819
 20
107.2562139999999
 30
0.0
 40
16.316858
 50
119.89366799999991
 51
130.390489
  0
ARC
  5
230
  8
0
 62
     7
 10
118.511436
 20
88.270655000000005
 30
0.0
 40
19.490970000000001
 50
22.501885000000001
 51
48.424791999999989
  0
ARC
  5
231
  8
0
 62
     7
 10
116.337086
 20
87.236497000000014
 30
0.0
 40
21.895914000000001
 50
16.68929
 51
22.82445199999999
  0
ARC
  5
232
  8
0
 62
     7
 10
134.24963600000001
 20
114.4221179999999
 30
0.0
 40
1.9488009999999989
 50
284.70709299999999
 51
329.28375299999988
  0
ARC
  5
233
  8
0
 62
     7
 10
134.240712
 20
114.4861379999999
 30
0.0
 40
2.013002999999999
 50
246.9156089999999
 51
284.49016499999999
  0
LINE
  5
234
  8
0
 62
     7
 10
144.05600000000001
 20
123.967
 30
0.0
 11
137.60099999999991
 21
123.967
 31
0.0
  0
LINE
  5
235
  8
0
 62
     7
 10
150.50999999999991
 20
117.7179999999999
 30
0.0
 11
144.05600000000001
 21
117.7179999999999
 31
0.0
  0
LINE
  5
236
  8
0
 62
     7
 10
150.50999999999991
 20
119.467
 30
0.0
 11
144.05600000000001
 21
119.467
 31
0.0
  0
LINE
  5
237
  8
0
 62
     7
 10
150.50999999999991
 20
123.967
 30
0.0
 11
144.05600000000001
 21
123.967
 31
0.0
  0
ARC
  5
238
  8
0
 62
     7
 10
150.39905400000001
 20
117.45997300000001
 30
0.0
 40
0.6505860000000001
 50
13.235582000000001
 51
44.847923999999992
  0
ARC
  5
239
  8
0
 62
     7
 10
150.3297649999999
 20
117.424035
 30
0.0
 40
0.726515
 50
2.3940399999999991
 51
14.743601
  0
LINE
  5
23A
  8
0
 62
     7
 10
149.68000000000001
 20
125.217
 30
0.0
 11
149.542
 21
125.217
 31
0.0
  0
LINE
  5
23B
  8
0
 62
     7
 10
151.05600000000001
 20
117.45399999999989
 30
0.0
 11
151.05600000000001
 21
115.217
 31
0.0
  0
LINE
  5
23C
  8
0
 62
     7
 10
150.55500000000001
 20
124.342
 30
0.0
 11
150.55500000000001
 21
123.967
 31
0.0
  0
ARC
  5
23D
  8
0
 62
     7
 10
149.64656599999989
 20
124.3077149999999
 30
0.0
 40
0.9094889999999999
 50
2.1516380000000002
 51
87.870913000000002
  0
LINE
  5
23E
  8
0
 62
     7
 10
144.05600000000001
 20
125.217
 30
0.0
 11
139.49899999999991
 21
125.217
 31
0.0
  0
LINE
  5
23F
  8
0
 62
     7
 10
148.61199999999991
 20
125.217
 30
0.0
 11
144.05600000000001
 21
125.217
 31
0.0
  0
LINE
  5
240
  8
0
 62
     7
 10
151.55600000000001
 20
139.697
 30
0.0
 11
151.55600000000001
 21
140.04300000000001
 31
0.0
  0
LINE
  5
241
  8
0
 62
     7
 10
150.55500000000001
 20
138.697
 30
0.0
 11
149.15000000000001
 21
138.697
 31
0.0
  0
ARC
  5
242
  8
0
 62
     7
 10
150.51695399999991
 20
139.73521599999989
 30
0.0
 40
1.039296999999999
 50
272.12079699999998
 51
357.86934400000001
  0
LINE
  5
243
  8
0
 62
     7
 10
146.80500000000001
 20
133.71700000000001
 30
0.0
 11
144.05600000000001
 21
133.71700000000001
 31
0.0
  0
LINE
  5
244
  8
0
 62
     7
 10
147.27500000000001
 20
134.18600000000001
 30
0.0
 11
146.80500000000001
 21
133.71700000000001
 31
0.0
  0
LINE
  5
245
  8
0
 62
     7
 10
147.55500000000001
 20
132.71700000000001
 30
0.0
 11
144.05600000000001
 21
132.71700000000001
 31
0.0
  0
LINE
  5
246
  8
0
 62
     7
 10
147.27500000000001
 20
134.18600000000001
 30
0.0
 11
144.05600000000001
 21
134.18600000000001
 31
0.0
  0
LINE
  5
247
  8
0
 62
     7
 10
147.27500000000001
 20
136.82099999999991
 30
0.0
 11
147.27500000000001
 21
134.18600000000001
 31
0.0
  0
LINE
  5
248
  8
0
 62
     7
 10
149.15000000000001
 20
138.697
 30
0.0
 11
144.05600000000001
 21
138.697
 31
0.0
  0
ARC
  5
249
  8
0
 62
     7
 10
149.150496
 20
136.82145399999999
 30
0.0
 40
1.8751779999999989
 50
90.0
 51
179.99996999999991
  0
LINE
  5
24A
  8
0
 62
     7
 10
146.80500000000001
 20
133.71700000000001
 30
0.0
 11
146.80500000000001
 21
132.71700000000001
 31
0.0
  0
ARC
  5
24B
  8
0
 62
     7
 10
144.05542600000001
 20
142.46653699999999
 30
0.0
 40
3.2500379999999991
 50
89.998481999999996
 51
179.99845199999999
  0
ARC
  5
24C
  8
0
 62
     7
 10
144.05559700000001
 20
142.46653699999999
 30
0.0
 40
3.2500379999999991
 50
0.001528
 51
90.001499000000024
  0
ARC
  5
24D
  8
0
 62
     7
 10
144.05559700000001
 20
142.46671000000001
 30
0.0
 40
3.2500379999999991
 50
269.99850099999992
 51
359.99847199999999
  0
ARC
  5
24E
  8
0
 62
     7
 10
144.05542500000001
 20
142.4667089999999
 30
0.0
 40
3.250036999999999
 50
180.00152800000001
 51
270.00153799999993
  0
ARC
  5
24F
  8
0
 62
     7
 10
99.065292000000014
 20
111.7163469999999
 30
0.0
 40
12.000188
 50
269.95602200000002
 51
287.87282699999997
  0
ARC
  5
250
  8
0
 62
     7
 10
99.124065999999999
 20
111.87162099999991
 30
0.0
 40
12.155647999999999
 50
223.10829199999989
 51
269.67954899999989
  0
LINE
  5
251
  8
0
 62
     7
 10
144.83399999999989
 20
146.24100000000001
 30
0.0
 11
144.83399999999989
 21
147.64099999999999
 31
0.0
  0
LINE
  5
252
  8
0
 62
     7
 10
145.53200000000001
 20
146.24100000000001
 30
0.0
 11
145.53200000000001
 21
147.64099999999999
 31
0.0
  0
LINE
  5
253
  8
0
 62
     7
 10
146.2289999999999
 20
146.24100000000001
 30
0.0
 11
146.2289999999999
 21
147.64099999999999
 31
0.0
  0
LINE
  5
254
  8
0
 62
     7
 10
146.94200000000001
 20
146.24100000000001
 30
0.0
 11
146.94200000000001
 21
147.64099999999999
 31
0.0
  0
LINE
  5
255
  8
0
 62
     7
 10
147.52799999999991
 20
146.24100000000001
 30
0.0
 11
147.52799999999991
 21
147.64099999999999
 31
0.0
  0
LINE
  5
256
  8
0
 62
     7
 10
150.583
 20
146.24100000000001
 30
0.0
 11
150.583
 21
147.64099999999999
 31
0.0
  0
LINE
  5
257
  8
0
 62
     7
 10
150.34200000000001
 20
146.24100000000001
 30
0.0
 11
150.34200000000001
 21
147.64099999999999
 31
0.0
  0
LINE
  5
258
  8
0
 62
     7
 10
148.58500000000001
 20
146.24100000000001
 30
0.0
 11
148.58500000000001
 21
147.64099999999999
 31
0.0
  0
LINE
  5
259
  8
0
 62
     7
 10
148.083
 20
146.24100000000001
 30
0.0
 11
148.083
 21
147.64099999999999
 31
0.0
  0
LINE
  5
25A
  8
0
 62
     7
 10
149.0989999999999
 20
146.24100000000001
 30
0.0
 11
149.0989999999999
 21
147.64099999999999
 31
0.0
  0
LINE
  5
25B
  8
0
 62
     7
 10
149.56299999999999
 20
146.24100000000001
 30
0.0
 11
149.56299999999999
 21
147.64099999999999
 31
0.0
  0
LINE
  5
25C
  8
0
 62
     7
 10
149.99000000000001
 20
146.24100000000001
 30
0.0
 11
149.99000000000001
 21
147.64099999999999
 31
0.0
  0
LINE
  5
25D
  8
0
 62
     7
 10
150.80600000000001
 20
146.24100000000001
 30
0.0
 11
151.2289999999999
 21
145.25
 31
0.0
  0
LINE
  5
25E
  8
0
 62
     7
 10
150.80600000000001
 20
146.24100000000001
 30
0.0
 11
144.05600000000001
 21
146.24100000000001
 31
0.0
  0
LINE
  5
25F
  8
0
 62
     7
 10
150.80600000000001
 20
146.24100000000001
 30
0.0
 11
150.80600000000001
 21
147.64099999999999
 31
0.0
  0
LINE
  5
260
  8
0
 62
     7
 10
150.80600000000001
 20
147.64099999999999
 30
0.0
 11
144.05600000000001
 21
147.64099999999999
 31
0.0
  0
LINE
  5
261
  8
0
 62
     7
 10
149.48400000000001
 20
148.86600000000001
 30
0.0
 11
144.05600000000001
 21
148.86600000000001
 31
0.0
  0
ARC
  5
262
  8
0
 62
     7
 10
149.48398199999991
 20
147.64067199999991
 30
0.0
 40
1.2250840000000001
 50
0.00001
 51
89.999980000000008
  0
LINE
  5
263
  8
0
  6
AIGENLINE002
 62
     7
 10
100.982
 20
115.053
 30
0.0
 11
97.040300000000016
 21
108.22499999999989
 31
0.0
  0
LINE
  5
264
  8
0
 62
     7
 10
96.684499999999986
 20
107.6079999999999
 30
0.0
 11
92.378100000000003
 21
100.15000000000001
 31
0.0
  0
LINE
  5
265
  8
0
 62
     7
 10
148.80500000000001
 20
59.216099999999997
 30
0.0
 11
148.80500000000001
 21
66.9679
 31
0.0
  0
LINE
  5
266
  8
0
 62
     7
 10
139.30500000000001
 20
66.9679
 30
0.0
 11
139.30500000000001
 21
59.216099999999997
 31
0.0
  0
LINE
  5
267
  8
0
 62
     7
 10
138.80399999999989
 20
59.715899999999991
 30
0.0
 11
149.304
 21
59.715899999999991
 31
0.0
  0
LINE
  5
268
  8
0
  6
AIGENLINE001
 62
     7
 10
144.05600000000001
 20
57.180300000000003
 30
0.0
 11
144.05600000000001
 21
152.815
 31
0.0
  0
LINE
  5
269
  8
0
 62
     7
 10
147.55600000000001
 20
68.967500000000001
 30
0.0
 11
147.55600000000001
 21
66.9679
 31
0.0
  0
LINE
  5
26A
  8
0
 62
     7
 10
140.55500000000001
 20
68.967500000000001
 30
0.0
 11
140.55500000000001
 21
66.9679
 31
0.0
  0
LINE
  5
26B
  8
0
 62
     7
 10
137.05500000000001
 20
68.967500000000001
 30
0.0
 11
137.05500000000001
 21
66.9679
 31
0.0
  0
LINE
  5
26C
  8
0
 62
     7
 10
137.05500000000001
 20
66.9679
 30
0.0
 11
151.05500000000001
 21
66.9679
 31
0.0
  0
LINE
  5
26D
  8
0
 62
     7
 10
151.05500000000001
 20
66.9679
 30
0.0
 11
151.05500000000001
 21
68.967500000000001
 31
0.0
  0
LINE
  5
26E
  8
0
 62
     7
 10
149.304
 20
84.214500000000001
 30
0.0
 11
149.304
 21
70.216700000000003
 31
0.0
  0
LINE
  5
26F
  8
0
 62
     7
 10
138.80399999999989
 20
84.214500000000001
 30
0.0
 11
138.80399999999989
 21
70.216700000000003
 31
0.0
  0
LINE
  5
270
  8
0
 62
     7
 10
149.304
 20
66.9679
 30
0.0
 11
149.304
 21
59.715899999999991
 31
0.0
  0
LINE
  5
271
  8
0
 62
     7
 10
149.304
 20
59.715899999999991
 30
0.0
 11
148.80500000000001
 21
59.216099999999997
 31
0.0
  0
LINE
  5
272
  8
0
 62
     7
 10
148.80500000000001
 20
59.216099999999997
 30
0.0
 11
139.30500000000001
 21
59.216099999999997
 31
0.0
  0
LINE
  5
273
  8
0
 62
     7
 10
139.30500000000001
 20
59.216099999999997
 30
0.0
 11
138.80399999999989
 21
59.715899999999991
 31
0.0
  0
LINE
  5
274
  8
0
 62
     7
 10
138.80399999999989
 20
59.715899999999991
 30
0.0
 11
138.80399999999989
 21
66.9679
 31
0.0
  0
LINE
  5
275
  8
0
 62
     7
 10
138.55500000000001
 20
85.216399999999993
 30
0.0
 11
138.55500000000001
 21
84.215900000000005
 31
0.0
  0
LINE
  5
276
  8
0
 62
     7
 10
138.55500000000001
 20
84.215900000000005
 30
0.0
 11
149.55500000000001
 21
84.215900000000005
 31
0.0
  0
LINE
  5
277
  8
0
 62
     7
 10
149.55500000000001
 20
84.215900000000005
 30
0.0
 11
149.55500000000001
 21
85.216399999999993
 31
0.0
  0
LINE
  5
278
  8
0
 62
     7
 10
154.30500000000001
 20
85.216399999999993
 30
0.0
 11
133.80600000000001
 21
85.216399999999993
 31
0.0
  0
LINE
  5
279
  8
0
 62
     7
 10
133.80600000000001
 20
85.216399999999993
 30
0.0
 11
133.80600000000001
 21
87.216599999999985
 31
0.0
  0
LINE
  5
27A
  8
0
 62
     7
 10
133.80600000000001
 20
87.216599999999985
 30
0.0
 11
154.30500000000001
 21
87.216599999999985
 31
0.0
  0
LINE
  5
27B
  8
0
 62
     7
 10
154.30500000000001
 20
87.216599999999985
 30
0.0
 11
154.30500000000001
 21
85.216399999999993
 31
0.0
  0
LINE
  5
27C
  8
0
 62
     7
 10
62.973300000000002
 20
119.649
 30
0.0
 11
62.973300000000002
 21
123.73
 31
0.0
  0
ARC
  5
27D
  8
0
 62
     7
 10
58.760812999999999
 20
119.64659499999991
 30
0.0
 40
4.2124870000000003
 50
357.66069599999992
 51
0.036338
  0
ARC
  5
27E
  8
0
 62
     7
 10
62.245460999999999
 20
119.513537
 30
0.0
 40
0.72537
 50
341.78316799999999
 51
356.92717599999992
  0
ARC
  5
27F
  8
0
 62
     7
 10
62.440075
 20
119.466746
 30
0.0
 40
0.5261390000000001
 50
313.42298199999988
 51
339.99766299999987
  0
ARC
  5
280
  8
0
 62
     7
 10
62.681621
 20
117.2349649999999
 30
0.0
 40
0.7650380000000001
 50
63.893127000000007
 51
69.638914
  0
ARC
  5
281
  8
0
 62
     7
 10
62.905875000000002
 20
117.687827
 30
0.0
 40
0.259706
 50
38.320380999999998
 51
64.355050000000006
  0
ARC
  5
282
  8
0
 62
     7
 10
62.963170999999988
 20
117.747985
 30
0.0
 40
0.177835
 50
18.787146
 51
34.557784999999988
  0
ARC
  5
283
  8
0
 62
     7
 10
62.855096000000003
 20
117.71306199999999
 30
0.0
 40
0.2914050000000001
 50
6.4605100000000002
 51
18.444237999999999
  0
ARC
  5
284
  8
0
 62
     7
 10
61.966178999999997
 20
117.620997
 30
0.0
 40
1.1850659999999991
 50
357.807076
 51
6.0476720000000004
  0
ARC
  5
285
  8
0
 62
     7
 10
63.294113000000003
 20
118.5262899999999
 30
0.0
 40
0.744421
 50
131.40888200000001
 51
173.9215749999999
  0
ARC
  5
286
  8
0
 62
     7
 10
63.239885000000001
 20
118.56392700000001
 30
0.0
 40
0.6872430000000001
 50
176.56395099999989
 51
233.15916299999989
  0
ARC
  5
287
  8
0
 62
     7
 10
63.128776000000002
 20
118.4514999999999
 30
0.0
 40
0.531083
 50
235.48044300000001
 51
250.07690600000001
  0
ARC
  5
288
  8
0
 62
     7
 10
62.736274000000002
 20
123.7296639999999
 30
0.0
 40
0.237024
 50
0.00001
 51
89.999980000000008
  0
LINE
  5
289
  8
0
 62
     7
 10
61.86119999999999
 20
125.217
 30
0.0
 11
61.72270000000001
 21
125.217
 31
0.0
  0
LINE
  5
28A
  8
0
 62
     7
 10
63.150399999999991
 20
117.57599999999999
 30
0.0
 11
63.1511
 21
115.21599999999999
 31
0.0
  0
LINE
  5
28B
  8
0
 62
     7
 10
62.7363
 20
124.342
 30
0.0
 11
62.7363
 21
123.967
 31
0.0
  0
ARC
  5
28C
  8
0
 62
     7
 10
61.827401999999999
 20
124.3077039999999
 30
0.0
 40
0.909501
 50
2.1305830000000001
 51
87.869406999999995
  0
LINE
  5
28D
  8
0
 62
     7
 10
147.55600000000001
 20
132.71700000000001
 30
0.0
 11
147.55600000000001
 21
127.467
 31
0.0
  0
ARC
  5
28E
  8
0
 62
     7
 10
149.54221699999991
 20
127.25983600000001
 30
0.0
 40
2.0432600000000001
 50
243.78439900000001
 51
269.99002899999988
  0
ARC
  5
28F
  8
0
 62
     7
 10
149.50306699999999
 20
127.077636
 30
0.0
 40
1.8630589999999989
 50
205.45620500000001
 51
242.38914299999999
  0
ARC
  5
290
  8
0
 62
     7
 10
150.0215169999999
 20
127.375415
 30
0.0
 40
2.459597
 50
185.20757800000001
 51
206.52850000000001
  0
ARC
  5
291
  8
0
 62
     7
 10
150.55268299999989
 20
127.464529
 30
0.0
 40
2.9969339999999991
 50
179.95413799999989
 51
185.98256099999989
  0
LINE
  5
292
  8
0
 62
     7
 10
140.55600000000001
 20
132.71700000000001
 30
0.0
 11
140.55600000000001
 21
127.467
 31
0.0
  0
ARC
  5
293
  8
0
 62
     7
 10
138.56880599999991
 20
127.2616409999999
 30
0.0
 40
2.0450639999999991
 50
270.00999000000002
 51
296.203844
  0
ARC
  5
294
  8
0
 62
     7
 10
138.60878400000001
 20
127.07771099999999
 30
0.0
 40
1.8629359999999999
 50
297.59866799999998
 51
334.53946200000001
  0
ARC
  5
295
  8
0
 62
     7
 10
138.08970400000001
 20
127.375636
 30
0.0
 40
2.4601060000000001
 50
333.47168999999991
 51
354.78836000000001
  0
ARC
  5
296
  8
0
 62
     7
 10
137.55900899999989
 20
127.46453
 30
0.0
 40
2.9969529999999991
 50
354.01747899999998
 51
0.045822
  0
LINE
  5
297
  8
0
 62
     7
 10
59.473100000000002
 20
132.71700000000001
 30
0.0
 11
59.473100000000002
 21
127.467
 31
0.0
  0
ARC
  5
298
  8
0
 62
     7
 10
61.723065000000013
 20
127.466582
 30
0.0
 40
2.2500059999999991
 50
179.991197
 51
269.99124699999999
  0
LINE
  5
299
  8
0
 62
     7
 10
44.776699999999991
 20
219.12
 30
0.0
 11
45.442999999999998
 21
219.92799999999991
 31
0.0
  0
LINE
  5
29A
  8
0
 62
     7
 10
45.442999999999998
 20
214.2949999999999
 30
0.0
 11
44.776699999999991
 21
215.10299999999989
 31
0.0
  0
LINE
  5
29B
  8
0
 62
     7
 10
45.442999999999998
 20
217.11199999999999
 30
0.0
 11
45.442999999999998
 21
219.92799999999991
 31
0.0
  0
ARC
  5
29C
  8
0
 62
     7
 10
8.3852550000000008
 20
217.11415699999989
 30
0.0
 40
40.578130000000002
 50
359.99643800000001
 51
1.737541999999999
  0
ARC
  5
29D
  8
0
 62
     7
 10
31.499237999999998
 20
217.78766499999989
 30
0.0
 40
17.454373999999991
 50
1.828290999999999
 51
5.0443989999999994
  0
ARC
  5
29E
  8
0
 62
     7
 10
63.412587000000002
 20
220.46302600000001
 30
0.0
 40
14.571289999999999
 50
183.65185700000001
 51
184.4897149999999
  0
ARC
  5
29F
  8
0
 62
     7
 10
8.3852550000000008
 20
217.10911200000001
 30
0.0
 40
40.578130000000002
 50
358.26245799999998
 51
0.003562
  0
ARC
  5
2A0
  8
0
 62
     7
 10
31.499237999999998
 20
216.43560400000001
 30
0.0
 40
17.454373999999991
 50
354.95560099999989
 51
358.17170899999991
  0
ARC
  5
2A1
  8
0
 62
     7
 10
63.412587000000002
 20
213.760243
 30
0.0
 40
14.571289999999999
 50
175.51028500000001
 51
176.34814299999999
  0
ARC
  5
2A2
  8
0
 62
     7
 10
48.592865000000003
 20
224.68131099999999
 30
0.0
 40
5.4401699999999993
 50
25.502272999999999
 51
32.969454999999989
  0
ARC
  5
2A3
  8
0
 62
     7
 10
50.331828999999992
 20
225.5410939999999
 30
0.0
 40
3.5005660000000001
 50
7.6134690000000012
 51
25.055325
  0
ARC
  5
2A4
  8
0
 62
     7
 10
50.658898999999998
 20
225.63508300000001
 30
0.0
 40
3.1643180000000002
 50
351.179506
 51
6.711224999999998
  0
ARC
  5
2A5
  8
0
 62
     7
 10
49.542825000000001
 20
225.77857299999999
 30
0.0
 40
4.2892960000000002
 50
342.03639199999992
 51
351.57149199999992
  0
ARC
  5
2A6
  8
0
 62
     7
 10
47.979774999999997
 20
226.23639199999991
 30
0.0
 40
5.9175329999999997
 50
339.97933499999988
 51
342.48724199999992
  0
ARC
  5
2A7
  8
0
 62
     7
 10
63.353636999999999
 20
224.68131099999999
 30
0.0
 40
5.4401699999999993
 50
147.03052600000001
 51
154.49770699999999
  0
ARC
  5
2A8
  8
0
 62
     7
 10
61.614672999999989
 20
225.5410939999999
 30
0.0
 40
3.5005660000000001
 50
154.94465500000001
 51
172.38651100000001
  0
ARC
  5
2A9
  8
0
 62
     7
 10
61.287593999999991
 20
225.63508300000001
 30
0.0
 40
3.1643099999999991
 50
173.288736
 51
188.82053300000001
  0
ARC
  5
2AA
  8
0
 62
     7
 10
62.403675999999997
 20
225.77857299999999
 30
0.0
 40
4.2892960000000002
 50
188.428528
 51
197.963628
  0
ARC
  5
2AB
  8
0
 62
     7
 10
63.966726999999992
 20
226.23639199999991
 30
0.0
 40
5.9175329999999997
 50
197.512778
 51
200.02068399999999
  0
ARC
  5
2AC
  8
0
 62
     7
 10
63.53405999999999
 20
224.50754800000001
 30
0.0
 40
5.4580479999999998
 50
295.51489600000002
 51
302.95761099999987
  0
ARC
  5
2AD
  8
0
 62
     7
 10
64.403133999999994
 20
222.7512879999999
 30
0.0
 40
3.4988309999999991
 50
277.60885399999989
 51
295.05940299999992
  0
ARC
  5
2AE
  8
0
 62
     7
 10
64.496585999999994
 20
222.42442199999999
 30
0.0
 40
3.1628539999999998
 50
261.17589800000002
 51
276.71485300000001
  0
ARC
  5
2AF
  8
0
 62
     7
 10
64.639966999999999
 20
223.541572
 30
0.0
 40
4.2888779999999986
 50
252.03642899999991
 51
261.57251400000001
  0
ARC
  5
2B0
  8
0
 62
     7
 10
65.091309999999993
 20
225.0850859999999
 30
0.0
 40
5.8965360000000002
 50
249.97338500000001
 51
252.49019000000001
  0
ARC
  5
2B1
  8
0
 62
     7
 10
63.53405999999999
 20
209.71554900000001
 30
0.0
 40
5.4580479999999998
 50
57.042389
 51
64.485104000000007
  0
ARC
  5
2B2
  8
0
 62
     7
 10
64.403133999999994
 20
211.47180899999989
 30
0.0
 40
3.4988309999999991
 50
64.940596999999997
 51
82.391145999999978
  0
ARC
  5
2B3
  8
0
 62
     7
 10
64.496585999999994
 20
211.798675
 30
0.0
 40
3.1628539999999998
 50
83.285146999999995
 51
98.824101999999996
  0
ARC
  5
2B4
  8
0
 62
     7
 10
64.639966999999999
 20
210.68152499999991
 30
0.0
 40
4.2888779999999986
 50
98.427486000000016
 51
107.963571
  0
ARC
  5
2B5
  8
0
 62
     7
 10
65.091309999999993
 20
209.13801000000001
 30
0.0
 40
5.8965360000000002
 50
107.5098099999999
 51
110.02661500000001
  0
ARC
  5
2B6
  8
0
 62
     7
 10
63.353464999999993
 20
209.54195799999999
 30
0.0
 40
5.4401699999999993
 50
205.5022929999999
 51
212.96947399999999
  0
ARC
  5
2B7
  8
0
 62
     7
 10
61.614500999999997
 20
208.68217499999989
 30
0.0
 40
3.5005660000000001
 50
187.61348899999999
 51
205.05534499999999
  0
ARC
  5
2B8
  8
0
 62
     7
 10
61.287421999999999
 20
208.588187
 30
0.0
 40
3.1643099999999991
 50
171.1794669999999
 51
186.71126399999989
  0
ARC
  5
2B9
  8
0
 62
     7
 10
62.403503999999998
 20
208.44469599999999
 30
0.0
 40
4.2892960000000002
 50
162.036372
 51
171.571472
  0
ARC
  5
2BA
  8
0
 62
     7
 10
63.966555000000007
 20
207.98687699999999
 30
0.0
 40
5.9175329999999997
 50
159.9793159999999
 51
162.487222
  0
ARC
  5
2BB
  8
0
 62
     7
 10
48.592691999999992
 20
209.54195799999999
 30
0.0
 40
5.4401699999999993
 50
327.03054500000002
 51
334.497727
  0
ARC
  5
2BC
  8
0
 62
     7
 10
50.331656000000002
 20
208.68217499999989
 30
0.0
 40
3.5005660000000001
 50
334.94467500000002
 51
352.38653099999999
  0
ARC
  5
2BD
  8
0
 62
     7
 10
50.658726999999992
 20
208.58818600000001
 30
0.0
 40
3.1643180000000002
 50
353.28877499999987
 51
8.8204940000000001
  0
ARC
  5
2BE
  8
0
 62
     7
 10
49.542653000000001
 20
208.44469599999999
 30
0.0
 40
4.2892960000000002
 50
8.4285080000000008
 51
17.96360799999999
  0
ARC
  5
2BF
  8
0
 62
     7
 10
47.979602
 20
207.98687699999999
 30
0.0
 40
5.9175329999999997
 50
17.512757999999991
 51
20.020665000000001
  0
ARC
  5
2C0
  8
0
 62
     7
 10
48.412269999999992
 20
209.715721
 30
0.0
 40
5.4580479999999998
 50
115.514876
 51
122.95759099999999
  0
ARC
  5
2C1
  8
0
 62
     7
 10
47.543196000000002
 20
211.47198099999989
 30
0.0
 40
3.4988309999999991
 50
97.608834000000002
 51
115.059383
  0
ARC
  5
2C2
  8
0
 62
     7
 10
47.449744000000003
 20
211.79884699999999
 30
0.0
 40
3.1628539999999998
 50
81.175879000000009
 51
96.714832999999999
  0
ARC
  5
2C3
  8
0
 62
     7
 10
47.30636299999999
 20
210.68169700000001
 30
0.0
 40
4.2888779999999986
 50
72.036408999999992
 51
81.572493999999992
  0
ARC
  5
2C4
  8
0
 62
     7
 10
46.855020000000003
 20
209.13818299999991
 30
0.0
 40
5.8965360000000002
 50
69.973365000000001
 51
72.490170999999989
  0
ARC
  5
2C5
  8
0
 62
     7
 10
48.412269999999992
 20
224.50772000000001
 30
0.0
 40
5.4580479999999998
 50
237.04240899999991
 51
244.48512400000001
  0
ARC
  5
2C6
  8
0
 62
     7
 10
47.543196000000002
 20
222.75146000000001
 30
0.0
 40
3.4988309999999991
 50
244.940617
 51
262.391166
  0
ARC
  5
2C7
  8
0
 62
     7
 10
47.449744000000003
 20
222.42459500000001
 30
0.0
 40
3.1628539999999998
 50
263.28516699999989
 51
278.82412099999988
  0
ARC
  5
2C8
  8
0
 62
     7
 10
47.30636299999999
 20
223.54174399999991
 30
0.0
 40
4.2888779999999986
 50
278.42750599999999
 51
287.96359100000001
  0
ARC
  5
2C9
  8
0
 62
     7
 10
46.855020000000003
 20
225.08525900000001
 30
0.0
 40
5.8965360000000002
 50
287.50982900000002
 51
290.026635
  0
LINE
  5
2CA
  8
0
 62
     7
 10
44.776699999999991
 20
215.10299999999989
 30
0.0
 11
44.776699999999991
 21
219.12
 31
0.0
  0
LINE
  5
2CB
  8
0
 62
     7
 10
45.442999999999998
 20
214.2949999999999
 30
0.0
 11
45.442999999999998
 21
217.11199999999999
 31
0.0
  0
LINE
  5
2CC
  8
0
 62
     7
 10
58.722700000000003
 20
133.71600000000001
 30
0.0
 11
55.972799999999999
 21
133.71600000000001
 31
0.0
  0
LINE
  5
2CD
  8
0
 62
     7
 10
59.193300000000001
 20
134.18600000000001
 30
0.0
 11
58.722700000000003
 21
133.71600000000001
 31
0.0
  0
LINE
  5
2CE
  8
0
 62
     7
 10
59.473100000000002
 20
132.71600000000001
 30
0.0
 11
55.972799999999999
 21
132.71600000000001
 31
0.0
  0
LINE
  5
2CF
  8
0
 62
     7
 10
59.193300000000001
 20
134.18600000000001
 30
0.0
 11
55.972799999999999
 21
134.18600000000001
 31
0.0
  0
LINE
  5
2D0
  8
0
 62
     7
 10
59.193300000000001
 20
136.82199999999989
 30
0.0
 11
59.193300000000001
 21
134.18600000000001
 31
0.0
  0
LINE
  5
2D1
  8
0
 62
     7
 10
58.722700000000003
 20
133.71600000000001
 30
0.0
 11
58.722700000000003
 21
132.71700000000001
 31
0.0
  0
LINE
  5
2D2
  8
0
 62
     7
 10
62.473100000000002
 20
115.215
 30
0.0
 11
63.151800000000001
 21
115.215
 31
0.0
  0
LINE
  5
2D3
  8
0
 62
     7
 10
48.79529999999999
 20
115.21599999999999
 30
0.0
 11
49.473300000000002
 21
115.21599999999999
 31
0.0
  0
ARC
  5
2D4
  8
0
 62
     7
 10
125.3270719999999
 20
101.6274829999999
 30
0.0
 40
16.720026000000001
 50
300.47007000000002
 51
306.20118500000001
  0
ARC
  5
2D5
  8
0
 62
     7
 10
129.30816299999989
 20
96.066067000000004
 30
0.0
 40
9.8811949999999982
 50
306.61961500000001
 51
314.40897999999987
  0
ARC
  5
2D6
  8
0
 62
     7
 10
131.93109200000001
 20
93.309368000000006
 30
0.0
 40
6.076702
 50
314.93083999999988
 51
325.15491999999989
  0
ARC
  5
2D7
  8
0
 62
     7
 10
133.56642600000001
 20
92.118741999999997
 30
0.0
 40
4.0545339999999994
 50
325.75950799999993
 51
341.36596700000001
  0
ARC
  5
2D8
  8
0
 62
     7
 10
134.13399200000001
 20
91.876896000000002
 30
0.0
 40
3.439778
 50
342.16248400000001
 51
2.6038189999999992
  0
ARC
  5
2D9
  8
0
 62
     7
 10
132.800186
 20
91.855660999999998
 30
0.0
 40
4.773333
 50
2.1311189999999991
 51
11.28003399999999
  0
ARC
  5
2DA
  8
0
 62
     7
 10
129.45206099999999
 20
91.268306999999993
 30
0.0
 40
8.1720520000000008
 50
10.726841
 51
13.22305899999999
  0
ARC
  5
2DB
  8
0
 62
     7
 10
123.6413129999999
 20
89.900330000000025
 30
0.0
 40
14.141655
 50
13.233354
 51
14.84963099999999
  0
ARC
  5
2DC
  8
0
 62
     7
 10
55.001567999999999
 20
110.22618899999991
 30
0.0
 40
9.555987
 50
23.173535999999999
 51
31.480706999999999
  0
ARC
  5
2DD
  8
0
 62
     7
 10
51.062241999999991
 20
108.4508949999999
 30
0.0
 40
13.876326999999989
 50
15.93793299999999
 51
23.511561
  0
ARC
  5
2DE
  8
0
 62
     7
 10
45.41802899999999
 20
106.7322649999999
 30
0.0
 40
19.775770000000001
 50
8.9229939999999992
 51
16.235448000000002
  0
ARC
  5
2DF
  8
0
 62
     7
 10
38.549953000000002
 20
105.514357
 30
0.0
 40
26.749987999999998
 50
1.78959
 51
9.2183270000000004
  0
ARC
  5
2E0
  8
0
 62
     7
 10
34.210135999999999
 20
105.25326099999999
 30
0.0
 40
31.096094999999998
 50
348.67883799999998
 51
2.020718
  0
ARC
  5
2E1
  8
0
 62
     7
 10
40.488712999999997
 20
104.130337
 30
0.0
 40
24.719595999999989
 50
342.00510000000003
 51
348.37412799999993
  0
ARC
  5
2E2
  8
0
 62
     7
 10
46.400669999999998
 20
102.288321
 30
0.0
 40
18.527919000000001
 50
333.27574900000002
 51
341.77477099999987
  0
ARC
  5
2E3
  8
0
 62
     7
 10
50.419654000000001
 20
100.4046219999999
 30
0.0
 40
14.091697
 50
330.77553399999988
 51
332.76814599999989
  0
ARC
  5
2E4
  8
0
 62
     7
 10
75.607140999999999
 20
105.88298499999991
 30
0.0
 40
20.892308
 50
239.252591
 51
243.31103899999999
  0
ARC
  5
2E5
  8
0
 62
     7
 10
71.544847000000004
 20
98.950089000000006
 30
0.0
 40
12.857218
 50
233.57502199999999
 51
239.01543100000001
  0
ARC
  5
2E6
  8
0
 62
     7
 10
68.636352000000002
 20
94.939871999999994
 30
0.0
 40
7.9035859999999989
 50
226.033368
 51
233.278738
  0
ARC
  5
2E7
  8
0
 62
     7
 10
66.595405
 20
92.773866999999996
 30
0.0
 40
4.9278329999999997
 50
216.100166
 51
225.62913299999991
  0
ARC
  5
2E8
  8
0
 62
     7
 10
65.205472999999998
 20
91.727463
 30
0.0
 40
3.1883550000000001
 50
199.590305
 51
215.62329299999999
  0
ARC
  5
2E9
  8
0
 62
     7
 10
64.570887999999997
 20
91.453888000000006
 30
0.0
 40
2.4991810000000001
 50
168.42453599999999
 51
198.559337
  0
ARC
  5
2EA
  8
0
 62
     7
 10
65.602455000000006
 20
91.298986999999997
 30
0.0
 40
3.54128
 50
162.64469700000001
 51
169.318344
  0
ARC
  5
2EB
  8
0
 62
     7
 10
67.191248000000002
 20
90.812552999999994
 30
0.0
 40
5.202850999999999
 50
156.59158199999999
 51
162.75088
  0
ARC
  5
2EC
  8
0
 62
     7
 10
72.788264999999996
 20
88.431593000000007
 30
0.0
 40
11.285193
 50
153.1728719999999
 51
156.7875479999999
  0
ARC
  5
2ED
  8
0
 62
     7
 10
142.86950499999989
 20
110.20183299999999
 30
0.0
 40
9.6004939999999994
 50
24.938970999999992
 51
31.495735
  0
ARC
  5
2EE
  8
0
 62
     7
 10
139.9471179999999
 20
108.78567099999999
 30
0.0
 40
12.847623999999991
 50
19.201529000000001
 51
25.170348000000001
  0
ARC
  5
2EF
  8
0
 62
     7
 10
135.75212500000001
 20
107.257131
 30
0.0
 40
17.312079999999991
 50
12.995013
 51
19.412698999999989
  0
ARC
  5
2F0
  8
0
 62
     7
 10
129.57232899999991
 20
105.721076
 30
0.0
 40
23.679258999999991
 50
5.5692830000000004
 51
13.254129999999989
  0
ARC
  5
2F1
  8
0
 62
     7
 10
122.903003
 20
104.90546999999989
 30
0.0
 40
30.396702000000001
 50
348.03111399999989
 51
5.8793620000000004
  0
ARC
  5
2F2
  8
0
 62
     7
 10
130.247895
 20
103.51943299999991
 30
0.0
 40
22.924658999999991
 50
340.82869299999999
 51
347.61301900000001
  0
ARC
  5
2F3
  8
0
 62
     7
 10
136.0562909999999
 20
101.583806
 30
0.0
 40
16.802929999999989
 50
331.33869299999998
 51
340.55876099999989
  0
ARC
  5
2F4
  8
0
 62
     7
 10
163.685565
 20
105.87508
 30
0.0
 40
20.883638000000001
 50
239.25015599999989
 51
243.310068
  0
ARC
  5
2F5
  8
0
 62
     7
 10
159.627835
 20
98.950276999999986
 30
0.0
 40
12.857839999999999
 50
233.57267799999991
 51
239.01244500000001
  0
ARC
  5
2F6
  8
0
 62
     7
 10
156.71628000000001
 20
94.936424999999986
 30
0.0
 40
7.8994669999999987
 50
226.02833199999989
 51
233.27697800000001
  0
ARC
  5
2F7
  8
0
 62
     7
 10
154.676198
 20
92.772019999999998
 30
0.0
 40
4.9254680000000004
 50
216.09364199999999
 51
225.6265379999999
  0
ARC
  5
2F8
  8
0
 62
     7
 10
153.28635399999999
 20
91.726292000000015
 30
0.0
 40
3.186459999999999
 50
199.580096
 51
215.62182299999989
  0
ARC
  5
2F9
  8
0
 62
     7
 10
152.65390999999991
 20
91.453656999999993
 30
0.0
 40
2.4996239999999998
 50
168.42121399999991
 51
198.55033899999989
  0
ARC
  5
2FA
  8
0
 62
     7
 10
153.6846689999999
 20
91.298859999999991
 30
0.0
 40
3.5409089999999992
 50
162.6406649999999
 51
169.3151179999999
  0
ARC
  5
2FB
  8
0
 62
     7
 10
155.27962600000001
 20
90.810083999999989
 30
0.0
 40
5.2090610000000002
 50
156.59156299999989
 51
162.74365599999999
  0
ARC
  5
2FC
  8
0
 62
     7
 10
160.87640500000001
 20
88.428876000000002
 30
0.0
 40
11.291280999999991
 50
153.1730499999999
 51
156.78579999999999
  0
ARC
  5
2FD
  8
0
 62
     7
 10
56.943241
 20
110.225936
 30
0.0
 40
9.5548219999999997
 50
148.5132209999999
 51
156.821808
  0
ARC
  5
2FE
  8
0
 62
     7
 10
60.878160000000001
 20
108.4518029999999
 30
0.0
 40
13.870663
 50
156.48233099999999
 51
164.0592649999999
  0
ARC
  5
2FF
  8
0
 62
     7
 10
66.522992000000002
 20
106.7323589999999
 30
0.0
 40
19.770931999999998
 50
163.76073099999991
 51
171.07505900000001
  0
ARC
  5
300
  8
0
 62
     7
 10
73.392724999999984
 20
105.5140419999999
 30
0.0
 40
26.746853999999988
 50
170.77987999999991
 51
178.20950500000001
  0
ARC
  5
301
  8
0
 62
     7
 10
77.727689999999996
 20
105.2530439999999
 30
0.0
 40
31.088111000000001
 50
177.978342
 51
191.3237189999999
  0
ARC
  5
302
  8
0
 62
     7
 10
71.447560999999993
 20
104.1290239999999
 30
0.0
 40
24.709876999999999
 50
191.627419
 51
197.9990379999999
  0
ARC
  5
303
  8
0
 62
     7
 10
65.541353000000001
 20
102.288087
 30
0.0
 40
18.524007000000001
 50
198.22847400000001
 51
206.729556
  0
ARC
  5
304
  8
0
 62
     7
 10
61.505993999999987
 20
100.394767
 30
0.0
 40
14.068837
 50
207.23464899999991
 51
209.23058299999991
  0
ARC
  5
305
  8
0
 62
     7
 10
36.340823999999998
 20
105.879757
 30
0.0
 40
20.888688999999999
 50
296.68894999999992
 51
300.74806099999989
  0
ARC
  5
306
  8
0
 62
     7
 10
40.402710999999996
 20
98.947738000000015
 30
0.0
 40
12.854561
 50
300.98522800000001
 51
306.426603
  0
ARC
  5
307
  8
0
 62
     7
 10
43.311571999999991
 20
94.937468000000024
 30
0.0
 40
7.900669999999999
 50
306.72209099999998
 51
313.96983999999992
  0
ARC
  5
308
  8
0
 62
     7
 10
45.349783000000002
 20
92.774340000000009
 30
0.0
 40
4.9288899999999991
 50
314.37557700000002
 51
323.90200299999992
  0
ARC
  5
309
  8
0
 62
     7
 10
46.740819999999999
 20
91.727081000000013
 30
0.0
 40
3.188018
 50
324.38082300000002
 51
340.41483899999997
  0
ARC
  5
30A
  8
0
 62
     7
 10
47.374971000000002
 20
91.453819999999993
 30
0.0
 40
2.4993599999999989
 50
341.443712
 51
11.576206000000001
  0
ARC
  5
30B
  8
0
 62
     7
 10
46.342218000000003
 20
91.298920999999993
 30
0.0
 40
3.5426239999999991
 50
10.678611
 51
17.349596999999999
  0
ARC
  5
30C
  8
0
 62
     7
 10
44.751888999999998
 20
90.812205999999989
 30
0.0
 40
5.2057459999999987
 50
17.243207999999999
 51
23.398769000000001
  0
ARC
  5
30D
  8
0
 62
     7
 10
39.144351
 20
88.428224999999998
 30
0.0
 40
11.29895099999999
 50
23.201091999999999
 51
26.810962
  0
LINE
  5
30E
  8
0
 62
     7
 10
49.473300000000002
 20
111.71599999999999
 30
0.0
 11
49.473300000000002
 21
119.217
 31
0.0
  0
ARC
  5
30F
  8
0
 62
     7
 10
50.530799000000002
 20
111.718176
 30
0.0
 40
1.057539
 50
180.10733499999989
 51
209.80567699999989
  0
ARC
  5
310
  8
0
 62
     7
 10
50.940209000000003
 20
111.922449
 30
0.0
 40
1.514554
 50
208.8125719999999
 51
225.12136000000001
  0
ARC
  5
311
  8
0
 62
     7
 10
51.542831
 20
112.48318399999999
 30
0.0
 40
2.3373179999999998
 50
224.352577
 51
238.019893
  0
ARC
  5
312
  8
0
 62
     7
 10
52.295113000000001
 20
113.598685
 30
0.0
 40
3.6822519999999992
 50
237.28369799999999
 51
247.83377799999991
  0
ARC
  5
313
  8
0
 62
     7
 10
52.995052999999999
 20
115.2039229999999
 30
0.0
 40
5.433101999999999
 50
247.38493500000001
 51
258.31735900000001
  0
ARC
  5
314
  8
0
 62
     7
 10
53.462367000000008
 20
117.16094099999999
 30
0.0
 40
7.4444589999999993
 50
257.84513500000003
 51
270.3844509999999
  0
ARC
  5
315
  8
0
 62
     7
 10
53.511589999999998
 20
105.9403309999999
 30
0.0
 40
7.7760999999999987
 50
89.994628000000006
 51
104.65523
  0
ARC
  5
316
  8
0
 62
     7
 10
52.937796999999989
 20
108.39904299999991
 30
0.0
 40
5.252635999999999
 50
105.385381
 51
116.158399
  0
ARC
  5
317
  8
0
 62
     7
 10
52.128098000000001
 20
110.127747
 30
0.0
 40
3.3442150000000002
 50
116.76385999999999
 51
127.68937099999999
  0
ARC
  5
318
  8
0
 62
     7
 10
51.390433999999999
 20
111.116203
 30
0.0
 40
2.1111200000000001
 50
128.24796599999991
 51
141.61621199999999
  0
ARC
  5
319
  8
0
 62
     7
 10
50.766114999999999
 20
111.628601
 30
0.0
 40
1.3036499999999991
 50
142.2313739999999
 51
169.3216679999999
  0
ARC
  5
31A
  8
0
 62
     7
 10
50.486767
 20
111.716097
 30
0.0
 40
1.013504999999999
 50
171.25654800000001
 51
179.99441100000001
  0
LINE
  5
31B
  8
0
 62
     7
 10
48.972999999999999
 20
119.649
 30
0.0
 11
48.972999999999999
 21
123.73
 31
0.0
  0
LINE
  5
31C
  8
0
 62
     7
 10
55.972799999999999
 20
123.967
 30
0.0
 11
62.427599999999998
 21
123.967
 31
0.0
  0
LINE
  5
31D
  8
0
 62
     7
 10
53.51230000000001
 20
109.717
 30
0.0
 11
58.433500000000002
 21
109.717
 31
0.0
  0
LINE
  5
31E
  8
0
 62
     7
 10
53.512799999999999
 20
110.2789999999999
 30
0.0
 11
58.43399999999999
 21
110.2789999999999
 31
0.0
  0
LINE
  5
31F
  8
0
 62
     7
 10
53.512799999999999
 20
113.1539999999999
 30
0.0
 11
58.43399999999999
 21
113.1539999999999
 31
0.0
  0
LINE
  5
320
  8
0
 62
     7
 10
53.51230000000001
 20
113.71599999999999
 30
0.0
 11
58.433500000000002
 21
113.71599999999999
 31
0.0
  0
LINE
  5
321
  8
0
 62
     7
 10
53.473199999999991
 20
123.217
 30
0.0
 11
58.473100000000002
 21
123.217
 31
0.0
  0
LINE
  5
322
  8
0
 62
     7
 10
49.518700000000003
 20
123.967
 30
0.0
 11
55.972799999999999
 21
123.967
 31
0.0
  0
ARC
  5
323
  8
0
 62
     7
 10
53.185445999999999
 20
119.64659399999989
 30
0.0
 40
4.2124160000000002
 50
179.9636229999999
 51
182.3393439999999
  0
ARC
  5
324
  8
0
 62
     7
 10
49.700868
 20
119.513537
 30
0.0
 40
0.72537
 50
183.07284300000001
 51
198.2168519999999
  0
ARC
  5
325
  8
0
 62
     7
 10
49.506253999999991
 20
119.466746
 30
0.0
 40
0.5261390000000001
 50
200.00235699999999
 51
226.5770379999999
  0
ARC
  5
326
  8
0
 62
     7
 10
49.265175999999997
 20
117.231235
 30
0.0
 40
0.7686980000000001
 50
110.297025
 51
116.0316739999999
  0
ARC
  5
327
  8
0
 62
     7
 10
49.040131000000002
 20
117.6870659999999
 30
0.0
 40
0.260355
 50
115.5550649999999
 51
141.57882000000001
  0
ARC
  5
328
  8
0
 62
     7
 10
48.982016000000002
 20
117.74799299999999
 30
0.0
 40
0.177343
 50
145.33563000000001
 51
161.161359
  0
ARC
  5
329
  8
0
 62
     7
 10
49.08934
 20
117.713134
 30
0.0
 40
0.290178
 50
161.489801
 51
173.526219
  0
ARC
  5
32A
  8
0
 62
     7
 10
49.973702000000003
 20
117.6210419999999
 30
0.0
 40
1.1793129999999989
 50
173.924915
 51
182.20585700000001
  0
ARC
  5
32B
  8
0
 62
     7
 10
48.652217
 20
118.5262899999999
 30
0.0
 40
0.744421
 50
6.0784050000000001
 51
48.591098999999993
  0
ARC
  5
32C
  8
0
 62
     7
 10
48.706443999999991
 20
118.5639279999999
 30
0.0
 40
0.687244
 50
306.84087599999998
 51
3.43601
  0
ARC
  5
32D
  8
0
 62
     7
 10
48.817554000000001
 20
118.4514999999999
 30
0.0
 40
0.531083
 50
289.92311399999988
 51
304.51957700000003
  0
ARC
  5
32E
  8
0
 62
     7
 10
49.21005499999999
 20
123.7296639999999
 30
0.0
 40
0.237024
 50
90.0
 51
179.99996999999991
  0
LINE
  5
32F
  8
0
 62
     7
 10
50.085099999999997
 20
125.217
 30
0.0
 11
50.222900000000003
 21
125.217
 31
0.0
  0
LINE
  5
330
  8
0
 62
     7
 10
48.79529999999999
 20
117.57599999999999
 30
0.0
 11
48.79529999999999
 21
115.21599999999999
 31
0.0
  0
LINE
  5
331
  8
0
 62
     7
 10
49.21009999999999
 20
124.342
 30
0.0
 11
49.21009999999999
 21
123.967
 31
0.0
  0
ARC
  5
332
  8
0
 62
     7
 10
50.118912000000002
 20
124.3077199999999
 30
0.0
 40
0.9094849999999999
 50
92.129637000000017
 51
177.87033400000001
  0
LINE
  5
333
  8
0
 62
     7
 10
52.473300000000002
 20
132.71700000000001
 30
0.0
 11
52.473300000000002
 21
127.467
 31
0.0
  0
LINE
  5
334
  8
0
 62
     7
 10
55.972799999999999
 20
125.217
 30
0.0
 11
60.529299999999992
 21
125.217
 31
0.0
  0
LINE
  5
335
  8
0
 62
     7
 10
51.417000000000002
 20
125.217
 30
0.0
 11
55.972799999999999
 21
125.217
 31
0.0
  0
ARC
  5
336
  8
0
 62
     7
 10
50.22291899999999
 20
127.4669279999999
 30
0.0
 40
2.2503509999999989
 50
270.00002000000001
 51
359.99998999999991
  0
LINE
  5
337
  8
0
 62
     7
 10
53.222900000000003
 20
133.71600000000001
 30
0.0
 11
55.972799999999999
 21
133.71600000000001
 31
0.0
  0
LINE
  5
338
  8
0
 62
     7
 10
52.753
 20
134.18600000000001
 30
0.0
 11
53.222900000000003
 21
133.71600000000001
 31
0.0
  0
LINE
  5
339
  8
0
 62
     7
 10
52.473300000000002
 20
132.71600000000001
 30
0.0
 11
55.972799999999999
 21
132.71600000000001
 31
0.0
  0
LINE
  5
33A
  8
0
 62
     7
 10
52.753
 20
134.18600000000001
 30
0.0
 11
55.972799999999999
 21
134.18600000000001
 31
0.0
  0
LINE
  5
33B
  8
0
 62
     7
 10
52.753
 20
136.82199999999989
 30
0.0
 11
52.753
 21
134.18600000000001
 31
0.0
  0
LINE
  5
33C
  8
0
 62
     7
 10
53.222900000000003
 20
133.71600000000001
 30
0.0
 11
53.222900000000003
 21
132.71700000000001
 31
0.0
  0
ARC
  5
33D
  8
0
 62
     7
 10
55.972991
 20
217.11146099999999
 30
0.0
 40
6.7501920000000002
 50
0.001472
 51
90.001441999999983
  0
ARC
  5
33E
  8
0
 62
     7
 10
55.972993999999993
 20
217.11180599999989
 30
0.0
 40
6.749846999999999
 50
90.001462000000004
 51
180.00147200000001
  0
ARC
  5
33F
  8
0
 62
     7
 10
55.972991
 20
217.11146099999999
 30
0.0
 40
6.7498449999999988
 50
179.99850799999999
 51
269.99855799999989
  0
ARC
  5
340
  8
0
 62
     7
 10
55.972991
 20
217.11180799999991
 30
0.0
 40
6.7501920000000002
 50
269.99855799999989
 51
359.99852799999991
  0
ARC
  5
341
  8
0
 62
     7
 10
55.972904999999997
 20
217.1113749999999
 30
0.0
 40
5.2502729999999991
 50
0.00095
 51
90.000919999999994
  0
ARC
  5
342
  8
0
 62
     7
 10
55.973078999999998
 20
217.11171999999999
 30
0.0
 40
5.249928999999999
 50
90.002820000000014
 51
180.00282999999999
  0
ARC
  5
343
  8
0
 62
     7
 10
55.972904999999997
 20
217.1113749999999
 30
0.0
 40
5.2497550000000004
 50
179.99903
 51
269.99907999999999
  0
ARC
  5
344
  8
0
 62
     7
 10
55.973078000000001
 20
217.11172199999999
 30
0.0
 40
5.250100999999999
 50
269.99720000000002
 51
359.99716999999998
  0
LINE
  5
345
  8
0
  6
AIGENLINE001
 62
     7
 10
163.24899999999991
 20
142.46700000000001
 30
0.0
 11
125.06099999999989
 21
142.46700000000001
 31
0.0
  0
LINE
  5
346
  8
0
  6
AIGENLINE001
 62
     7
 10
36.107900000000001
 20
217.11199999999999
 30
0.0
 11
75.480099999999993
 21
217.11199999999999
 31
0.0
  0
LINE
  5
347
  8
0
  6
AIGENLINE001
 62
     7
 10
55.972799999999999
 20
236.374
 30
0.0
 11
55.972799999999999
 21
164.92500000000001
 31
0.0
  0
LINE
  5
348
  8
0
 62
     7
 10
50.72379999999999
 20
83.715999999999994
 30
0.0
 11
61.2239
 21
83.715999999999994
 31
0.0
  0
LINE
  5
349
  8
0
 62
     7
 10
61.473300000000002
 20
85.216399999999993
 30
0.0
 11
61.473300000000002
 21
84.215900000000005
 31
0.0
  0
LINE
  5
34A
  8
0
 62
     7
 10
61.473300000000002
 20
84.215900000000005
 30
0.0
 11
50.473700000000001
 21
84.215900000000005
 31
0.0
  0
LINE
  5
34B
  8
0
 62
     7
 10
50.473700000000001
 20
84.215900000000005
 30
0.0
 11
50.473700000000001
 21
85.216399999999993
 31
0.0
  0
LINE
  5
34C
  8
0
 62
     7
 10
101.26600000000001
 20
164.31
 30
0.0
 11
99.056100000000015
 21
164.90199999999999
 31
0.0
  0
LINE
  5
34D
  8
0
 62
     7
 10
99.056100000000015
 20
164.90199999999999
 30
0.0
 11
101.26600000000001
 21
165.495
 31
0.0
  0
LINE
  5
34E
  8
0
 62
     7
 10
101.26600000000001
 20
165.495
 30
0.0
 11
101.26600000000001
 21
164.31
 31
0.0
  0
LINE
  5
34F
  8
0
 62
     7
 10
141.84499999999991
 20
165.4799999999999
 30
0.0
 11
144.05499999999989
 21
164.88800000000001
 31
0.0
  0
LINE
  5
350
  8
0
 62
     7
 10
144.05499999999989
 20
164.88800000000001
 30
0.0
 11
141.84499999999991
 21
164.2949999999999
 31
0.0
  0
LINE
  5
351
  8
0
 62
     7
 10
141.84499999999991
 20
164.2949999999999
 30
0.0
 11
141.84499999999991
 21
165.4799999999999
 31
0.0
  0
LINE
  5
352
  8
0
 62
     7
 10
99.082999999999998
 20
164.89500000000001
 30
0.0
 11
144.029
 21
164.89500000000001
 31
0.0
  0
LINE
  5
353
  8
0
 62
     7
 10
99.056100000000015
 20
98.142799999999994
 30
0.0
 11
99.056100000000015
 21
166.09499999999991
 31
0.0
  0
LINE
  5
354
  8
0
 62
     7
 10
161.05600000000001
 20
144.99299999999991
 30
0.0
 11
161.05600000000001
 21
157.05799999999991
 31
0.0
  0
LINE
  5
355
  8
0
 62
     7
 10
127.05500000000001
 20
144.99299999999991
 30
0.0
 11
127.05500000000001
 21
157.05799999999991
 31
0.0
  0
LINE
  5
356
  8
0
 62
     7
 10
144.05600000000001
 20
153.7229999999999
 30
0.0
 11
144.05600000000001
 21
166.09499999999991
 31
0.0
  0
LINE
  5
357
  8
0
 62
     7
 10
45.722900000000003
 20
85.216399999999993
 30
0.0
 11
66.223399999999998
 21
85.216399999999993
 31
0.0
  0
LINE
  5
358
  8
0
 62
     7
 10
66.223399999999998
 20
85.216399999999993
 30
0.0
 11
66.223399999999998
 21
87.216599999999985
 31
0.0
  0
LINE
  5
359
  8
0
 62
     7
 10
66.223399999999998
 20
87.216599999999985
 30
0.0
 11
45.722900000000003
 21
87.216599999999985
 31
0.0
  0
LINE
  5
35A
  8
0
 62
     7
 10
45.722900000000003
 20
87.216599999999985
 30
0.0
 11
45.722900000000003
 21
85.216399999999993
 31
0.0
  0
LINE
  5
35B
  8
0
 62
     7
 10
45.722900000000003
 20
84.516299999999987
 30
0.0
 11
45.722900000000003
 21
76.009299999999996
 31
0.0
  0
LINE
  5
35C
  8
0
 62
     7
 10
66.223100000000002
 20
84.516299999999987
 30
0.0
 11
66.223100000000002
 21
75.963800000000006
 31
0.0
  0
LINE
  5
35D
  8
0
 62
     7
 10
47.933999999999997
 20
76.086100000000002
 30
0.0
 11
45.72359999999999
 21
76.678700000000006
 31
0.0
  0
LINE
  5
35E
  8
0
 62
     7
 10
45.72359999999999
 20
76.678700000000006
 30
0.0
 11
47.933999999999997
 21
77.270899999999997
 31
0.0
  0
LINE
  5
35F
  8
0
 62
     7
 10
47.933999999999997
 20
77.270899999999997
 30
0.0
 11
47.933999999999997
 21
76.086100000000002
 31
0.0
  0
LINE
  5
360
  8
0
 62
     7
 10
64.012699999999995
 20
77.256399999999999
 30
0.0
 11
66.223100000000002
 21
76.663799999999995
 31
0.0
  0
LINE
  5
361
  8
0
 62
     7
 10
66.223100000000002
 20
76.663799999999995
 30
0.0
 11
64.012699999999995
 21
76.071600000000004
 31
0.0
  0
LINE
  5
362
  8
0
 62
     7
 10
64.012699999999995
 20
76.071600000000004
 30
0.0
 11
64.012699999999995
 21
77.256399999999999
 31
0.0
  0
LINE
  5
363
  8
0
 62
     7
 10
45.750500000000002
 20
76.671099999999996
 30
0.0
 11
66.196200000000005
 21
76.671099999999996
 31
0.0
  0
LINE
  5
364
  8
0
 62
     7
 10
124.72
 20
83.006000000000014
 30
0.0
 11
125.312
 21
85.216399999999993
 31
0.0
  0
LINE
  5
365
  8
0
 62
     7
 10
125.312
 20
85.216399999999993
 30
0.0
 11
125.9039999999999
 21
83.006000000000014
 31
0.0
  0
LINE
  5
366
  8
0
 62
     7
 10
125.9039999999999
 20
83.006000000000014
 30
0.0
 11
124.72
 21
83.006000000000014
 31
0.0
  0
LINE
  5
367
  8
0
 62
     7
 10
125.89
 20
72.426999999999992
 30
0.0
 11
125.297
 21
70.216999999999999
 31
0.0
  0
LINE
  5
368
  8
0
 62
     7
 10
125.297
 20
70.216999999999999
 30
0.0
 11
124.7049999999999
 21
72.426999999999992
 31
0.0
  0
LINE
  5
369
  8
0
 62
     7
 10
124.7049999999999
 20
72.426999999999992
 30
0.0
 11
125.89
 21
72.426999999999992
 31
0.0
  0
LINE
  5
36A
  8
0
 62
     7
 10
125.30499999999989
 20
85.189499999999995
 30
0.0
 11
125.30499999999989
 21
70.243899999999996
 31
0.0
  0
LINE
  5
36B
  8
0
 62
     7
 10
124.276
 20
70.217299999999994
 30
0.0
 11
133.6049999999999
 21
70.216700000000003
 31
0.0
  0
LINE
  5
36C
  8
0
 62
     7
 10
169.03
 20
147.506
 30
0.0
 11
169.62200000000001
 21
149.71700000000001
 31
0.0
  0
LINE
  5
36D
  8
0
 62
     7
 10
169.62200000000001
 20
149.71700000000001
 30
0.0
 11
170.214
 21
147.506
 31
0.0
  0
LINE
  5
36E
  8
0
 62
     7
 10
170.214
 20
147.506
 30
0.0
 11
169.03
 21
147.506
 31
0.0
  0
LINE
  5
36F
  8
0
 62
     7
 10
169.03
 20
83.006000000000014
 30
0.0
 11
169.62200000000001
 21
85.216399999999993
 31
0.0
  0
LINE
  5
370
  8
0
 62
     7
 10
169.62200000000001
 20
85.216399999999993
 30
0.0
 11
170.214
 21
83.006000000000014
 31
0.0
  0
LINE
  5
371
  8
0
 62
     7
 10
170.214
 20
83.006000000000014
 30
0.0
 11
169.03
 21
83.006000000000014
 31
0.0
  0
LINE
  5
372
  8
0
 62
     7
 10
170.1999999999999
 20
87.426399999999987
 30
0.0
 11
169.60699999999991
 21
85.216399999999993
 31
0.0
  0
LINE
  5
373
  8
0
 62
     7
 10
169.60699999999991
 20
85.216399999999993
 30
0.0
 11
169.0149999999999
 21
87.426399999999987
 31
0.0
  0
LINE
  5
374
  8
0
 62
     7
 10
169.0149999999999
 20
87.426399999999987
 30
0.0
 11
170.1999999999999
 21
87.426399999999987
 31
0.0
  0
LINE
  5
375
  8
0
 62
     7
 10
170.1999999999999
 20
61.427500000000002
 30
0.0
 11
169.60699999999991
 21
59.217399999999991
 31
0.0
  0
LINE
  5
376
  8
0
 62
     7
 10
169.60699999999991
 20
59.217399999999991
 30
0.0
 11
169.0149999999999
 21
61.427500000000002
 31
0.0
  0
LINE
  5
377
  8
0
 62
     7
 10
169.0149999999999
 20
61.427500000000002
 30
0.0
 11
170.1999999999999
 21
61.427500000000002
 31
0.0
  0
LINE
  5
378
  8
0
 62
     7
 10
169.61500000000001
 20
149.71700000000001
 30
0.0
 11
169.61500000000001
 21
59.244300000000003
 31
0.0
  0
LINE
  5
379
  8
0
 62
     7
 10
150.77799999999991
 20
59.217799999999997
 30
0.0
 11
170.80999999999989
 21
59.217100000000002
 31
0.0
  0
LINE
  5
37A
  8
0
 62
     7
 10
148.5989999999999
 20
149.71700000000001
 30
0.0
 11
170.81200000000001
 21
149.71700000000001
 31
0.0
  0
LINE
  5
37B
  8
0
 62
     7
 10
155.00499999999991
 20
85.216399999999993
 30
0.0
 11
170.81200000000001
 21
85.216399999999993
 31
0.0
  0
LINE
  5
37C
  8
0
 62
     7
 10
109.72799999999999
 20
107.506
 30
0.0
 11
110.321
 21
109.717
 31
0.0
  0
LINE
  5
37D
  8
0
 62
     7
 10
110.321
 20
109.717
 30
0.0
 11
110.9129999999999
 21
107.506
 31
0.0
  0
LINE
  5
37E
  8
0
 62
     7
 10
110.9129999999999
 20
107.506
 30
0.0
 11
109.72799999999999
 21
107.506
 31
0.0
  0
LINE
  5
37F
  8
0
 62
     7
 10
110.898
 20
87.426699999999997
 30
0.0
 11
110.3059999999999
 21
85.216399999999993
 31
0.0
  0
LINE
  5
380
  8
0
 62
     7
 10
110.3059999999999
 20
85.216399999999993
 30
0.0
 11
109.714
 21
87.426699999999997
 31
0.0
  0
LINE
  5
381
  8
0
 62
     7
 10
109.714
 20
87.426699999999997
 30
0.0
 11
110.898
 21
87.426699999999997
 31
0.0
  0
LINE
  5
382
  8
0
 62
     7
 10
110.3129999999999
 20
109.6899999999999
 30
0.0
 11
110.3129999999999
 21
85.243200000000016
 31
0.0
  0
LINE
  5
383
  8
0
 62
     7
 10
86.505899999999997
 20
109.5059999999999
 30
0.0
 11
87.098399999999984
 21
111.71599999999999
 31
0.0
  0
LINE
  5
384
  8
0
 62
     7
 10
87.098399999999984
 20
111.71599999999999
 30
0.0
 11
87.690999999999988
 21
109.5059999999999
 31
0.0
  0
LINE
  5
385
  8
0
 62
     7
 10
87.690999999999988
 20
109.5059999999999
 30
0.0
 11
86.505899999999997
 21
109.5059999999999
 31
0.0
  0
LINE
  5
386
  8
0
 62
     7
 10
87.675799999999995
 20
87.426699999999997
 30
0.0
 11
87.084000000000003
 21
85.216399999999993
 31
0.0
  0
LINE
  5
387
  8
0
 62
     7
 10
87.084000000000003
 20
85.216399999999993
 30
0.0
 11
86.491399999999999
 21
87.426699999999997
 31
0.0
  0
LINE
  5
388
  8
0
 62
     7
 10
86.491399999999999
 20
87.426699999999997
 30
0.0
 11
87.675799999999995
 21
87.426699999999997
 31
0.0
  0
LINE
  5
389
  8
0
 62
     7
 10
87.090800000000002
 20
111.68899999999989
 30
0.0
 11
87.090800000000002
 21
85.243200000000016
 31
0.0
  0
LINE
  5
38A
  8
0
 62
     7
 10
111.021
 20
109.717
 30
0.0
 11
103.22
 21
109.717
 31
0.0
  0
LINE
  5
38B
  8
0
 62
     7
 10
98.006000000000014
 20
111.71599999999999
 30
0.0
 11
85.896100000000004
 21
111.71599999999999
 31
0.0
  0
LINE
  5
38C
  8
0
 62
     7
 10
133.10599999999991
 20
85.216399999999993
 30
0.0
 11
85.886399999999995
 21
85.216399999999993
 31
0.0
  0
LINE
  5
38D
  8
_________2
 62
     7
 10
130.45299999999989
 20
258.911
 30
0.0
 11
130.45299999999989
 21
223.91099999999989
 31
0.0
  0
LINE
  5
38E
  8
_________2
 62
     7
 10
155.76900000000001
 20
258.911
 30
0.0
 11
155.76900000000001
 21
223.91099999999989
 31
0.0
  0
TEXT
  5
38F
  8
_________2
 62
     7
 10
165.63829666666661
 20
226.06200000000001
 30
0.0
 40
3.3734599999999988
  1
ブロンズ
 41
0.5
 72
     1
 11
169.57400000000001
 21
226.06200000000001
 31
0.0
  0
TEXT
  5
390
  8
_________2
 62
     7
 10
136.56608
 20
226.06200000000001
 30
0.0
 40
3.3734599999999988
  1
HR1231-CN
 41
0.5
 72
     1
 11
143.31299999999999
 21
226.06200000000001
 31
0.0
  0
LINE
  5
391
  8
_________2
 62
     7
 10
130.45299999999989
 20
223.91099999999989
 30
0.0
 11
183.55099999999999
 21
223.91099999999989
 31
0.0
  0
TEXT
  5
392
  8
_________2
 62
     7
 10
166.65033466666659
 20
233.06099999999989
 30
0.0
 40
3.3734599999999988
  1
クロム
 41
0.5
 72
     1
 11
169.57400000000001
 21
233.06099999999989
 31
0.0
  0
TEXT
  5
393
  8
_________2
 62
     7
 10
136.56608
 20
233.06200000000001
 30
0.0
 40
3.3734599999999988
  1
HR1231-CH
 41
0.5
 72
     1
 11
143.31299999999999
 21
233.06200000000001
 31
0.0
  0
TEXT
  5
394
  8
_________2
 62
     7
 10
166.76278333333329
 20
240.06099999999989
 30
0.0
 40
3.3734599999999988
  1
ブラス
 41
0.5
 72
     1
 11
169.57400000000001
 21
240.06099999999989
 31
0.0
  0
TEXT
  5
395
  8
_________2
 62
     7
 10
160.69055533333329
 20
247.06099999999989
 30
0.0
 40
3.3734599999999988
  1
アンティークブラス
 41
0.5
 72
     1
 11
169.57400000000001
 21
247.06099999999989
 31
0.0
  0
TEXT
  5
396
  8
_________2
 62
     7
 10
167.77482133333331
 20
254.06200000000001
 30
0.0
 40
3.3734599999999988
  1
仕上
 41
0.5
 72
     1
 11
169.57400000000001
 21
254.06200000000001
 31
0.0
  0
TEXT
  5
397
  8
_________2
 62
     7
 10
136.56608
 20
240.0619999999999
 30
0.0
 40
3.3734599999999988
  1
HR1231-PB
 41
0.5
 72
     1
 11
143.31299999999999
 21
240.0619999999999
 31
0.0
  0
TEXT
  5
398
  8
_________2
 62
     7
 10
136.56608
 20
247.06200000000001
 30
0.0
 40
3.3734599999999988
  1
HR1231-AB
 41
0.5
 72
     1
 11
143.31299999999999
 21
247.06200000000001
 31
0.0
  0
TEXT
  5
399
  8
_________2
 62
     7
 10
141.51382133333331
 20
254.06200000000001
 30
0.0
 40
3.3734599999999988
  1
品番
 41
0.5
 72
     1
 11
143.31299999999999
 21
254.06200000000001
 31
0.0
  0
LINE
  5
39A
  8
_________2
 62
     7
 10
130.45299999999989
 20
230.91099999999989
 30
0.0
 11
183.55099999999999
 21
230.91099999999989
 31
0.0
  0
LINE
  5
39B
  8
_________2
 62
     7
 10
130.45299999999989
 20
237.91099999999989
 30
0.0
 11
183.55099999999999
 21
237.91099999999989
 31
0.0
  0
LINE
  5
39C
  8
_________2
 62
     7
 10
130.45299999999989
 20
244.91099999999989
 30
0.0
 11
183.55099999999999
 21
244.91099999999989
 31
0.0
  0
LINE
  5
39D
  8
_________2
 62
     7
 10
130.45299999999989
 20
251.91099999999989
 30
0.0
 11
183.55099999999999
 21
251.91099999999989
 31
0.0
  0
LINE
  5
39E
  8
_________2
 62
     7
 10
205.30099999999999
 20
127.411
 30
0.0
 11
183.55000000000001
 21
127.411
 31
0.0
  0
LINE
  5
39F
  8
_________2
 62
     7
 10
100.2999999999999
 20
-4.0910799999999998
 30
0.0
 11
100.2999999999999
 21
-21.071400000000001
 31
0.0
  0
LINE
  5
3A0
  8
_________2
 62
     7
 10
100.2999999999999
 20
275.93099999999993
 30
0.0
 11
100.2999999999999
 21
258.911
 31
0.0
  0
LINE
  5
3A1
  8
_________2
 62
     7
 10
17.049499999999998
 20
127.411
 30
0.0
 11
-4.70052
 21
127.411
 31
0.0
  0
LINE
  5
3A2
  8
_________2
 62
     7
 10
76.741
 20
29.8047
 30
0.0
 11
74.554699999999997
 21
29.8047
 31
0.0
  0
LINE
  5
3A3
  8
_________2
 62
     7
 10
77.233699999999999
 20
29.8047
 30
0.0
 11
76.981499999999997
 21
29.8047
 31
0.0
  0
LINE
  5
3A4
  8
_________2
 62
     7
 10
77.726299999999995
 20
29.8047
 30
0.0
 11
80.651200000000003
 21
29.8047
 31
0.0
  0
LINE
  5
3A5
  8
_________2
 62
     7
 10
77.233699999999999
 20
29.8047
 30
0.0
 11
77.485500000000002
 21
29.8047
 31
0.0
  0
LINE
  5
3A6
  8
_________2
 62
     7
 10
70.837100000000007
 20
29.8047
 30
0.0
 11
68.650499999999994
 21
29.8047
 31
0.0
  0
LINE
  5
3A7
  8
_________2
 62
     7
 10
71.329400000000007
 20
29.8047
 30
0.0
 11
71.077600000000004
 21
29.8047
 31
0.0
  0
LINE
  5
3A8
  8
_________2
 62
     7
 10
71.329400000000007
 20
30.2974
 30
0.0
 11
71.329400000000007
 21
32.484400000000001
 31
0.0
  0
LINE
  5
3A9
  8
_________2
 62
     7
 10
71.329400000000007
 20
29.8047
 30
0.0
 11
71.329400000000007
 21
30.056899999999992
 31
0.0
  0
LINE
  5
3AA
  8
_________2
 62
     7
 10
71.822100000000006
 20
29.8047
 30
0.0
 11
74.009
 21
29.8047
 31
0.0
  0
LINE
  5
3AB
  8
_________2
 62
     7
 10
71.329400000000007
 20
29.8047
 30
0.0
 11
71.581599999999995
 21
29.8047
 31
0.0
  0
LINE
  5
3AC
  8
_________2
 62
     7
 10
71.329400000000007
 20
29.312799999999999
 30
0.0
 11
71.329400000000007
 21
27.125800000000002
 31
0.0
  0
LINE
  5
3AD
  8
_________2
 62
     7
 10
71.329400000000007
 20
29.8047
 30
0.0
 11
71.329400000000007
 21
29.5532
 31
0.0
  0
LINE
  5
3AE
  8
_________2
 62
     7
 10
75.040499999999994
 20
28.5852
 30
0.0
 11
80.218500000000006
 21
27.720400000000001
 31
0.0
  0
LINE
  5
3AF
  8
_________2
 62
     7
 10
75.040499999999994
 20
31.0243
 30
0.0
 11
80.218500000000006
 21
31.889700000000001
 31
0.0
  0
LINE
  5
3B0
  8
_________2
 62
     7
 10
80.218500000000006
 20
27.720400000000001
 30
0.0
 11
80.218500000000006
 21
31.889700000000001
 31
0.0
  0
LINE
  5
3B1
  8
_________2
 62
     7
 10
75.040499999999994
 20
28.5852
 30
0.0
 11
75.040499999999994
 21
31.0243
 31
0.0
  0
ARC
  5
3B2
  8
_________2
 62
     7
 10
71.28285600000001
 20
29.757811
 30
0.0
 40
1.2673589999999999
 50
2.122214
 51
87.893958999999995
  0
ARC
  5
3B3
  8
_________2
 62
     7
 10
71.375959999999992
 20
29.758213000000001
 30
0.0
 40
1.2669559999999991
 50
92.104701000000006
 51
177.8952689999999
  0
ARC
  5
3B4
  8
_________2
 62
     7
 10
71.376357999999996
 20
29.851671
 30
0.0
 40
1.2673680000000001
 50
182.12203600000001
 51
267.877993
  0
ARC
  5
3B5
  8
_________2
 62
     7
 10
71.282531999999989
 20
29.851998999999989
 30
0.0
 40
1.267695999999999
 50
272.12015300000002
 51
357.863674
  0
ARC
  5
3B6
  8
_________2
 62
     7
 10
71.329430000000002
 20
29.804742999999998
 30
0.0
 40
2.0849849999999992
 50
0.00001
 51
89.999980000000008
  0
ARC
  5
3B7
  8
_________2
 62
     7
 10
71.329603000000006
 20
29.804915000000001
 30
0.0
 40
2.084813
 50
90.004733999999999
 51
180.00474399999999
  0
ARC
  5
3B8
  8
_________2
 62
     7
 10
71.409106000000008
 20
29.884775999999999
 30
0.0
 40
2.1657950000000001
 50
182.11776599999999
 51
267.89173399999999
  0
ARC
  5
3B9
  8
_________2
 62
     7
 10
71.249459000000002
 20
29.885429999999989
 30
0.0
 40
2.1664590000000001
 50
272.11546800000002
 51
357.86560400000002
  0
TEXT
  5
3BA
  8
_________2
 62
     7
 10
104.605
 20
1.6794899999999999
 30
0.0
 40
3.0923400000000001
  1
図番
 41
0.5
  0
LINE
  5
3BB
  8
_________2
 62
     7
 10
103.55
 20
5.9087199999999989
 30
0.0
 11
183.55099999999999
 21
5.9087199999999989
 31
0.0
  0
TEXT
  5
3BC
  8
_________2
 62
     7
 10
104.605
 20
11.679299999999991
 30
0.0
 40
3.0923400000000001
  1
品番
 41
0.5
  0
TEXT
  5
3BD
  8
_________2
 62
     7
 10
104.605
 20
31.818100000000001
 30
0.0
 40
3.0923400000000001
  1
名称
 41
0.5
  0
TEXT
  5
3BE
  8
_________2
 62
     7
 10
91.845058333333341
 20
26.821999999999989
 30
0.0
 40
3.6545800000000002
  1
mm
 41
0.5
 72
     1
 11
93.367800000000003
 21
26.821999999999989
 31
0.0
  0
TEXT
  5
3BF
  8
_________2
 62
     7
 10
85.643199999999993
 20
31.818100000000001
 30
0.0
 40
3.0923400000000001
  1
単位
 41
0.5
  0
TEXT
  5
3C0
  8
_________2
 62
     7
 10
85.643199999999993
 20
19.410799999999991
 30
0.0
 40
3.0923400000000001
  1
尺度
 41
0.5
  0
TEXT
  5
3C1
  8
_________2
 62
     7
 10
90.548758666666686
 20
13.2179
 30
0.0
 40
3.6545800000000002
  1
1 ： 2
 41
0.5
 72
     1
 11
93.959699999999998
 21
13.2179
 31
0.0
  0
TEXT
  5
3C2
  8
_________2
 62
     7
 10
136.66252499999999
 20
9.1078600000000005
 30
0.0
 40
3.9357000000000002
  1
図中の表参照
 41
0.5
 72
     1
 11
143.55000000000001
 21
9.1078600000000005
 31
0.0
  0
TEXT
  5
3C3
  8
_________2
 62
     7
 10
138.63037499999999
 20
-0.8926299999999999
 30
0.0
 40
3.9357000000000002
  1
HR1231
 41
0.5
 72
     1
 11
143.55000000000001
 21
-0.8926299999999999
 31
0.0
  0
TEXT
  5
3C4
  8
_________2
 62
     7
 10
24.5868
 20
0.707283
 30
0.0
 40
3.9357000000000002
  1
（社）日本水道協会認証品
 41
0.5
  0
TEXT
  5
3C5
  8
_________2
 62
     7
 10
109.179
 20
24.2257
 30
0.0
 40
3.9357000000000002
  1
ジュリア　立水栓
 41
0.5
  0
TEXT
  5
3C6
  8
_________2
 62
     7
 10
39.425300333333333
 20
13.603
 30
0.0
 40
3.6545800000000002
  1
早川
 41
0.5
 72
     1
 11
41.313499999999998
 21
13.603
 31
0.0
  0
TEXT
  5
3C7
  8
_________2
 62
     7
 10
20.790090666666661
 20
13.603
 30
0.0
 40
3.6545800000000002
  1
石原
 41
0.5
 72
     1
 11
22.73919999999999
 21
13.603
 31
0.0
  0
TEXT
  5
3C8
  8
_________2
 62
     7
 10
67.785399999999996
 20
13.2179
 30
0.0
 40
3.6545800000000002
  1
14.01.27
 41
0.5
  0
TEXT
  5
3C9
  8
_________2
 62
     7
 10
66.593100000000007
 20
19.410799999999991
 30
0.0
 40
3.0923400000000001
  1
日付
 41
0.5
  0
TEXT
  5
3CA
  8
_________2
 62
     7
 10
29.639399999999998
 20
19.410799999999991
 30
0.0
 40
3.0923400000000001
  1
検図
 41
0.5
  0
TEXT
  5
3CB
  8
_________2
 62
     7
 10
18.021100000000001
 20
5.21143
 30
0.0
 40
3.0923400000000001
  1
備考
 41
0.5
  0
TEXT
  5
3CC
  8
_________2
 62
     7
 10
18.021100000000001
 20
19.410799999999991
 30
0.0
 40
3.0923400000000001
  1
製図
 41
0.5
  0
TEXT
  5
3CD
  8
_________2
 62
     7
 10
23.788465333333338
 20
27.936800000000002
 30
0.0
 40
4.4979399999999989
  1
セラトレーディング株式会社
 41
0.5
 72
     1
 11
41.180500000000002
 21
27.936800000000002
 31
0.0
  0
LINE
  5
3CE
  8
_________2
 62
     7
 10
183.55099999999999
 20
-4.0910799999999998
 30
0.0
 11
17.049499999999998
 21
-4.0910799999999998
 31
0.0
  0
LINE
  5
3CF
  8
_________2
 62
     7
 10
17.049499999999998
 20
-4.0910799999999998
 30
0.0
 11
17.049499999999998
 21
258.911
 31
0.0
  0
LINE
  5
3D0
  8
_________2
 62
     7
 10
17.049499999999998
 20
258.911
 30
0.0
 11
183.55099999999999
 21
258.911
 31
0.0
  0
LINE
  5
3D1
  8
_________2
 62
     7
 10
183.55099999999999
 20
258.911
 30
0.0
 11
183.55099999999999
 21
-4.0910799999999998
 31
0.0
  0
LINE
  5
3D2
  8
_________2
 62
     7
 10
65.549599999999998
 20
9.4089600000000004
 30
0.0
 11
65.549599999999998
 21
35.908799999999999
 31
0.0
  0
LINE
  5
3D3
  8
_________2
 62
     7
 10
84.549700000000016
 20
9.4089600000000004
 30
0.0
 11
84.549700000000016
 21
35.908799999999999
 31
0.0
  0
LINE
  5
3D4
  8
_________2
 62
     7
 10
103.55
 20
-4.0910799999999998
 30
0.0
 11
103.55
 21
35.908799999999999
 31
0.0
  0
LINE
  5
3D5
  8
_________2
 62
     7
 10
28.549299999999992
 20
9.4089600000000004
 30
0.0
 11
28.549299999999992
 21
23.409199999999998
 31
0.0
  0
LINE
  5
3D6
  8
_________2
 62
     7
 10
17.049499999999998
 20
9.4089600000000004
 30
0.0
 11
103.55
 21
9.4089600000000004
 31
0.0
  0
LINE
  5
3D7
  8
_________2
 62
     7
 10
17.049499999999998
 20
23.409199999999998
 30
0.0
 11
103.55
 21
23.409199999999998
 31
0.0
  0
LINE
  5
3D8
  8
_________2
 62
     7
 10
103.55
 20
15.9085
 30
0.0
 11
183.55099999999999
 21
15.9085
 31
0.0
  0
LINE
  5
3D9
  8
_________2
 62
     7
 10
17.049499999999998
 20
35.908799999999999
 30
0.0
 11
183.55099999999999
 21
35.908799999999999
 31
0.0
  0
ENDSEC
  0
EOF
