  0
SECTION
  2
HEADER
  9
$ACADVER
  1
AC1009
  9
$INSBASE
 10
0.0
 20
0.0
 30
0.0
  9
$EXTMIN
 10
-4.7012099999999988
 20
-21.070999999999991
 30
0.0
  9
$EXTMAX
 10
205.30099999999999
 20
275.93099999999993
 30
0.0
  9
$LIMMIN
 10
0.0
 20
0.0
  9
$LIMMAX
 10
12.0
 20
9.0
  9
$ORTHOMODE
 70
     0
  9
$REGENMODE
 70
     1
  9
$FILLMODE
 70
     1
  9
$QTEXTMODE
 70
     0
  9
$MIRRTEXT
 70
     1
  9
$DRAGMODE
 70
     2
  9
$LTSCALE
 40
1.0
  9
$OSMODE
 70
    37
  9
$ATTMODE
 70
     1
  9
$TEXTSIZE
 40
0.0
  9
$TRACEWID
 40
0.05
  9
$TEXTSTYLE
  7
STANDARD
  9
$CLAYER
  8
0
  9
$CELTYPE
  6
CONTINUOUS
  9
$CECOLOR
 62
   256
  9
$DIMSCALE
 40
1.0
  9
$DIMASZ
 40
0.18
  9
$DIMEXO
 40
0.0625
  9
$DIMDLI
 40
0.38
  9
$DIMRND
 40
0.0
  9
$DIMDLE
 40
0.0
  9
$DIMEXE
 40
0.18
  9
$DIMTP
 40
0.0
  9
$DIMTM
 40
0.0
  9
$DIMTXT
 40
0.18
  9
$DIMCEN
 40
0.09
  9
$DIMTSZ
 40
0.0
  9
$DIMTOL
 70
     0
  9
$DIMLIM
 70
     0
  9
$DIMTIH
 70
     1
  9
$DIMTOH
 70
     1
  9
$DIMSE1
 70
     0
  9
$DIMSE2
 70
     0
  9
$DIMTAD
 70
     0
  9
$DIMZIN
 70
     0
  9
$DIMBLK
  1

  9
$DIMASO
 70
     1
  9
$DIMSHO
 70
     1
  9
$DIMPOST
  1

  9
$DIMAPOST
  1

  9
$DIMALT
 70
     0
  9
$DIMALTD
 70
     2
  9
$DIMALTF
 40
25.399999999999999
  9
$DIMLFAC
 40
1.0
  9
$DIMTOFL
 70
     0
  9
$DIMTVP
 40
0.0
  9
$DIMTIX
 70
     0
  9
$DIMSOXD
 70
     0
  9
$DIMSAH
 70
     0
  9
$DIMBLK1
  1

  9
$DIMBLK2
  1

  9
$DIMSTYLE
  2
STANDARD
  9
$DIMCLRD
 70
     0
  9
$DIMCLRE
 70
     0
  9
$DIMCLRT
 70
     0
  9
$DIMTFAC
 40
1.0
  9
$DIMGAP
 40
0.09
  9
$LUNITS
 70
     2
  9
$LUPREC
 70
     4
  9
$SKETCHINC
 40
0.1
  9
$FILLETRAD
 40
0.0
  9
$AUNITS
 70
     0
  9
$AUPREC
 70
     0
  9
$MENU
  1
.
  9
$ELEVATION
 40
0.0
  9
$PELEVATION
 40
0.0
  9
$THICKNESS
 40
0.0
  9
$LIMCHECK
 70
     0
  9
$BLIPMODE
 70
     0
  9
$CHAMFERA
 40
0.0
  9
$CHAMFERB
 40
0.0
  9
$SKPOLY
 70
     0
  9
$TDCREATE
 40
2444972.375
  9
$TDUPDATE
 40
2456707.2474291078
  9
$TDINDWG
 40
0.0000075579
  9
$TDUSRTIMER
 40
0.0000075579
  9
$USRTIMER
 70
     1
  9
$ANGBASE
 50
0.0
  9
$ANGDIR
 70
     0
  9
$PDMODE
 70
     0
  9
$PDSIZE
 40
0.0
  9
$PLINEWID
 40
0.0
  9
$COORDS
 70
     1
  9
$SPLFRAME
 70
     0
  9
$SPLINETYPE
 70
     6
  9
$SPLINESEGS
 70
     8
  9
$ATTDIA
 70
     0
  9
$ATTREQ
 70
     1
  9
$HANDLING
 70
     1
  9
$HANDSEED
  5
304
  9
$SURFTAB1
 70
     6
  9
$SURFTAB2
 70
     6
  9
$SURFTYPE
 70
     6
  9
$SURFU
 70
     6
  9
$SURFV
 70
     6
  9
$UCSNAME
  2

  9
$UCSORG
 10
0.0
 20
0.0
 30
0.0
  9
$UCSXDIR
 10
1.0
 20
0.0
 30
0.0
  9
$UCSYDIR
 10
0.0
 20
1.0
 30
0.0
  9
$PUCSNAME
  2

  9
$PUCSORG
 10
0.0
 20
0.0
 30
0.0
  9
$PUCSXDIR
 10
1.0
 20
0.0
 30
0.0
  9
$PUCSYDIR
 10
0.0
 20
1.0
 30
0.0
  9
$USERI1
 70
     0
  9
$USERI2
 70
     0
  9
$USERI3
 70
     0
  9
$USERI4
 70
     0
  9
$USERI5
 70
     0
  9
$USERR1
 40
0.0
  9
$USERR2
 40
0.0
  9
$USERR3
 40
0.0
  9
$USERR4
 40
0.0
  9
$USERR5
 40
0.0
  9
$WORLDVIEW
 70
     1
  9
$SHADEDGE
 70
     3
  9
$SHADEDIF
 70
    70
  9
$TILEMODE
 70
     1
  9
$MAXACTVP
 70
    48
  9
$PLIMCHECK
 70
     0
  9
$PEXTMIN
 10
1.0000000000000000E+020
 20
1.0000000000000000E+020
 30
1.0000000000000000E+020
  9
$PEXTMAX
 10
-1.0000000000000000E+020
 20
-1.0000000000000000E+020
 30
-1.0000000000000000E+020
  9
$PLIMMIN
 10
0.0
 20
0.0
  9
$PLIMMAX
 10
12.0
 20
9.0
  9
$UNITMODE
 70
     0
  9
$VISRETAIN
 70
     1
  9
$PLINEGEN
 70
     0
  9
$PSLTSCALE
 70
     1
  0
ENDSEC
  0
SECTION
  2
TABLES
  0
TABLE
  2
VPORT
 70
     2
  0
VPORT
  2
*ACTIVE
 70
     0
 10
0.0
 20
0.0
 11
1.0
 21
1.0
 12
202.006301769564
 22
127.42999999999989
 13
0.0
 23
0.0
 14
1.0
 24
1.0
 15
0.0
 25
0.0
 16
0.0
 26
0.0
 36
1.0
 17
0.0
 27
0.0
 37
0.0
 40
299.45318569463541
 41
2.2894736842105261
 42
50.0
 43
0.0
 44
0.0
 50
0.0
 51
0.0
 71
     0
 72
   100
 73
     1
 74
     1
 75
     0
 76
     0
 77
     0
 78
     0
  0
ENDTAB
  0
TABLE
  2
LTYPE
 70
     4
  0
LTYPE
  2
CONTINUOUS
 70
     0
  3
Solid line
 72
    65
 73
     0
 40
0.0
  0
LTYPE
  2
AIGENLINE001
 70
     0
  3
generate AI->DXF Converter
 72
    65
 73
     6
 40
7.4083750000000004
 49
3.5278
 49
-0.776115
 49
0.776115
 49
-0.776115
 49
0.776115
 49
-0.776115
  0
LTYPE
  2
AIGENLINE002
 70
     0
  3
generate AI->DXF Converter
 72
    65
 73
     4
 40
5.8561449999999988
 49
3.5278
 49
-0.776115
 49
0.776115
 49
-0.776115
  0
LTYPE
  2
AIGENLINE003
 70
     0
  3
generate AI->DXF Converter
 72
    65
 73
     2
 40
1.5522299999999991
 49
0.776115
 49
-0.776115
  0
ENDTAB
  0
TABLE
  2
LAYER
 70
     2
  0
LAYER
  2
0
 70
     0
 62
     7
  6
CONTINUOUS
  0
LAYER
  2
_________2
 70
     0
 62
     7
  6
CONTINUOUS
  0
ENDTAB
  0
TABLE
  2
STYLE
 70
     1
  0
STYLE
  2
STANDARD
 70
     0
 40
0.0
 41
0.0
 50
0.0
 71
     0
 42
0.0
  3
TXT
  4
EXTFONT.SHX
  0
ENDTAB
  0
TABLE
  2
VIEW
 70
     0
  0
ENDTAB
  0
TABLE
  2
UCS
 70
     0
  0
ENDTAB
  0
TABLE
  2
APPID
 70
     1
  0
APPID
  2
ACAD
 70
     0
  0
ENDTAB
  0
TABLE
  2
DIMSTYLE
 70
     1
  0
DIMSTYLE
  2
STANDARD
 70
     0
  3

  4

  5

  6

  7

 40
1.0
 41
0.18
 42
0.0625
 43
0.38
 44
0.18
 45
0.0
 46
0.0
 47
0.0
 48
0.0
140
0.18
141
0.09
142
0.0
143
25.399999999999999
144
1.0
145
0.0
146
1.0
147
0.09
 71
     0
 72
     0
 73
     1
 74
     1
 75
     0
 76
     0
 77
     0
 78
     0
170
     0
171
     2
172
     0
173
     0
174
     0
175
     0
176
     0
177
     0
178
     0
  0
ENDTAB
  0
ENDSEC
  0
SECTION
  2
BLOCKS
  0
BLOCK
  8
0
  2
$MODEL_SPACE
 70
     0
 10
0.0
 20
0.0
 30
0.0
  3
$MODEL_SPACE
  1

  0
ENDBLK
  5
1A
  8
0
  0
BLOCK
 67
     1
  8
0
  2
$PAPER_SPACE
 70
     0
 10
0.0
 20
0.0
 30
0.0
  3
$PAPER_SPACE
  1

  0
ENDBLK
  5
17
 67
     1
  8
0
  0
ENDSEC
  0
SECTION
  2
ENTITIES
  0
TEXT
  5
24
  8
0
 62
     7
 10
147.14199999999991
 20
62.648099999999999
 30
0.0
 40
3.0923400000000001
  1
アーム
 41
0.5
  0
TEXT
  5
25
  8
0
 62
     7
 10
147.14199999999991
 20
58.782699999999998
 30
0.0
 40
3.0923400000000001
  1
回転軸（上下）
 41
0.5
  0
TEXT
  5
26
  8
0
 62
     7
 10
132.678
 20
131.55799999999991
 30
0.0
 40
3.0923400000000001
  1
アーム
 41
0.5
  0
TEXT
  5
27
  8
0
 62
     7
 10
132.678
 20
127.6929999999999
 30
0.0
 40
3.0923400000000001
  1
回転軸（上下）
 41
0.5
  0
TEXT
  5
28
  8
0
 62
     7
 10
67.885686000000007
 20
59.453099999999999
 30
0.0
 40
3.0923400000000001
  1
鏡回転（上下）
 41
0.5
 72
     2
 11
79.533500000000004
 21
59.453099999999999
 31
0.0
  0
TEXT
  5
29
  8
0
 62
     7
 10
40.046593000000001
 20
168.58799999999999
 30
0.0
 40
3.0923400000000001
  1
鏡回転（左右）
 41
0.5
 72
     1
 11
45.8705
 21
168.58799999999999
 31
0.0
  0
TEXT
  5
2A
  8
0
 62
     7
 10
43.680092500000001
 20
164.72200000000001
 30
0.0
 40
3.0923400000000001
  1
120%%d
 41
0.5
 72
     1
 11
45.8705
 21
164.72200000000001
 31
0.0
  0
TEXT
  5
2B
  8
0
 62
     7
 10
66.216899999999995
 20
116.8062699999999
 30
0.0
 40
3.0923400000000001
  1
200
 50
90.0
 41
0.5
 72
     2
 11
66.216899999999995
 21
120.4139999999999
 31
0.0
  0
TEXT
  5
2C
  8
0
 62
     7
 10
174.62700000000001
 20
73.205272500000007
 30
0.0
 40
3.0923400000000001
  1
40
 50
90.0
 41
0.5
 72
     1
 11
174.62700000000001
 21
74.364900000000006
 31
0.0
  0
TEXT
  5
2D
  8
0
 62
     7
 10
174.62700000000001
 20
86.201624999999993
 30
0.0
 40
3.0923400000000001
  1
65
 50
90.0
 41
0.5
 72
     1
 11
174.62700000000001
 21
87.490099999999998
 31
0.0
  0
TEXT
  5
2E
  8
0
 62
     7
 10
179.821
 20
92.562034999999995
 30
0.0
 40
3.0923400000000001
  1
200
 50
90.0
 41
0.5
 72
     1
 11
179.821
 21
94.365899999999996
 31
0.0
  0
TEXT
  5
2F
  8
0
 62
     7
 10
174.62700000000001
 20
102.45252499999989
 30
0.0
 40
3.0923400000000001
  1
65
 50
90.0
 41
0.5
 72
     1
 11
174.62700000000001
 21
103.7409999999999
 31
0.0
  0
TEXT
  5
30
  8
0
 62
     7
 10
75.740899999999996
 20
105.9322875
 30
0.0
 40
3.0923400000000001
  1
308
 50
90.0
 41
0.5
 72
     1
 11
75.740899999999996
 21
107.8649999999999
 31
0.0
  0
TEXT
  5
31
  8
0
 62
     7
 10
44.582225000000001
 20
59.867199999999997
 30
0.0
 40
3.0923400000000001
  1
45
 41
0.5
 72
     1
 11
45.870699999999992
 21
59.867199999999997
 31
0.0
  0
TEXT
  5
32
  8
0
 62
     7
 10
136.61141549999991
 20
155.27600000000001
 30
0.0
 40
3.0923400000000001
  1
111～304
 41
0.5
 72
     1
 11
141.01799999999989
 21
155.27600000000001
 31
0.0
  0
TEXT
  5
33
  8
0
 62
     7
 10
44.06683499999999
 20
155.27600000000001
 30
0.0
 40
3.0923400000000001
  1
200
 41
0.5
 72
     1
 11
45.870699999999992
 21
155.27600000000001
 31
0.0
  0
TEXT
  5
34
  8
0
 62
     7
 10
44.7110725
 20
246.37700000000001
 30
0.0
 40
3.0923400000000001
  1
20
 41
0.5
 72
     1
 11
45.870699999999992
 21
246.37700000000001
 31
0.0
  0
TEXT
  5
35
  8
0
 62
     7
 10
71.080096000000012
 20
236.61000000000001
 30
0.0
 40
3.0923400000000001
  1
（%%c6×45 樹脂プラグ付）
 41
0.5
 72
     2
 11
93.551100000000005
 21
236.61000000000001
 31
0.0
  0
TEXT
  5
36
  8
0
 62
     7
 10
64.01925300000002
 20
241.6509999999999
 30
0.0
 40
3.0923400000000001
  1
%%c4×50 SUS十字穴付丸頭木ネジ
 41
0.5
 72
     2
 11
93.551100000000005
 21
241.6509999999999
 31
0.0
  0
ARC
  5
37
  8
0
 62
     7
 10
45.496590999999988
 20
203.76080400000001
 30
0.0
 40
30.786666999999991
 50
270.69627100000002
 51
329.28967599999999
  0
ARC
  5
38
  8
0
 62
     7
 10
46.221339
 20
203.722193
 30
0.0
 40
30.747782999999998
 50
210.66896199999999
 51
269.34661599999998
  0
ARC
  5
39
  8
0
  6
AIGENLINE001
 62
     7
 10
134.80370199999999
 20
151.02283600000001
 30
0.0
 40
89.475065000000015
 50
149.43373099999991
 51
149.99859699999999
  0
ARC
  5
3A
  8
0
  6
AIGENLINE001
 62
     7
 10
199.37520599999999
 20
112.88906299999989
 30
0.0
 40
164.46615600000001
 50
148.39083999999991
 51
149.434448
  0
ARC
  5
3B
  8
0
  6
AIGENLINE001
 62
     7
 10
328.99098199999992
 20
33.555872999999991
 30
0.0
 40
316.43303700000001
 50
147.3133729999999
 51
148.4579939999999
  0
ARC
  5
3C
  8
0
  6
AIGENLINE001
 62
     7
 10
403.58457599999991
 20
-13.724221
 30
0.0
 40
404.74737900000002
 50
145.54426499999991
 51
147.38289499999991
  0
ARC
  5
3D
  8
0
  6
AIGENLINE001
 62
     7
 10
99.635923000000005
 20
171.313335
 30
0.0
 40
55.671408999999997
 50
146.49370300000001
 51
149.98553699999999
  0
ARC
  5
3E
  8
0
  6
AIGENLINE001
 62
     7
 10
118.348157
 20
159.20209199999991
 30
0.0
 40
77.960235999999995
 50
142.66250799999989
 51
146.66349099999991
  0
ARC
  5
3F
  8
0
  6
AIGENLINE001
 62
     7
 10
131.007735
 20
149.81488200000001
 30
0.0
 40
93.719243000000006
 50
132.65088299999999
 51
142.79369800000001
  0
ARC
  5
40
  8
0
  6
AIGENLINE001
 62
     7
 10
132.59018399999999
 20
152.30072999999999
 30
0.0
 40
89.583270999999996
 50
149.43437399999991
 51
149.99855699999989
  0
ARC
  5
41
  8
0
  6
AIGENLINE001
 62
     7
 10
197.2034679999999
 20
114.14222700000001
 30
0.0
 40
164.6229129999999
 50
148.39216699999989
 51
149.43478099999999
  0
ARC
  5
42
  8
0
  6
AIGENLINE001
 62
     7
 10
326.38649800000002
 20
35.080853999999988
 30
0.0
 40
316.07879500000001
 50
147.313703
 51
148.45960899999989
  0
ARC
  5
43
  8
0
  6
AIGENLINE001
 62
     7
 10
400.96086099999991
 20
-12.188174999999999
 30
0.0
 40
404.37097599999993
 50
145.54272399999991
 51
147.3830659999999
  0
ARC
  5
44
  8
0
  6
AIGENLINE001
 62
     7
 10
59.324794999999988
 20
217.74340799999999
 30
0.0
 40
8.2916150000000002
 50
352.08355099999989
 51
0.637844
  0
ARC
  5
45
  8
0
  6
AIGENLINE001
 62
     7
 10
62.249572999999991
 20
217.74330399999991
 30
0.0
 40
5.3671179999999987
 50
0.986533
 51
6.718977999999999
  0
ARC
  5
46
  8
0
  6
AIGENLINE001
 62
     7
 10
64.629125999999999
 20
218.0146169999999
 30
0.0
 40
2.9721779999999991
 50
6.891649000000001
 51
14.224854000000001
  0
ARC
  5
47
  8
0
  6
AIGENLINE001
 62
     7
 10
61.681215999999999
 20
216.40878900000001
 30
0.0
 40
8.2425060000000006
 50
352.05407700000001
 51
0.658721
  0
ARC
  5
48
  8
0
  6
AIGENLINE001
 62
     7
 10
64.573065999999983
 20
216.41035899999989
 30
0.0
 40
5.3509219999999988
 50
0.9979079999999999
 51
6.7487839999999997
  0
ARC
  5
49
  8
0
  6
AIGENLINE001
 62
     7
 10
66.939348999999993
 20
216.681724
 30
0.0
 40
2.9691580000000002
 50
6.9145890000000003
 51
14.25976799999999
  0
LINE
  5
4A
  8
0
  6
AIGENLINE001
 62
     7
 10
67.537400000000005
 20
216.60099999999991
 30
0.0
 11
69.8446
 21
215.26900000000001
 31
0.0
  0
LINE
  5
4B
  8
0
  6
AIGENLINE001
 62
     7
 10
67.510199999999998
 20
218.745
 30
0.0
 11
69.816999999999993
 21
217.4129999999999
 31
0.0
  0
ARC
  5
4C
  8
0
  6
AIGENLINE001
 62
     7
 10
136.16450900000001
 20
150.253173
 30
0.0
 40
91.038391000000004
 50
150.00734099999991
 51
150.56253399999991
  0
ARC
  5
4D
  8
0
  6
AIGENLINE001
 62
     7
 10
200.3664709999999
 20
114.03523300000001
 30
0.0
 40
164.75155799999999
 50
150.56656599999999
 51
151.60840699999989
  0
ARC
  5
4E
  8
0
  6
AIGENLINE001
 62
     7
 10
333.33648599999992
 20
41.739483999999997
 30
0.0
 40
316.10421799999989
 50
151.54073600000001
 51
152.68655799999999
  0
ARC
  5
4F
  8
0
  6
AIGENLINE001
 62
     7
 10
411.472463
 20
0.829465
 30
0.0
 40
404.30097799999999
 50
152.6163159999999
 51
154.45694499999999
  0
ARC
  5
50
  8
0
  6
AIGENLINE001
 62
     7
 10
99.615256000000016
 20
171.35517899999991
 30
0.0
 40
55.63258900000001
 50
150.01220499999991
 51
153.506688
  0
ARC
  5
51
  8
0
  6
AIGENLINE001
 62
     7
 10
119.48933
 20
161.1896669999999
 30
0.0
 40
77.954728000000003
 50
153.3359429999999
 51
157.3372379999999
  0
ARC
  5
52
  8
0
  6
AIGENLINE001
 62
     7
 10
133.976416
 20
154.90915100000001
 30
0.0
 40
93.743414000000001
 50
157.20666899999989
 51
167.34685799999991
  0
ARC
  5
53
  8
0
  6
AIGENLINE001
 62
     7
 10
133.2755689999999
 20
151.911169
 30
0.0
 40
90.371612999999996
 50
150.0019439999999
 51
150.56125099999991
  0
ARC
  5
54
  8
0
  6
AIGENLINE001
 62
     7
 10
197.86112299999999
 20
115.4698639999999
 30
0.0
 40
164.52862500000001
 50
150.56377699999999
 51
151.6070499999999
  0
ARC
  5
55
  8
0
  6
AIGENLINE001
 62
     7
 10
330.55258700000002
 20
43.319915999999999
 30
0.0
 40
315.56692099999992
 50
151.539153
 51
152.68693300000001
  0
ARC
  5
56
  8
0
  6
AIGENLINE001
 62
     7
 10
408.824274
 20
2.3392309999999998
 30
0.0
 40
403.91668499999992
 50
152.61646899999991
 51
154.458833
  0
ARC
  5
57
  8
0
  6
AIGENLINE001
 62
     7
 10
39.301206000000001
 20
183.00788899999989
 30
0.0
 40
8.2617030000000007
 50
299.34810099999987
 51
307.93299999999999
  0
ARC
  5
58
  8
0
  6
AIGENLINE001
 62
     7
 10
40.750498999999991
 20
180.496531
 30
0.0
 40
5.3624349999999987
 50
293.26277700000003
 51
299.00153499999999
  0
ARC
  5
59
  8
0
  6
AIGENLINE001
 62
     7
 10
41.699402999999997
 20
178.31125800000001
 30
0.0
 40
2.980062999999999
 50
285.77665999999999
 51
293.09568999999988
  0
ARC
  5
5A
  8
0
  6
AIGENLINE001
 62
     7
 10
41.604089000000002
 20
181.68137999999999
 30
0.0
 40
8.2687270000000002
 50
299.35535099999993
 51
307.93294300000002
  0
ARC
  5
5B
  8
0
  6
AIGENLINE001
 62
     7
 10
43.059221999999998
 20
179.16037399999999
 30
0.0
 40
5.3581839999999987
 50
293.26635599999997
 51
299.00858399999993
  0
ARC
  5
5C
  8
0
  6
AIGENLINE001
 62
     7
 10
44.010120000000001
 20
176.96985699999999
 30
0.0
 40
2.9702039999999998
 50
285.76668999999993
 51
293.10619600000001
  0
LINE
  5
5D
  8
0
  6
AIGENLINE001
 62
     7
 10
44.380000000000003
 20
176.49199999999999
 30
0.0
 11
46.68719999999999
 21
175.16
 31
0.0
  0
LINE
  5
5E
  8
0
  6
AIGENLINE001
 62
     7
 10
42.509599999999999
 20
175.4429999999999
 30
0.0
 11
44.8172
 21
174.1109999999999
 31
0.0
  0
LINE
  5
5F
  8
0
  6
AIGENLINE001
 62
     7
 10
49.338700000000003
 20
206.73099999999991
 30
0.0
 11
54.408700000000003
 21
203.804
 31
0.0
  0
LINE
  5
60
  8
0
  6
AIGENLINE001
 62
     7
 10
43.828599999999987
 20
197.18700000000001
 30
0.0
 11
48.898600000000002
 21
194.25999999999991
 31
0.0
  0
LINE
  5
61
  8
0
 62
     7
 10
123.92
 20
155.1339999999999
 30
0.0
 11
121.7079999999999
 21
154.542
 31
0.0
  0
LINE
  5
62
  8
0
 62
     7
 10
121.7079999999999
 20
154.542
 30
0.0
 11
123.92
 21
153.9489999999999
 31
0.0
  0
LINE
  5
63
  8
0
 62
     7
 10
123.92
 20
153.9489999999999
 30
0.0
 11
123.92
 21
155.1339999999999
 31
0.0
  0
LINE
  5
64
  8
0
 62
     7
 10
158.11600000000001
 20
153.9489999999999
 30
0.0
 11
160.327
 21
154.542
 31
0.0
  0
LINE
  5
65
  8
0
 62
     7
 10
160.327
 20
154.542
 30
0.0
 11
158.11600000000001
 21
155.1339999999999
 31
0.0
  0
LINE
  5
66
  8
0
 62
     7
 10
158.11600000000001
 20
155.1339999999999
 30
0.0
 11
158.11600000000001
 21
153.9489999999999
 31
0.0
  0
ARC
  5
67
  8
0
 62
     7
 10
154.22754199999989
 20
70.532720999999995
 30
0.0
 40
4.1670860000000003
 50
180.95892499999991
 51
247.24784099999999
  0
ARC
  5
68
  8
0
 62
     7
 10
154.228544
 20
70.393858999999992
 30
0.0
 40
4.1680769999999994
 50
112.7819189999999
 51
179.0497269999999
  0
LINE
  5
69
  8
0
 62
     7
 10
150.51599999999999
 20
73.319000000000003
 30
0.0
 11
152.61500000000001
 21
74.236800000000002
 31
0.0
  0
LINE
  5
6A
  8
0
 62
     7
 10
152.61500000000001
 20
74.236800000000002
 30
0.0
 11
151.256
 21
72.392899999999997
 31
0.0
  0
LINE
  5
6B
  8
0
 62
     7
 10
151.256
 20
72.392899999999997
 30
0.0
 11
150.51599999999999
 21
73.319000000000003
 31
0.0
  0
LINE
  5
6C
  8
0
 62
     7
 10
150.518
 20
67.607699999999994
 30
0.0
 11
152.61600000000001
 21
66.689899999999994
 31
0.0
  0
LINE
  5
6D
  8
0
 62
     7
 10
152.61600000000001
 20
66.689899999999994
 30
0.0
 11
151.25700000000001
 21
68.533699999999996
 31
0.0
  0
LINE
  5
6E
  8
0
 62
     7
 10
151.25700000000001
 20
68.533699999999996
 30
0.0
 11
150.518
 21
67.607699999999994
 31
0.0
  0
ARC
  5
6F
  8
0
 62
     7
 10
141.33212399999991
 20
121.4350169999999
 30
0.0
 40
4.1670860000000003
 50
180.95892499999991
 51
247.24784099999999
  0
ARC
  5
70
  8
0
 62
     7
 10
141.333133
 20
121.29615
 30
0.0
 40
4.1680849999999987
 50
112.781989
 51
179.04965799999991
  0
LINE
  5
71
  8
0
 62
     7
 10
137.62100000000001
 20
124.221
 30
0.0
 11
139.71899999999991
 21
125.139
 31
0.0
  0
LINE
  5
72
  8
0
 62
     7
 10
139.71899999999991
 20
125.139
 30
0.0
 11
138.36000000000001
 21
123.2949999999999
 31
0.0
  0
LINE
  5
73
  8
0
 62
     7
 10
138.36000000000001
 20
123.2949999999999
 30
0.0
 11
137.62100000000001
 21
124.221
 31
0.0
  0
LINE
  5
74
  8
0
 62
     7
 10
137.62200000000001
 20
118.51000000000001
 30
0.0
 11
139.721
 21
117.592
 31
0.0
  0
LINE
  5
75
  8
0
 62
     7
 10
139.721
 20
117.592
 30
0.0
 11
138.36199999999999
 21
119.43600000000001
 31
0.0
  0
LINE
  5
76
  8
0
 62
     7
 10
138.36199999999999
 20
119.43600000000001
 30
0.0
 11
137.62200000000001
 21
118.51000000000001
 31
0.0
  0
LINE
  5
77
  8
0
 62
     7
 10
42.457299999999996
 20
59.759700000000002
 30
0.0
 11
40.2455
 21
59.167099999999998
 31
0.0
  0
LINE
  5
78
  8
0
 62
     7
 10
40.2455
 20
59.167099999999998
 30
0.0
 11
42.457299999999996
 21
58.57459999999999
 31
0.0
  0
LINE
  5
79
  8
0
 62
     7
 10
42.457299999999996
 20
58.57459999999999
 30
0.0
 11
42.457299999999996
 21
59.759700000000002
 31
0.0
  0
LINE
  5
7A
  8
0
 62
     7
 10
49.284100000000002
 20
58.57459999999999
 30
0.0
 11
51.495899999999992
 21
59.167099999999998
 31
0.0
  0
LINE
  5
7B
  8
0
 62
     7
 10
51.495899999999992
 20
59.167099999999998
 30
0.0
 11
49.284100000000002
 21
59.759700000000002
 31
0.0
  0
LINE
  5
7C
  8
0
 62
     7
 10
49.284100000000002
 20
59.759700000000002
 30
0.0
 11
49.284100000000002
 21
58.57459999999999
 31
0.0
  0
LINE
  5
7D
  8
0
 62
     7
 10
23.0823
 20
155.1689999999999
 30
0.0
 11
20.8705
 21
154.57599999999999
 31
0.0
  0
LINE
  5
7E
  8
0
 62
     7
 10
20.8705
 20
154.57599999999999
 30
0.0
 11
23.0823
 21
153.983
 31
0.0
  0
LINE
  5
7F
  8
0
 62
     7
 10
23.0823
 20
153.983
 30
0.0
 11
23.0823
 21
155.1689999999999
 31
0.0
  0
LINE
  5
80
  8
0
 62
     7
 10
68.659099999999995
 20
153.98400000000001
 30
0.0
 11
70.870900000000006
 21
154.57599999999999
 31
0.0
  0
LINE
  5
81
  8
0
 62
     7
 10
70.870900000000006
 20
154.57599999999999
 30
0.0
 11
68.659099999999995
 21
155.1689999999999
 31
0.0
  0
LINE
  5
82
  8
0
 62
     7
 10
68.659099999999995
 20
155.1689999999999
 30
0.0
 11
68.659099999999995
 21
153.98400000000001
 31
0.0
  0
LINE
  5
83
  8
0
 62
     7
 10
50.5822
 20
246.27000000000001
 30
0.0
 11
48.3705
 21
245.67699999999999
 31
0.0
  0
LINE
  5
84
  8
0
 62
     7
 10
48.3705
 20
245.67699999999999
 30
0.0
 11
50.5822
 21
245.08399999999989
 31
0.0
  0
LINE
  5
85
  8
0
 62
     7
 10
50.5822
 20
245.08399999999989
 30
0.0
 11
50.5822
 21
246.27000000000001
 31
0.0
  0
LINE
  5
86
  8
0
 62
     7
 10
41.158799999999992
 20
245.08499999999989
 30
0.0
 11
43.370600000000003
 21
245.67699999999999
 31
0.0
  0
LINE
  5
87
  8
0
 62
     7
 10
43.370600000000003
 20
245.67699999999999
 30
0.0
 11
41.158799999999992
 21
246.27000000000001
 31
0.0
  0
LINE
  5
88
  8
0
 62
     7
 10
41.158799999999992
 20
246.27000000000001
 30
0.0
 11
41.158799999999992
 21
245.08499999999989
 31
0.0
  0
LINE
  5
89
  8
0
 62
     7
 10
174.73400000000001
 20
71.577100000000002
 30
0.0
 11
175.327
 21
69.365399999999994
 31
0.0
  0
LINE
  5
8A
  8
0
 62
     7
 10
175.327
 20
69.365399999999994
 30
0.0
 11
175.91900000000001
 21
71.577100000000002
 31
0.0
  0
LINE
  5
8B
  8
0
 62
     7
 10
175.91900000000001
 20
71.577100000000002
 30
0.0
 11
174.73400000000001
 21
71.577100000000002
 31
0.0
  0
LINE
  5
8C
  8
0
 62
     7
 10
174.73400000000001
 20
81.576899999999995
 30
0.0
 11
175.327
 21
79.365200000000002
 31
0.0
  0
LINE
  5
8D
  8
0
 62
     7
 10
175.327
 20
79.365200000000002
 30
0.0
 11
175.91900000000001
 21
81.576899999999995
 31
0.0
  0
LINE
  5
8E
  8
0
 62
     7
 10
175.91900000000001
 20
81.576899999999995
 30
0.0
 11
174.73400000000001
 21
81.576899999999995
 31
0.0
  0
LINE
  5
8F
  8
0
 62
     7
 10
75.848399999999984
 20
71.577100000000002
 30
0.0
 11
76.441000000000003
 21
69.365399999999994
 31
0.0
  0
LINE
  5
90
  8
0
 62
     7
 10
76.441000000000003
 20
69.365399999999994
 30
0.0
 11
77.033500000000004
 21
71.577100000000002
 31
0.0
  0
LINE
  5
91
  8
0
 62
     7
 10
77.033500000000004
 20
71.577100000000002
 30
0.0
 11
75.848399999999984
 21
71.577100000000002
 31
0.0
  0
LINE
  5
92
  8
0
 62
     7
 10
66.324399999999983
 20
98.577200000000005
 30
0.0
 11
66.916899999999998
 21
96.365399999999994
 31
0.0
  0
LINE
  5
93
  8
0
 62
     7
 10
66.916899999999998
 20
96.365399999999994
 30
0.0
 11
67.509500000000003
 21
98.577200000000005
 31
0.0
  0
LINE
  5
94
  8
0
 62
     7
 10
67.509500000000003
 20
98.577200000000005
 30
0.0
 11
66.324399999999983
 21
98.577200000000005
 31
0.0
  0
LINE
  5
95
  8
0
 62
     7
 10
67.509500000000003
 20
144.155
 30
0.0
 11
66.916899999999998
 21
146.36600000000001
 31
0.0
  0
LINE
  5
96
  8
0
 62
     7
 10
66.916899999999998
 20
146.36600000000001
 30
0.0
 11
66.324399999999983
 21
144.155
 31
0.0
  0
LINE
  5
97
  8
0
 62
     7
 10
66.324399999999983
 20
144.155
 30
0.0
 11
67.509500000000003
 21
144.155
 31
0.0
  0
LINE
  5
98
  8
0
 62
     7
 10
77.033500000000004
 20
144.155
 30
0.0
 11
76.441000000000003
 21
146.36600000000001
 31
0.0
  0
LINE
  5
99
  8
0
 62
     7
 10
76.441000000000003
 20
146.36600000000001
 30
0.0
 11
75.848399999999984
 21
144.155
 31
0.0
  0
LINE
  5
9A
  8
0
 62
     7
 10
75.848399999999984
 20
144.155
 30
0.0
 11
77.033500000000004
 21
144.155
 31
0.0
  0
LINE
  5
9B
  8
0
 62
     7
 10
179.929
 20
71.577100000000002
 30
0.0
 11
180.5209999999999
 21
69.365399999999994
 31
0.0
  0
LINE
  5
9C
  8
0
 62
     7
 10
180.5209999999999
 20
69.365399999999994
 30
0.0
 11
181.11399999999989
 21
71.577100000000002
 31
0.0
  0
LINE
  5
9D
  8
0
 62
     7
 10
181.11399999999989
 20
71.577100000000002
 30
0.0
 11
179.929
 21
71.577100000000002
 31
0.0
  0
LINE
  5
9E
  8
0
 62
     7
 10
174.73400000000001
 20
97.827500000000001
 30
0.0
 11
175.327
 21
95.615799999999993
 31
0.0
  0
LINE
  5
9F
  8
0
 62
     7
 10
175.327
 20
95.615799999999993
 30
0.0
 11
175.91900000000001
 21
97.827500000000001
 31
0.0
  0
LINE
  5
A0
  8
0
 62
     7
 10
175.91900000000001
 20
97.827500000000001
 30
0.0
 11
174.73400000000001
 21
97.827500000000001
 31
0.0
  0
LINE
  5
A1
  8
0
 62
     7
 10
175.91900000000001
 20
77.1541
 30
0.0
 11
175.327
 21
79.365200000000002
 31
0.0
  0
LINE
  5
A2
  8
0
 62
     7
 10
175.327
 20
79.365200000000002
 30
0.0
 11
174.73400000000001
 21
77.1541
 31
0.0
  0
LINE
  5
A3
  8
0
 62
     7
 10
174.73400000000001
 20
77.1541
 30
0.0
 11
175.91900000000001
 21
77.1541
 31
0.0
  0
LINE
  5
A4
  8
0
 62
     7
 10
175.91900000000001
 20
93.404700000000005
 30
0.0
 11
175.327
 21
95.615799999999993
 31
0.0
  0
LINE
  5
A5
  8
0
 62
     7
 10
175.327
 20
95.615799999999993
 30
0.0
 11
174.73400000000001
 21
93.404700000000005
 31
0.0
  0
LINE
  5
A6
  8
0
 62
     7
 10
174.73400000000001
 20
93.404700000000005
 30
0.0
 11
175.91900000000001
 21
93.404700000000005
 31
0.0
  0
LINE
  5
A7
  8
0
 62
     7
 10
181.11399999999989
 20
117.155
 30
0.0
 11
180.5209999999999
 21
119.3659999999999
 31
0.0
  0
LINE
  5
A8
  8
0
 62
     7
 10
180.5209999999999
 20
119.3659999999999
 30
0.0
 11
179.929
 21
117.155
 31
0.0
  0
LINE
  5
A9
  8
0
 62
     7
 10
179.929
 20
117.155
 30
0.0
 11
181.11399999999989
 21
117.155
 31
0.0
  0
LINE
  5
AA
  8
0
 62
     7
 10
180.5209999999999
 20
119.3659999999999
 30
0.0
 11
180.5209999999999
 21
69.365399999999994
 31
0.0
  0
LINE
  5
AB
  8
0
 62
     7
 10
175.91900000000001
 20
109.655
 30
0.0
 11
175.327
 21
111.8659999999999
 31
0.0
  0
LINE
  5
AC
  8
0
 62
     7
 10
175.327
 20
111.8659999999999
 30
0.0
 11
174.73400000000001
 21
109.655
 31
0.0
  0
LINE
  5
AD
  8
0
 62
     7
 10
174.73400000000001
 20
109.655
 30
0.0
 11
175.91900000000001
 21
109.655
 31
0.0
  0
LINE
  5
AE
  8
0
 62
     7
 10
170.53
 20
79.646299999999997
 30
0.0
 11
171.327
 21
79.365200000000002
 31
0.0
  0
LINE
  5
AF
  8
0
 62
     7
 10
170.53
 20
79.084699999999998
 30
0.0
 11
171.327
 21
79.365200000000002
 31
0.0
  0
LINE
  5
B0
  8
0
 62
     7
 10
160.327
 20
79.753100000000003
 30
0.0
 11
162.57699999999991
 21
79.753100000000003
 31
0.0
  0
LINE
  5
B1
  8
0
 62
     7
 10
162.57699999999991
 20
79.084699999999998
 30
0.0
 11
170.53
 21
79.084699999999998
 31
0.0
  0
LINE
  5
B2
  8
0
 62
     7
 10
162.57699999999991
 20
79.646299999999997
 30
0.0
 11
170.53
 21
79.646299999999997
 31
0.0
  0
LINE
  5
B3
  8
0
  6
AIGENLINE002
 62
     7
 10
158.80600000000001
 20
79.365200000000002
 30
0.0
 11
172.43899999999999
 21
79.365200000000002
 31
0.0
  0
LINE
  5
B4
  8
0
 62
     7
 10
170.982
 20
78.865600000000001
 30
0.0
 11
170.529
 21
79.865399999999994
 31
0.0
  0
LINE
  5
B5
  8
0
 62
     7
 10
170.209
 20
78.865600000000001
 30
0.0
 11
169.75599999999989
 21
79.865399999999994
 31
0.0
  0
LINE
  5
B6
  8
0
 62
     7
 10
169.435
 20
78.865600000000001
 30
0.0
 11
168.983
 21
79.865399999999994
 31
0.0
  0
LINE
  5
B7
  8
0
 62
     7
 10
168.66200000000001
 20
78.865600000000001
 30
0.0
 11
168.21000000000001
 21
79.865399999999994
 31
0.0
  0
LINE
  5
B8
  8
0
 62
     7
 10
167.88900000000001
 20
78.865600000000001
 30
0.0
 11
167.43599999999989
 21
79.865399999999994
 31
0.0
  0
LINE
  5
B9
  8
0
 62
     7
 10
167.1159999999999
 20
78.865600000000001
 30
0.0
 11
166.6629999999999
 21
79.865399999999994
 31
0.0
  0
LINE
  5
BA
  8
0
 62
     7
 10
166.3429999999999
 20
78.865600000000001
 30
0.0
 11
165.8899999999999
 21
79.865399999999994
 31
0.0
  0
LINE
  5
BB
  8
0
 62
     7
 10
165.56999999999991
 20
78.865600000000001
 30
0.0
 11
165.11699999999999
 21
79.865399999999994
 31
0.0
  0
LINE
  5
BC
  8
0
 62
     7
 10
164.79599999999991
 20
78.865600000000001
 30
0.0
 11
164.34399999999999
 21
79.865399999999994
 31
0.0
  0
LINE
  5
BD
  8
0
 62
     7
 10
164.023
 20
78.865600000000001
 30
0.0
 11
163.57099999999991
 21
79.865399999999994
 31
0.0
  0
LINE
  5
BE
  8
0
 62
     7
 10
162.57699999999991
 20
78.977199999999996
 30
0.0
 11
162.57699999999991
 21
79.753100000000003
 31
0.0
  0
LINE
  5
BF
  8
0
 62
     7
 10
163.25
 20
78.865600000000001
 30
0.0
 11
162.79699999999991
 21
79.865399999999994
 31
0.0
  0
LINE
  5
C0
  8
0
 62
     7
 10
160.327
 20
78.977199999999996
 30
0.0
 11
162.57699999999991
 21
78.977199999999996
 31
0.0
  0
LINE
  5
C1
  8
0
 62
     7
 10
158.51400000000001
 20
69.365399999999994
 30
0.0
 11
181.22099999999989
 21
69.365399999999994
 31
0.0
  0
LINE
  5
C2
  8
0
 62
     7
 10
173.1399999999999
 20
79.365200000000002
 30
0.0
 11
176.02699999999999
 21
79.365200000000002
 31
0.0
  0
LINE
  5
C3
  8
0
 62
     7
 10
43.089799999999997
 20
238.34499999999991
 30
0.0
 11
43.370600000000003
 21
239.142
 31
0.0
  0
LINE
  5
C4
  8
0
 62
     7
 10
43.651400000000002
 20
238.34499999999991
 30
0.0
 11
43.370600000000003
 21
239.142
 31
0.0
  0
LINE
  5
C5
  8
0
 62
     7
 10
42.982999999999997
 20
228.142
 30
0.0
 11
42.982999999999997
 21
230.392
 31
0.0
  0
LINE
  5
C6
  8
0
 62
     7
 10
43.651400000000002
 20
230.392
 30
0.0
 11
43.651400000000002
 21
238.34499999999991
 31
0.0
  0
LINE
  5
C7
  8
0
 62
     7
 10
43.089799999999997
 20
230.392
 30
0.0
 11
43.089799999999997
 21
238.34499999999991
 31
0.0
  0
LINE
  5
C8
  8
0
  6
AIGENLINE002
 62
     7
 10
43.370600000000003
 20
226.62100000000001
 30
0.0
 11
43.370600000000003
 21
240.25399999999999
 31
0.0
  0
LINE
  5
C9
  8
0
 62
     7
 10
43.8705
 20
238.797
 30
0.0
 11
42.870699999999992
 21
238.34399999999999
 31
0.0
  0
LINE
  5
CA
  8
0
 62
     7
 10
43.8705
 20
238.024
 30
0.0
 11
42.870699999999992
 21
237.571
 31
0.0
  0
LINE
  5
CB
  8
0
 62
     7
 10
43.8705
 20
237.25
 30
0.0
 11
42.870699999999992
 21
236.798
 31
0.0
  0
LINE
  5
CC
  8
0
 62
     7
 10
43.8705
 20
236.477
 30
0.0
 11
42.870699999999992
 21
236.02500000000001
 31
0.0
  0
LINE
  5
CD
  8
0
 62
     7
 10
43.8705
 20
235.70400000000001
 30
0.0
 11
42.870699999999992
 21
235.25099999999989
 31
0.0
  0
LINE
  5
CE
  8
0
 62
     7
 10
43.8705
 20
234.93100000000001
 30
0.0
 11
42.870699999999992
 21
234.47799999999989
 31
0.0
  0
LINE
  5
CF
  8
0
 62
     7
 10
43.8705
 20
234.1579999999999
 30
0.0
 11
42.870699999999992
 21
233.70500000000001
 31
0.0
  0
LINE
  5
D0
  8
0
 62
     7
 10
43.8705
 20
233.38499999999991
 30
0.0
 11
42.870699999999992
 21
232.93199999999999
 31
0.0
  0
LINE
  5
D1
  8
0
 62
     7
 10
43.8705
 20
232.6109999999999
 30
0.0
 11
42.870699999999992
 21
232.15899999999999
 31
0.0
  0
LINE
  5
D2
  8
0
 62
     7
 10
43.8705
 20
231.83799999999991
 30
0.0
 11
42.870699999999992
 21
231.386
 31
0.0
  0
LINE
  5
D3
  8
0
 62
     7
 10
43.758499999999991
 20
230.392
 30
0.0
 11
42.982999999999997
 21
230.392
 31
0.0
  0
LINE
  5
D4
  8
0
 62
     7
 10
43.8705
 20
231.06499999999991
 30
0.0
 11
42.870699999999992
 21
230.61199999999991
 31
0.0
  0
LINE
  5
D5
  8
0
 62
     7
 10
43.758499999999991
 20
228.142
 30
0.0
 11
43.758499999999991
 21
230.392
 31
0.0
  0
LINE
  5
D6
  8
0
 62
     7
 10
45.5899
 20
238.34499999999991
 30
0.0
 11
45.870699999999992
 21
239.142
 31
0.0
  0
LINE
  5
D7
  8
0
 62
     7
 10
46.151499999999992
 20
238.34499999999991
 30
0.0
 11
45.870699999999992
 21
239.142
 31
0.0
  0
LINE
  5
D8
  8
0
 62
     7
 10
45.482799999999997
 20
228.142
 30
0.0
 11
45.482799999999997
 21
230.392
 31
0.0
  0
LINE
  5
D9
  8
0
 62
     7
 10
46.151499999999992
 20
230.392
 30
0.0
 11
46.151499999999992
 21
238.34499999999991
 31
0.0
  0
LINE
  5
DA
  8
0
 62
     7
 10
45.5899
 20
230.392
 30
0.0
 11
45.5899
 21
238.34499999999991
 31
0.0
  0
LINE
  5
DB
  8
0
 62
     7
 10
46.370600000000003
 20
238.797
 30
0.0
 11
45.370499999999993
 21
238.34399999999999
 31
0.0
  0
LINE
  5
DC
  8
0
 62
     7
 10
46.370600000000003
 20
238.024
 30
0.0
 11
45.370499999999993
 21
237.571
 31
0.0
  0
LINE
  5
DD
  8
0
 62
     7
 10
46.370600000000003
 20
237.25
 30
0.0
 11
45.370499999999993
 21
236.798
 31
0.0
  0
LINE
  5
DE
  8
0
 62
     7
 10
46.370600000000003
 20
236.477
 30
0.0
 11
45.370499999999993
 21
236.02500000000001
 31
0.0
  0
LINE
  5
DF
  8
0
 62
     7
 10
46.370600000000003
 20
235.70400000000001
 30
0.0
 11
45.370499999999993
 21
235.25099999999989
 31
0.0
  0
LINE
  5
E0
  8
0
 62
     7
 10
46.370600000000003
 20
234.93100000000001
 30
0.0
 11
45.370499999999993
 21
234.47799999999989
 31
0.0
  0
LINE
  5
E1
  8
0
 62
     7
 10
46.370600000000003
 20
234.1579999999999
 30
0.0
 11
45.370499999999993
 21
233.70500000000001
 31
0.0
  0
LINE
  5
E2
  8
0
 62
     7
 10
46.370600000000003
 20
233.38499999999991
 30
0.0
 11
45.370499999999993
 21
232.93199999999999
 31
0.0
  0
LINE
  5
E3
  8
0
 62
     7
 10
46.370600000000003
 20
232.6109999999999
 30
0.0
 11
45.370499999999993
 21
232.15899999999999
 31
0.0
  0
LINE
  5
E4
  8
0
 62
     7
 10
46.370600000000003
 20
231.83799999999991
 30
0.0
 11
45.370499999999993
 21
231.386
 31
0.0
  0
LINE
  5
E5
  8
0
 62
     7
 10
46.258600000000001
 20
230.392
 30
0.0
 11
45.482799999999997
 21
230.392
 31
0.0
  0
LINE
  5
E6
  8
0
 62
     7
 10
46.370600000000003
 20
231.06499999999991
 30
0.0
 11
45.370499999999993
 21
230.61199999999991
 31
0.0
  0
LINE
  5
E7
  8
0
 62
     7
 10
46.258600000000001
 20
228.142
 30
0.0
 11
46.258600000000001
 21
230.392
 31
0.0
  0
LINE
  5
E8
  8
0
 62
     7
 10
48.090000000000011
 20
238.34499999999991
 30
0.0
 11
48.3705
 21
239.142
 31
0.0
  0
LINE
  5
E9
  8
0
 62
     7
 10
48.651600000000002
 20
238.34499999999991
 30
0.0
 11
48.3705
 21
239.142
 31
0.0
  0
LINE
  5
EA
  8
0
 62
     7
 10
47.982900000000001
 20
228.142
 30
0.0
 11
47.982900000000001
 21
230.392
 31
0.0
  0
LINE
  5
EB
  8
0
 62
     7
 10
48.651600000000002
 20
230.392
 30
0.0
 11
48.651600000000002
 21
238.34499999999991
 31
0.0
  0
LINE
  5
EC
  8
0
 62
     7
 10
48.090000000000011
 20
230.392
 30
0.0
 11
48.090000000000011
 21
238.34499999999991
 31
0.0
  0
LINE
  5
ED
  8
0
  6
AIGENLINE002
 62
     7
 10
48.3705
 20
226.62100000000001
 30
0.0
 11
48.3705
 21
240.25399999999999
 31
0.0
  0
LINE
  5
EE
  8
0
 62
     7
 10
48.870699999999999
 20
238.797
 30
0.0
 11
47.870600000000003
 21
238.34399999999999
 31
0.0
  0
LINE
  5
EF
  8
0
 62
     7
 10
48.870699999999999
 20
238.024
 30
0.0
 11
47.870600000000003
 21
237.571
 31
0.0
  0
LINE
  5
F0
  8
0
 62
     7
 10
48.870699999999999
 20
237.25
 30
0.0
 11
47.870600000000003
 21
236.798
 31
0.0
  0
LINE
  5
F1
  8
0
 62
     7
 10
48.870699999999999
 20
236.477
 30
0.0
 11
47.870600000000003
 21
236.02500000000001
 31
0.0
  0
LINE
  5
F2
  8
0
 62
     7
 10
48.870699999999999
 20
235.70400000000001
 30
0.0
 11
47.870600000000003
 21
235.25099999999989
 31
0.0
  0
LINE
  5
F3
  8
0
 62
     7
 10
48.870699999999999
 20
234.93100000000001
 30
0.0
 11
47.870600000000003
 21
234.47799999999989
 31
0.0
  0
LINE
  5
F4
  8
0
 62
     7
 10
48.870699999999999
 20
234.1579999999999
 30
0.0
 11
47.870600000000003
 21
233.70500000000001
 31
0.0
  0
LINE
  5
F5
  8
0
 62
     7
 10
48.870699999999999
 20
233.38499999999991
 30
0.0
 11
47.870600000000003
 21
232.93199999999999
 31
0.0
  0
LINE
  5
F6
  8
0
 62
     7
 10
48.870699999999999
 20
232.6109999999999
 30
0.0
 11
47.870600000000003
 21
232.15899999999999
 31
0.0
  0
LINE
  5
F7
  8
0
 62
     7
 10
48.870699999999999
 20
231.83799999999991
 30
0.0
 11
47.870600000000003
 21
231.386
 31
0.0
  0
LINE
  5
F8
  8
0
 62
     7
 10
48.758400000000002
 20
230.392
 30
0.0
 11
47.982900000000001
 21
230.392
 31
0.0
  0
LINE
  5
F9
  8
0
 62
     7
 10
48.870699999999999
 20
231.06499999999991
 30
0.0
 11
47.870600000000003
 21
230.61199999999991
 31
0.0
  0
LINE
  5
FA
  8
0
 62
     7
 10
48.758400000000002
 20
228.142
 30
0.0
 11
48.758400000000002
 21
230.392
 31
0.0
  0
LINE
  5
FB
  8
0
 62
     7
 10
170.53
 20
112.146
 30
0.0
 11
171.327
 21
111.8659999999999
 31
0.0
  0
LINE
  5
FC
  8
0
 62
     7
 10
170.53
 20
111.58499999999999
 30
0.0
 11
171.327
 21
111.8659999999999
 31
0.0
  0
LINE
  5
FD
  8
0
 62
     7
 10
160.327
 20
112.25399999999991
 30
0.0
 11
162.57699999999991
 21
112.25399999999991
 31
0.0
  0
LINE
  5
FE
  8
0
 62
     7
 10
162.57699999999991
 20
111.58499999999999
 30
0.0
 11
170.53
 21
111.58499999999999
 31
0.0
  0
LINE
  5
FF
  8
0
 62
     7
 10
162.57699999999991
 20
112.146
 30
0.0
 11
170.53
 21
112.146
 31
0.0
  0
LINE
  5
100
  8
0
  6
AIGENLINE002
 62
     7
 10
158.80600000000001
 20
111.8659999999999
 30
0.0
 11
172.43899999999999
 21
111.8659999999999
 31
0.0
  0
LINE
  5
101
  8
0
 62
     7
 10
170.982
 20
111.36499999999999
 30
0.0
 11
170.529
 21
112.36499999999999
 31
0.0
  0
LINE
  5
102
  8
0
 62
     7
 10
170.209
 20
111.36499999999999
 30
0.0
 11
169.75599999999989
 21
112.36499999999999
 31
0.0
  0
LINE
  5
103
  8
0
 62
     7
 10
169.435
 20
111.36499999999999
 30
0.0
 11
168.983
 21
112.36499999999999
 31
0.0
  0
LINE
  5
104
  8
0
 62
     7
 10
168.66200000000001
 20
111.36499999999999
 30
0.0
 11
168.21000000000001
 21
112.36499999999999
 31
0.0
  0
LINE
  5
105
  8
0
 62
     7
 10
167.88900000000001
 20
111.36499999999999
 30
0.0
 11
167.43599999999989
 21
112.36499999999999
 31
0.0
  0
LINE
  5
106
  8
0
 62
     7
 10
167.1159999999999
 20
111.36499999999999
 30
0.0
 11
166.6629999999999
 21
112.36499999999999
 31
0.0
  0
LINE
  5
107
  8
0
 62
     7
 10
166.3429999999999
 20
111.36499999999999
 30
0.0
 11
165.8899999999999
 21
112.36499999999999
 31
0.0
  0
LINE
  5
108
  8
0
 62
     7
 10
165.56999999999991
 20
111.36499999999999
 30
0.0
 11
165.11699999999999
 21
112.36499999999999
 31
0.0
  0
LINE
  5
109
  8
0
 62
     7
 10
164.79599999999991
 20
111.36499999999999
 30
0.0
 11
164.34399999999999
 21
112.36499999999999
 31
0.0
  0
LINE
  5
10A
  8
0
 62
     7
 10
164.023
 20
111.36499999999999
 30
0.0
 11
163.57099999999991
 21
112.36499999999999
 31
0.0
  0
LINE
  5
10B
  8
0
 62
     7
 10
162.57699999999991
 20
111.47799999999989
 30
0.0
 11
162.57699999999991
 21
112.25399999999991
 31
0.0
  0
LINE
  5
10C
  8
0
 62
     7
 10
163.25
 20
111.36499999999999
 30
0.0
 11
162.79699999999991
 21
112.36499999999999
 31
0.0
  0
LINE
  5
10D
  8
0
 62
     7
 10
160.327
 20
111.47799999999989
 30
0.0
 11
162.57699999999991
 21
111.47799999999989
 31
0.0
  0
LINE
  5
10E
  8
0
 62
     7
 10
160.15199999999999
 20
119.3659999999999
 30
0.0
 11
181.22099999999989
 21
119.3659999999999
 31
0.0
  0
LINE
  5
10F
  8
0
 62
     7
 10
173.1399999999999
 20
111.8659999999999
 30
0.0
 11
176.02699999999999
 21
111.8659999999999
 31
0.0
  0
LINE
  5
110
  8
0
 62
     7
 10
170.53
 20
95.896199999999993
 30
0.0
 11
171.327
 21
95.615799999999993
 31
0.0
  0
LINE
  5
111
  8
0
 62
     7
 10
170.53
 20
95.334699999999984
 30
0.0
 11
171.327
 21
95.615799999999993
 31
0.0
  0
LINE
  5
112
  8
0
 62
     7
 10
160.327
 20
96.002999999999986
 30
0.0
 11
162.57699999999991
 21
96.002999999999986
 31
0.0
  0
LINE
  5
113
  8
0
 62
     7
 10
162.57699999999991
 20
95.334699999999984
 30
0.0
 11
170.53
 21
95.334699999999984
 31
0.0
  0
LINE
  5
114
  8
0
 62
     7
 10
162.57699999999991
 20
95.896199999999993
 30
0.0
 11
170.53
 21
95.896199999999993
 31
0.0
  0
LINE
  5
115
  8
0
  6
AIGENLINE002
 62
     7
 10
158.80600000000001
 20
95.615799999999993
 30
0.0
 11
172.43899999999999
 21
95.615799999999993
 31
0.0
  0
LINE
  5
116
  8
0
 62
     7
 10
170.982
 20
95.115600000000015
 30
0.0
 11
170.529
 21
96.115300000000005
 31
0.0
  0
LINE
  5
117
  8
0
 62
     7
 10
170.209
 20
95.115600000000015
 30
0.0
 11
169.75599999999989
 21
96.115300000000005
 31
0.0
  0
LINE
  5
118
  8
0
 62
     7
 10
169.435
 20
95.115600000000015
 30
0.0
 11
168.983
 21
96.115300000000005
 31
0.0
  0
LINE
  5
119
  8
0
 62
     7
 10
168.66200000000001
 20
95.115600000000015
 30
0.0
 11
168.21000000000001
 21
96.115300000000005
 31
0.0
  0
LINE
  5
11A
  8
0
 62
     7
 10
167.88900000000001
 20
95.115600000000015
 30
0.0
 11
167.43599999999989
 21
96.115300000000005
 31
0.0
  0
LINE
  5
11B
  8
0
 62
     7
 10
167.1159999999999
 20
95.115600000000015
 30
0.0
 11
166.6629999999999
 21
96.115300000000005
 31
0.0
  0
LINE
  5
11C
  8
0
 62
     7
 10
166.3429999999999
 20
95.115600000000015
 30
0.0
 11
165.8899999999999
 21
96.115300000000005
 31
0.0
  0
LINE
  5
11D
  8
0
 62
     7
 10
165.56999999999991
 20
95.115600000000015
 30
0.0
 11
165.11699999999999
 21
96.115300000000005
 31
0.0
  0
LINE
  5
11E
  8
0
 62
     7
 10
164.79599999999991
 20
95.115600000000015
 30
0.0
 11
164.34399999999999
 21
96.115300000000005
 31
0.0
  0
LINE
  5
11F
  8
0
 62
     7
 10
164.023
 20
95.115600000000015
 30
0.0
 11
163.57099999999991
 21
96.115300000000005
 31
0.0
  0
LINE
  5
120
  8
0
 62
     7
 10
162.57699999999991
 20
95.227900000000005
 30
0.0
 11
162.57699999999991
 21
96.002999999999986
 31
0.0
  0
LINE
  5
121
  8
0
 62
     7
 10
163.25
 20
95.115600000000015
 30
0.0
 11
162.79699999999991
 21
96.115300000000005
 31
0.0
  0
LINE
  5
122
  8
0
 62
     7
 10
160.327
 20
95.227900000000005
 30
0.0
 11
162.57699999999991
 21
95.227900000000005
 31
0.0
  0
LINE
  5
123
  8
0
 62
     7
 10
40.244799999999991
 20
222.03699999999989
 30
0.0
 11
40.360599999999991
 21
222.03699999999989
 31
0.0
  0
LINE
  5
124
  8
0
 62
     7
 10
51.380800000000001
 20
222.03699999999989
 30
0.0
 11
51.494900000000001
 21
222.03699999999989
 31
0.0
  0
LINE
  5
125
  8
0
 62
     7
 10
40.244799999999991
 20
227.03700000000001
 30
0.0
 11
40.360599999999991
 21
227.03700000000001
 31
0.0
  0
LINE
  5
126
  8
0
 62
     7
 10
51.380800000000001
 20
227.03700000000001
 30
0.0
 11
51.494900000000001
 21
227.03700000000001
 31
0.0
  0
LINE
  5
127
  8
0
 62
     7
 10
40.244799999999991
 20
213.07400000000001
 30
0.0
 11
51.494900000000001
 21
213.07400000000001
 31
0.0
  0
LINE
  5
128
  8
0
 62
     7
 10
40.244799999999991
 20
208.32199999999989
 30
0.0
 11
51.494900000000001
 21
208.32199999999989
 31
0.0
  0
LINE
  5
129
  8
0
 62
     7
 10
51.379100000000001
 20
208.07400000000001
 30
0.0
 11
51.494900000000001
 21
208.07400000000001
 31
0.0
  0
LINE
  5
12A
  8
0
 62
     7
 10
51.494900000000001
 20
213.07400000000001
 30
0.0
 11
51.494900000000001
 21
208.07400000000001
 31
0.0
  0
LINE
  5
12B
  8
0
 62
     7
 10
40.360599999999991
 20
208.07400000000001
 30
0.0
 11
40.244799999999991
 21
208.07400000000001
 31
0.0
  0
LINE
  5
12C
  8
0
 62
     7
 10
51.380800000000001
 20
223.8309999999999
 30
0.0
 11
40.360599999999991
 21
223.8309999999999
 31
0.0
  0
LINE
  5
12D
  8
0
 62
     7
 10
51.380800000000001
 20
224.76699999999991
 30
0.0
 11
40.360599999999991
 21
224.76699999999991
 31
0.0
  0
LINE
  5
12E
  8
0
 62
     7
 10
50.87060000000001
 20
228.142
 30
0.0
 11
40.8705
 21
228.142
 31
0.0
  0
LINE
  5
12F
  8
0
 62
     7
 10
51.380800000000001
 20
227.267
 30
0.0
 11
40.360599999999991
 21
227.267
 31
0.0
  0
ARC
  5
130
  8
0
 62
     7
 10
45.870702000000001
 20
203.10344399999991
 30
0.0
 40
2.1249489999999991
 50
270.00002000000001
 51
359.99998999999991
  0
ARC
  5
131
  8
0
 62
     7
 10
45.870702000000001
 20
203.103443
 30
0.0
 40
2.1249479999999989
 50
179.99996999999991
 51
270.00002000000001
  0
ARC
  5
132
  8
0
 62
     7
 10
45.870702999999999
 20
203.103443
 30
0.0
 40
2.1249489999999991
 50
90.0
 51
179.99996999999991
  0
ARC
  5
133
  8
0
 62
     7
 10
45.870702000000001
 20
203.103443
 30
0.0
 40
2.1249489999999991
 50
0.00001
 51
89.999980000000008
  0
ARC
  5
134
  8
0
 62
     7
 10
45.87078799999999
 20
203.10353000000001
 30
0.0
 40
5.5100350000000002
 50
269.99912399999999
 51
359.99909400000001
  0
ARC
  5
135
  8
0
 62
     7
 10
45.870615999999998
 20
203.10352800000001
 30
0.0
 40
5.5100329999999991
 50
180.00090599999999
 51
270.00091499999991
  0
LINE
  5
136
  8
0
  6
AIGENLINE001
 62
     7
 10
156.36799999999991
 20
69.213800000000006
 30
0.0
 11
156.36799999999991
 21
69.390199999999993
 31
0.0
  0
ARC
  5
137
  8
0
  6
AIGENLINE001
 62
     7
 10
156.79072500000001
 20
71.921982999999997
 30
0.0
 40
2.8229969999999991
 50
184.22000099999991
 51
253.60424099999989
  0
ARC
  5
138
  8
0
  6
AIGENLINE001
 62
     7
 10
105.2114959999999
 20
70.405338
 30
0.0
 40
2.2070150000000002
 50
347.90169199999991
 51
73.71942
  0
ARC
  5
139
  8
0
  6
AIGENLINE001
 62
     7
 10
105.250282
 20
70.562652999999983
 30
0.0
 40
2.2080079999999991
 50
257.92566399999998
 51
343.695469
  0
ARC
  5
13A
  8
0
  6
AIGENLINE001
 62
     7
 10
105.40859399999989
 20
70.523004999999998
 30
0.0
 40
2.2083849999999989
 50
167.91750400000001
 51
253.69015400000001
  0
ARC
  5
13B
  8
0
  6
AIGENLINE001
 62
     7
 10
105.367683
 20
70.365517000000011
 30
0.0
 40
2.2073390000000002
 50
77.904482999999999
 51
163.69404199999991
  0
ARC
  5
13C
  8
0
  6
AIGENLINE001
 62
     7
 10
105.19314199999999
 20
70.394743000000005
 30
0.0
 40
2.597334
 50
347.91889500000002
 51
73.698377000000008
  0
ARC
  5
13D
  8
0
  6
AIGENLINE001
 62
     7
 10
105.24011
 20
70.580062999999996
 30
0.0
 40
2.597229
 50
257.91676200000001
 51
343.7005299999999
  0
ARC
  5
13E
  8
0
  6
AIGENLINE001
 62
     7
 10
105.425479
 20
70.533291000000006
 30
0.0
 40
2.5973329999999999
 50
167.91885799999989
 51
253.69841400000001
  0
ARC
  5
13F
  8
0
  6
AIGENLINE001
 62
     7
 10
105.378512
 20
70.347969999999989
 30
0.0
 40
2.597229
 50
77.916743000000011
 51
163.70051000000001
  0
LINE
  5
140
  8
0
  6
AIGENLINE001
 62
     7
 10
107.47499999999989
 20
69.213800000000006
 30
0.0
 11
156.36799999999991
 21
69.213800000000006
 31
0.0
  0
LINE
  5
141
  8
0
  6
AIGENLINE001
 62
     7
 10
107.474
 20
71.714299999999994
 30
0.0
 11
154.22599999999991
 21
71.714299999999994
 31
0.0
  0
ARC
  5
142
  8
0
  6
AIGENLINE001
 62
     7
 10
-128.0419259999999
 20
-144.983056
 30
0.0
 40
359.87365799999998
 50
40.789230999999987
 51
42.149190999999988
  0
ARC
  5
143
  8
0
  6
AIGENLINE001
 62
     7
 10
-159.17682500000001
 20
-172.5804389999999
 30
0.0
 40
401.47689800000001
 50
42.087425999999986
 51
43.395482000000001
  0
ARC
  5
144
  8
0
  6
AIGENLINE001
 62
     7
 10
-43.253314999999994
 20
-63.260306999999997
 30
0.0
 40
242.1373879999999
 50
43.444653000000002
 51
44.296649000000002
  0
ARC
  5
145
  8
0
  6
AIGENLINE001
 62
     7
 10
44.966011999999992
 20
22.708112
 30
0.0
 40
118.9578199999999
 50
44.334967999999989
 51
45.24042
  0
ARC
  5
146
  8
0
  6
AIGENLINE001
 62
     7
 10
65.074611000000004
 20
42.787193999999992
 30
0.0
 40
90.541283000000007
 50
45.329087999999999
 51
45.887307000000007
  0
ARC
  5
147
  8
0
  6
AIGENLINE001
 62
     7
 10
13.42556499999999
 20
-10.494299
 30
0.0
 40
164.74735799999999
 50
45.889104000000003
 51
46.93093799999999
  0
ARC
  5
148
  8
0
  6
AIGENLINE001
 62
     7
 10
-90.272389000000004
 20
-120.882931
 30
0.0
 40
316.20310599999988
 50
46.863446000000003
 51
48.008889000000003
  0
ARC
  5
149
  8
0
  6
AIGENLINE001
 62
     7
 10
-149.5931919999999
 20
-186.05564199999989
 30
0.0
 40
404.32945299999989
 50
47.939655999999992
 51
49.780164999999997
  0
ARC
  5
14A
  8
0
  6
AIGENLINE001
 62
     7
 10
95.773888999999997
 20
73.861659000000003
 30
0.0
 40
53.657555000000002
 50
42.736612000000001
 51
45.312594999999988
  0
ARC
  5
14B
  8
0
  6
AIGENLINE001
 62
     7
 10
82.505990999999995
 20
61.447966000000001
 30
0.0
 40
71.826957999999991
 50
39.520138000000003
 51
42.82726199999999
  0
ARC
  5
14C
  8
0
  6
AIGENLINE001
 62
     7
 10
66.914132999999993
 20
48.38823099999999
 30
0.0
 40
92.165212999999994
 50
27.884231
 51
39.614893000000002
  0
ARC
  5
14D
  8
0
  6
AIGENLINE001
 62
     7
 10
-125.7052489999999
 20
-142.655046
 30
0.0
 40
359.239237
 50
40.785138000000003
 51
42.147535999999988
  0
ARC
  5
14E
  8
0
  6
AIGENLINE001
 62
     7
 10
-157.14698499999989
 20
-170.54118500000001
 30
0.0
 40
401.26374199999992
 50
42.087077999999998
 51
43.395828999999992
  0
ARC
  5
14F
  8
0
  6
AIGENLINE001
 62
     7
 10
-41.156937999999997
 20
-61.160947
 30
0.0
 40
241.83459300000001
 50
43.445774
 51
44.298785000000002
  0
ARC
  5
150
  8
0
  6
AIGENLINE001
 62
     7
 10
47.013328000000001
 20
24.766922999999998
 30
0.0
 40
118.718461
 50
44.336869
 51
45.244036999999999
  0
ARC
  5
151
  8
0
  6
AIGENLINE001
 62
     7
 10
67.814020999999997
 20
45.577075999999991
 30
0.0
 40
89.295466000000005
 50
45.320157999999992
 51
45.886222999999987
  0
ARC
  5
152
  8
0
  6
AIGENLINE001
 62
     7
 10
15.746366
 20
-8.121874
 30
0.0
 40
164.092645
 50
45.885040000000011
 51
46.931080999999992
  0
ARC
  5
153
  8
0
  6
AIGENLINE001
 62
     7
 10
-87.946095999999983
 20
-118.499343
 30
0.0
 40
315.53649200000001
 50
46.862721999999991
 51
48.010610999999997
  0
ARC
  5
154
  8
0
  6
AIGENLINE001
 62
     7
 10
-148.169017
 20
-184.66772999999989
 30
0.0
 40
405.00639899999999
 50
47.940494000000001
 51
49.777974999999998
  0
ARC
  5
155
  8
0
  6
AIGENLINE001
 62
     7
 10
149.48685599999999
 20
99.683228000000014
 30
0.0
 40
8.3106469999999995
 50
247.43604099999999
 51
255.970416
  0
ARC
  5
156
  8
0
  6
AIGENLINE001
 62
     7
 10
148.741221
 20
96.835982999999985
 30
0.0
 40
5.3676779999999988
 50
256.32432199999988
 51
262.05570799999998
  0
ARC
  5
157
  8
0
  6
AIGENLINE001
 62
     7
 10
148.400159
 20
94.455849999999984
 30
0.0
 40
2.963261999999999
 50
262.22643699999998
 51
269.58014800000001
  0
ARC
  5
158
  8
0
  6
AIGENLINE001
 62
     7
 10
147.60462999999999
 20
97.747522000000004
 30
0.0
 40
8.2687559999999998
 50
247.38381199999989
 51
255.96083400000001
  0
ARC
  5
159
  8
0
  6
AIGENLINE001
 62
     7
 10
146.866151
 20
94.928281999999996
 30
0.0
 40
5.3546800000000001
 50
256.30874699999998
 51
262.05375299999992
  0
ARC
  5
15A
  8
0
  6
AIGENLINE001
 62
     7
 10
146.52669399999999
 20
92.559735000000003
 30
0.0
 40
2.9619610000000001
 50
262.22319499999998
 51
269.580153
  0
LINE
  5
15B
  8
0
  6
AIGENLINE001
 62
     7
 10
146.29799999999989
 20
92.008700000000005
 30
0.0
 11
144.42500000000001
 21
90.114599999999996
 31
0.0
  0
LINE
  5
15C
  8
0
  6
AIGENLINE001
 62
     7
 10
148.3779999999999
 20
91.492699999999985
 30
0.0
 11
146.50499999999991
 21
89.597899999999996
 31
0.0
  0
ARC
  5
15D
  8
0
  6
AIGENLINE001
 62
     7
 10
95.780173000000005
 20
73.843951000000004
 30
0.0
 40
53.665728000000001
 50
45.330659999999988
 51
47.906335000000013
  0
ARC
  5
15E
  8
0
  6
AIGENLINE001
 62
     7
 10
83.559469999999976
 20
60.485263000000003
 30
0.0
 40
71.770713000000001
 50
47.815767000000001
 51
51.125568999999992
  0
ARC
  5
15F
  8
0
  6
AIGENLINE001
 62
     7
 10
70.650231999999974
 20
44.720126999999998
 30
0.0
 40
92.146411999999998
 50
51.028757000000013
 51
62.76200799999998
  0
ARC
  5
160
  8
0
  6
AIGENLINE001
 62
     7
 10
120.978087
 20
127.8427649999999
 30
0.0
 40
8.2857440000000011
 50
194.67508399999991
 51
203.234635
  0
ARC
  5
161
  8
0
  6
AIGENLINE001
 62
     7
 10
118.160338
 20
127.071091
 30
0.0
 40
5.364522
 50
188.590678
 51
194.326255
  0
ARC
  5
162
  8
0
  6
AIGENLINE001
 62
     7
 10
115.79771699999991
 20
126.705179
 30
0.0
 40
2.9737640000000001
 50
181.088043
 51
188.41934099999989
  0
ARC
  5
163
  8
0
  6
AIGENLINE001
 62
     7
 10
119.11546899999991
 20
125.95244099999999
 30
0.0
 40
8.2971579999999996
 50
194.686497
 51
203.23454299999989
  0
ARC
  5
164
  8
0
  6
AIGENLINE001
 62
     7
 10
116.2798669999999
 20
125.17492
 30
0.0
 40
5.3571799999999996
 50
188.58785999999989
 51
194.33132599999999
  0
ARC
  5
165
  8
0
  6
AIGENLINE001
 62
     7
 10
113.913224
 20
124.808336
 30
0.0
 40
2.962345
 50
181.05298799999991
 51
188.412362
  0
LINE
  5
166
  8
0
  6
AIGENLINE001
 62
     7
 10
113.3639999999999
 20
124.574
 30
0.0
 11
111.491
 21
122.679
 31
0.0
  0
LINE
  5
167
  8
0
  6
AIGENLINE001
 62
     7
 10
112.8239999999999
 20
126.649
 30
0.0
 11
110.95099999999989
 21
124.75399999999991
 31
0.0
  0
LINE
  5
168
  8
0
  6
AIGENLINE001
 62
     7
 10
137.6109999999999
 20
116.26600000000001
 30
0.0
 11
140.64199999999991
 21
119.331
 31
0.0
  0
LINE
  5
169
  8
0
  6
AIGENLINE001
 62
     7
 10
133.49899999999991
 20
112.267
 30
0.0
 11
133.57900000000001
 21
112.1879999999999
 31
0.0
  0
LINE
  5
16A
  8
0
  6
AIGENLINE001
 62
     7
 10
133.57900000000001
 20
112.1879999999999
 30
0.0
 11
133.71100000000001
 21
112.321
 31
0.0
  0
LINE
  5
16B
  8
0
  6
AIGENLINE001
 62
     7
 10
133.71100000000001
 20
112.321
 30
0.0
 11
134.10599999999991
 21
112.721
 31
0.0
  0
LINE
  5
16C
  8
0
  6
AIGENLINE001
 62
     7
 10
134.10599999999991
 20
112.721
 30
0.0
 11
134.739
 21
113.361
 31
0.0
  0
LINE
  5
16D
  8
0
  6
AIGENLINE001
 62
     7
 10
134.739
 20
113.361
 30
0.0
 11
135.55500000000001
 21
114.187
 31
0.0
  0
LINE
  5
16E
  8
0
  6
AIGENLINE001
 62
     7
 10
135.55500000000001
 20
114.187
 30
0.0
 11
136.52999999999989
 21
115.1729999999999
 31
0.0
  0
LINE
  5
16F
  8
0
  6
AIGENLINE001
 62
     7
 10
136.52999999999989
 20
115.1729999999999
 30
0.0
 11
137.6109999999999
 21
116.26600000000001
 31
0.0
  0
LINE
  5
170
  8
0
  6
AIGENLINE001
 62
     7
 10
141.46700000000001
 20
118.7259999999999
 30
0.0
 11
141.7949999999999
 21
119.05799999999989
 31
0.0
  0
LINE
  5
171
  8
0
  6
AIGENLINE001
 62
     7
 10
140.40299999999991
 20
120.5289999999999
 30
0.0
 11
132.85900000000001
 21
112.90000000000001
 31
0.0
  0
LINE
  5
172
  8
0
  6
AIGENLINE001
 62
     7
 10
132.93899999999991
 20
112.8209999999999
 30
0.0
 11
133.49899999999991
 21
112.267
 31
0.0
  0
LINE
  5
173
  8
0
  6
AIGENLINE001
 62
     7
 10
140.721
 20
119.411
 30
0.0
 11
141.44
 21
118.6989999999999
 31
0.0
  0
LINE
  5
174
  8
0
  6
AIGENLINE001
 62
     7
 10
141.44
 20
118.6989999999999
 30
0.0
 11
141.46700000000001
 21
118.7259999999999
 31
0.0
  0
LINE
  5
175
  8
0
  6
AIGENLINE001
 62
     7
 10
140.64199999999991
 20
119.331
 30
0.0
 11
140.721
 21
119.411
 31
0.0
  0
LINE
  5
176
  8
0
  6
AIGENLINE001
 62
     7
 10
132.85900000000001
 20
112.90000000000001
 30
0.0
 11
132.93899999999991
 21
112.8209999999999
 31
0.0
  0
LINE
  5
177
  8
0
  6
AIGENLINE001
 62
     7
 10
134.16799999999989
 20
111.345
 30
0.0
 11
141.36099999999999
 21
118.62
 31
0.0
  0
LINE
  5
178
  8
0
  6
AIGENLINE001
 62
     7
 10
140.66800000000001
 20
119.304
 30
0.0
 11
133.48099999999999
 21
112.036
 31
0.0
  0
LINE
  5
179
  8
0
  6
AIGENLINE001
 62
     7
 10
141.36099999999999
 20
118.62
 30
0.0
 11
140.66800000000001
 21
119.304
 31
0.0
  0
LINE
  5
17A
  8
0
 62
     7
 10
154.06399999999991
 20
71.558499999999995
 30
0.0
 11
154.2359999999999
 21
71.601900000000001
 31
0.0
  0
ARC
  5
17B
  8
0
 62
     7
 10
156.796076
 20
71.810507000000001
 30
0.0
 40
2.825609
 50
108.441424
 51
177.75978599999999
  0
LINE
  5
17C
  8
0
 62
     7
 10
159.45199999999991
 20
73.311400000000006
 30
0.0
 11
160.327
 21
73.311400000000006
 31
0.0
  0
LINE
  5
17D
  8
0
 62
     7
 10
159.15600000000001
 20
72.436300000000003
 30
0.0
 11
159.45199999999991
 21
72.436300000000003
 31
0.0
  0
LINE
  5
17E
  8
0
 62
     7
 10
160.327
 20
73.311400000000006
 30
0.0
 11
160.327
 21
118.491
 31
0.0
  0
LINE
  5
17F
  8
0
 62
     7
 10
159.45199999999991
 20
72.436300000000003
 30
0.0
 11
159.45199999999991
 21
119.3659999999999
 31
0.0
  0
LINE
  5
180
  8
0
 62
     7
 10
156.95199999999991
 20
74.354600000000005
 30
0.0
 11
156.95199999999991
 21
119.3659999999999
 31
0.0
  0
LINE
  5
181
  8
0
 62
     7
 10
159.45199999999991
 20
118.491
 30
0.0
 11
160.327
 21
118.491
 31
0.0
  0
LINE
  5
182
  8
0
 62
     7
 10
156.95199999999991
 20
119.3659999999999
 30
0.0
 11
159.45199999999991
 21
119.3659999999999
 31
0.0
  0
LINE
  5
183
  8
0
  6
AIGENLINE002
 62
     7
 10
152.75
 20
71.865099999999998
 30
0.0
 11
160.989
 21
71.865099999999998
 31
0.0
  0
LINE
  5
184
  8
0
  6
AIGENLINE002
 62
     7
 10
156.72200000000001
 20
68.203000000000003
 30
0.0
 11
156.72200000000001
 21
75.435000000000002
 31
0.0
  0
ARC
  5
185
  8
0
 62
     7
 10
156.72217399999991
 20
71.865146999999993
 30
0.0
 40
2.1249489999999991
 50
270.00002000000001
 51
359.99998999999991
  0
ARC
  5
186
  8
0
 62
     7
 10
156.72217399999991
 20
71.865145999999996
 30
0.0
 40
2.1249479999999989
 50
179.99996999999991
 51
270.00002000000001
  0
ARC
  5
187
  8
0
 62
     7
 10
156.8034759999999
 20
71.783843999999974
 30
0.0
 40
2.207748
 50
92.110434999999995
 51
177.889535
  0
ARC
  5
188
  8
0
 62
     7
 10
156.640861
 20
71.783833000000001
 30
0.0
 40
2.2077589999999989
 50
2.1107109999999998
 51
87.889279000000002
  0
ARC
  5
189
  8
0
 62
     7
 10
156.7223459999999
 20
71.865319
 30
0.0
 40
2.4999500000000001
 50
269.99607200000003
 51
359.99604199999987
  0
ARC
  5
18A
  8
0
 62
     7
 10
156.72200099999989
 20
71.865318000000002
 30
0.0
 40
2.4999489999999991
 50
180.00395800000001
 51
270.00396799999999
  0
ARC
  5
18B
  8
0
 62
     7
 10
156.7223469999999
 20
71.865318000000002
 30
0.0
 40
2.5002939999999989
 50
90.003946999999997
 51
180.00395700000001
  0
ARC
  5
18C
  8
0
 62
     7
 10
156.72200099999989
 20
71.865318000000002
 30
0.0
 40
2.5002939999999989
 50
359.99606299999988
 51
89.996032999999997
  0
LINE
  5
18D
  8
0
  6
AIGENLINE002
 62
     7
 10
142.7589999999999
 20
117.703
 30
0.0
 11
142.7589999999999
 21
124.9349999999999
 31
0.0
  0
ARC
  5
18E
  8
0
 62
     7
 10
142.7591129999999
 20
121.3652799999999
 30
0.0
 40
2.1249489999999991
 50
270.00002000000001
 51
359.99998999999991
  0
ARC
  5
18F
  8
0
 62
     7
 10
142.7591129999999
 20
121.3652799999999
 30
0.0
 40
2.1249479999999989
 50
179.99996999999991
 51
270.00002000000001
  0
ARC
  5
190
  8
0
 62
     7
 10
142.75945899999999
 20
121.3656239999999
 30
0.0
 40
2.1252930000000001
 50
90.009287999999984
 51
180.009298
  0
ARC
  5
191
  8
0
 62
     7
 10
142.758769
 20
121.3656239999999
 30
0.0
 40
2.1252930000000001
 50
359.99072199999989
 51
89.990691999999996
  0
ARC
  5
192
  8
0
  6
AIGENLINE001
 62
     7
 10
-5.8488699999999989
 20
70.473431999999988
 30
0.0
 40
91.202683999999977
 50
359.43970599999989
 51
359.99386900000002
  0
ARC
  5
193
  8
0
  6
AIGENLINE001
 62
     7
 10
-79.268193999999994
 20
71.204030000000003
 30
0.0
 40
164.625642
 50
358.39272999999997
 51
359.435318
  0
ARC
  5
194
  8
0
  6
AIGENLINE001
 62
     7
 10
-230.7607919999999
 20
75.084581999999983
 30
0.0
 40
316.16769799999992
 50
357.31423699999988
 51
358.45980200000002
  0
ARC
  5
195
  8
0
  6
AIGENLINE001
 62
     7
 10
-318.52243799999991
 20
78.711264999999983
 30
0.0
 40
404.00317899999988
 50
355.54164400000002
 51
357.38367999999991
  0
ARC
  5
196
  8
0
  6
AIGENLINE001
 62
     7
 10
38.541688000000001
 20
70.470267000000007
 30
0.0
 40
53.610031000000014
 50
357.41477500000002
 51
359.99295199999989
  0
ARC
  5
197
  8
0
  6
AIGENLINE001
 62
     7
 10
20.360298999999991
 20
71.177246999999994
 30
0.0
 40
71.804895000000002
 50
354.19745399999999
 51
357.50559500000003
  0
ARC
  5
198
  8
0
  6
AIGENLINE001
 62
     7
 10
0.114639
 20
73.078739999999996
 30
0.0
 40
92.139193000000006
 50
342.55990200000002
 51
354.29389900000001
  0
ARC
  5
199
  8
0
  6
AIGENLINE001
 62
     7
 10
-3.0541979999999991
 20
70.473343999999997
 30
0.0
 40
91.072466000000006
 50
359.43895999999989
 51
359.99391500000002
  0
ARC
  5
19A
  8
0
  6
AIGENLINE001
 62
     7
 10
-76.518383999999983
 20
71.204481000000001
 30
0.0
 40
164.54029
 50
358.39173899999997
 51
359.43486799999988
  0
ARC
  5
19B
  8
0
  6
AIGENLINE001
 62
     7
 10
-228.2251399999999
 20
75.093640000000008
 30
0.0
 40
316.29665399999988
 50
357.31369000000001
 51
358.45878799999991
  0
ARC
  5
19C
  8
0
  6
AIGENLINE001
 62
     7
 10
-316.38406499999991
 20
78.739757999999995
 30
0.0
 40
404.52988299999998
 50
355.54341299999999
 51
357.38304900000003
  0
ARC
  5
19D
  8
0
  6
AIGENLINE001
 62
     7
 10
94.566321999999985
 20
50.404691
 30
0.0
 40
8.2477129999999992
 50
202.06566499999991
 51
210.6647319999999
  0
ARC
  5
19E
  8
0
  6
AIGENLINE001
 62
     7
 10
92.06740400000001
 20
48.959192999999999
 30
0.0
 40
5.3610949999999988
 50
210.99724800000001
 51
216.73638099999991
  0
ARC
  5
19F
  8
0
  6
AIGENLINE001
 62
     7
 10
90.144953999999984
 20
47.535162999999997
 30
0.0
 40
2.9687030000000001
 50
216.90370999999999
 51
224.244518
  0
ARC
  5
1A0
  8
0
  6
AIGENLINE001
 62
     7
 10
91.940246999999985
 20
50.424545000000002
 30
0.0
 40
8.2907410000000006
 50
202.09318500000001
 51
210.64793800000001
  0
ARC
  5
1A1
  8
0
  6
AIGENLINE001
 62
     7
 10
89.404595999999998
 20
48.959381
 30
0.0
 40
5.3624919999999987
 50
210.99061900000001
 51
216.72774100000001
  0
ARC
  5
1A2
  8
0
  6
AIGENLINE001
 62
     7
 10
87.477229000000008
 20
47.532008000000012
 30
0.0
 40
2.964159
 50
216.893415
 51
224.2449509999999
  0
LINE
  5
1A3
  8
0
  6
AIGENLINE001
 62
     7
 10
86.922700000000006
 20
47.3063
 30
0.0
 11
84.258300000000006
 21
47.3063
 31
0.0
  0
LINE
  5
1A4
  8
0
  6
AIGENLINE001
 62
     7
 10
88.018299999999996
 20
45.463799999999999
 30
0.0
 11
85.353800000000007
 21
45.463799999999999
 31
0.0
  0
ARC
  5
1A5
  8
0
  6
AIGENLINE001
 62
     7
 10
-5.8740629999999987
 20
70.453913999999983
 30
0.0
 40
91.227877000000007
 50
0.006129
 51
0.560217
  0
ARC
  5
1A6
  8
0
  6
AIGENLINE001
 62
     7
 10
-79.290564000000003
 20
69.723412999999994
 30
0.0
 40
164.64801099999991
 50
0.5646140000000001
 51
1.6071500000000001
  0
ARC
  5
1A7
  8
0
  6
AIGENLINE001
 62
     7
 10
-230.76136600000001
 20
65.843667000000011
 30
0.0
 40
316.16825799999992
 50
1.5401009999999991
 51
2.6857060000000001
  0
ARC
  5
1A8
  8
0
  6
AIGENLINE001
 62
     7
 10
-318.51655499999993
 20
62.217239999999997
 30
0.0
 40
403.997277
 50
2.6162809999999999
 51
4.458353999999999
  0
ARC
  5
1A9
  8
0
  6
AIGENLINE001
 62
     7
 10
38.532801999999997
 20
70.457081999999986
 30
0.0
 40
53.61891700000001
 50
0.007042
 51
2.5850110000000002
  0
ARC
  5
1AA
  8
0
  6
AIGENLINE001
 62
     7
 10
20.356501000000002
 20
69.750244999999993
 30
0.0
 40
71.808691999999994
 50
2.4943200000000001
 51
5.802384
  0
ARC
  5
1AB
  8
0
  6
AIGENLINE001
 62
     7
 10
0.109346
 20
67.848388999999997
 30
0.0
 40
92.144513000000003
 50
5.706110999999999
 51
17.439647999999998
  0
ARC
  5
1AC
  8
0
  6
AIGENLINE001
 62
     7
 10
-3.0793550000000001
 20
70.454002000000003
 30
0.0
 40
91.097622999999984
 50
0.006082
 51
0.560962
  0
ARC
  5
1AD
  8
0
  6
AIGENLINE001
 62
     7
 10
-76.540742000000009
 20
69.722961999999995
 30
0.0
 40
164.562646
 50
0.565064
 51
1.6081409999999989
  0
ARC
  5
1AE
  8
0
  6
AIGENLINE001
 62
     7
 10
-228.22569299999989
 20
65.834609999999984
 30
0.0
 40
316.29719199999988
 50
1.541113999999999
 51
2.6862529999999989
  0
ARC
  5
1AF
  8
0
  6
AIGENLINE001
 62
     7
 10
-316.37815899999993
 20
62.188747999999997
 30
0.0
 40
404.52395899999988
 50
2.6169119999999988
 51
4.4565849999999987
  0
ARC
  5
1B0
  8
0
  6
AIGENLINE001
 62
     7
 10
94.566321999999985
 20
90.523343000000011
 30
0.0
 40
8.2477129999999992
 50
149.3352679999999
 51
157.934335
  0
ARC
  5
1B1
  8
0
  6
AIGENLINE001
 62
     7
 10
92.068163999999996
 20
91.968368999999996
 30
0.0
 40
5.3619899999999996
 50
143.26439500000001
 51
149.0026169999999
  0
ARC
  5
1B2
  8
0
  6
AIGENLINE001
 62
     7
 10
90.145965000000004
 20
93.391970999999984
 30
0.0
 40
2.970054999999999
 50
135.75666699999991
 51
143.09404900000001
  0
ARC
  5
1B3
  8
0
  6
AIGENLINE001
 62
     7
 10
91.940246999999985
 20
90.503489000000016
 30
0.0
 40
8.2907410000000006
 50
149.35206199999999
 51
157.90681499999991
  0
ARC
  5
1B4
  8
0
  6
AIGENLINE001
 62
     7
 10
89.405357999999993
 20
91.968180999999987
 30
0.0
 40
5.3633879999999987
 50
143.27303399999991
 51
149.00924599999991
  0
ARC
  5
1B5
  8
0
  6
AIGENLINE001
 62
     7
 10
87.478238000000005
 20
93.395128999999997
 30
0.0
 40
2.9655070000000001
 50
135.756235
 51
143.104344
  0
LINE
  5
1B6
  8
0
  6
AIGENLINE001
 62
     7
 10
86.922700000000006
 20
93.621799999999993
 30
0.0
 11
84.258300000000006
 21
93.621799999999993
 31
0.0
  0
LINE
  5
1B7
  8
0
  6
AIGENLINE001
 62
     7
 10
88.018299999999996
 20
95.464200000000005
 30
0.0
 11
85.353800000000007
 21
95.464200000000005
 31
0.0
  0
LINE
  5
1B8
  8
0
  6
AIGENLINE001
 62
     7
 10
98.063199999999995
 20
70.538799999999995
 30
0.0
 11
102.3739999999999
 21
70.538799999999995
 31
0.0
  0
LINE
  5
1B9
  8
0
  6
AIGENLINE001
 62
     7
 10
92.328799999999987
 20
70.651799999999994
 30
0.0
 11
92.328799999999987
 21
70.538799999999995
 31
0.0
  0
LINE
  5
1BA
  8
0
  6
AIGENLINE001
 62
     7
 10
92.328799999999987
 20
70.538799999999995
 30
0.0
 11
92.515900000000002
 21
70.538799999999995
 31
0.0
  0
LINE
  5
1BB
  8
0
  6
AIGENLINE001
 62
     7
 10
92.515900000000002
 20
70.538799999999995
 30
0.0
 11
93.078100000000006
 21
70.538799999999995
 31
0.0
  0
LINE
  5
1BC
  8
0
  6
AIGENLINE001
 62
     7
 10
93.078100000000006
 20
70.538799999999995
 30
0.0
 11
93.977599999999995
 21
70.538799999999995
 31
0.0
  0
LINE
  5
1BD
  8
0
  6
AIGENLINE001
 62
     7
 10
93.977599999999995
 20
70.538799999999995
 30
0.0
 11
95.139700000000005
 21
70.538799999999995
 31
0.0
  0
LINE
  5
1BE
  8
0
  6
AIGENLINE001
 62
     7
 10
95.139700000000005
 20
70.538799999999995
 30
0.0
 11
96.52630000000002
 21
70.538799999999995
 31
0.0
  0
LINE
  5
1BF
  8
0
  6
AIGENLINE001
 62
     7
 10
96.52630000000002
 20
70.538799999999995
 30
0.0
 11
98.063199999999995
 21
70.538799999999995
 31
0.0
  0
LINE
  5
1C0
  8
0
  6
AIGENLINE001
 62
     7
 10
102.5239999999999
 20
69.527299999999997
 30
0.0
 11
102.991
 21
69.527299999999997
 31
0.0
  0
LINE
  5
1C1
  8
0
  6
AIGENLINE001
 62
     7
 10
103.05800000000001
 20
71.551000000000002
 30
0.0
 11
92.328799999999987
 21
71.551000000000002
 31
0.0
  0
LINE
  5
1C2
  8
0
  6
AIGENLINE001
 62
     7
 10
92.328799999999987
 20
71.438599999999994
 30
0.0
 11
92.328799999999987
 21
70.651799999999994
 31
0.0
  0
LINE
  5
1C3
  8
0
  6
AIGENLINE001
 62
     7
 10
102.486
 20
70.538799999999995
 30
0.0
 11
102.486
 21
69.527299999999997
 31
0.0
  0
LINE
  5
1C4
  8
0
  6
AIGENLINE001
 62
     7
 10
102.486
 20
69.527299999999997
 30
0.0
 11
102.5239999999999
 21
69.527299999999997
 31
0.0
  0
LINE
  5
1C5
  8
0
  6
AIGENLINE001
 62
     7
 10
102.3739999999999
 20
70.538799999999995
 30
0.0
 11
102.486
 21
70.538799999999995
 31
0.0
  0
LINE
  5
1C6
  8
0
  6
AIGENLINE001
 62
     7
 10
92.328799999999987
 20
71.551000000000002
 30
0.0
 11
92.328799999999987
 21
71.438599999999994
 31
0.0
  0
LINE
  5
1C7
  8
0
  6
AIGENLINE001
 62
     7
 10
92.143100000000004
 20
69.527299999999997
 30
0.0
 11
102.3739999999999
 21
69.527299999999997
 31
0.0
  0
LINE
  5
1C8
  8
0
  6
AIGENLINE001
 62
     7
 10
102.3739999999999
 20
70.501599999999996
 30
0.0
 11
92.151700000000005
 21
70.501599999999996
 31
0.0
  0
LINE
  5
1C9
  8
0
  6
AIGENLINE001
 62
     7
 10
102.3739999999999
 20
69.527299999999997
 30
0.0
 11
102.3739999999999
 21
70.501599999999996
 31
0.0
  0
ARC
  5
1CA
  8
0
 62
     7
 10
142.6636419999999
 20
121.46111000000001
 30
0.0
 40
2.5973619999999991
 50
272.10651999999999
 51
357.88559399999991
  0
ARC
  5
1CB
  8
0
 62
     7
 10
142.8548899999999
 20
121.46141399999991
 30
0.0
 40
2.597677
 50
182.12088499999999
 51
267.88704000000001
  0
ARC
  5
1CC
  8
0
 62
     7
 10
142.759286
 20
121.365452
 30
0.0
 40
2.5002939999999989
 50
90.003946999999997
 51
180.00395700000001
  0
ARC
  5
1CD
  8
0
 62
     7
 10
142.75894099999991
 20
121.365452
 30
0.0
 40
2.5002939999999989
 50
359.99606299999988
 51
89.996032999999997
  0
ARC
  5
1CE
  8
0
 62
     7
 10
32.69612399999999
 20
121.36962
 30
0.0
 40
90.107493000000005
 50
359.43633799999992
 51
359.99723999999992
  0
ARC
  5
1CF
  8
0
 62
     7
 10
-41.775292999999991
 20
122.105127
 30
0.0
 40
164.5825419999999
 50
358.39248900000001
 51
359.43534599999992
  0
ARC
  5
1D0
  8
0
 62
     7
 10
-192.91520099999991
 20
125.97131
 30
0.0
 40
315.77164799999991
 50
357.31356899999997
 51
358.46057100000002
  0
ARC
  5
1D1
  8
0
 62
     7
 10
-281.07874800000002
 20
129.61324999999991
 30
0.0
 40
404.00930199999988
 50
355.54165799999998
 51
357.38366599999989
  0
ARC
  5
1D2
  8
0
 62
     7
 10
75.991490999999996
 20
121.37187400000001
 30
0.0
 40
53.610031000000014
 50
357.41477500000002
 51
359.99295199999989
  0
ARC
  5
1D3
  8
0
 62
     7
 10
57.810101000000003
 20
122.07885400000001
 30
0.0
 40
71.804895000000002
 50
354.19745399999999
 51
357.50559500000003
  0
ARC
  5
1D4
  8
0
 62
     7
 10
37.564442
 20
123.98034799999991
 30
0.0
 40
92.139193000000006
 50
342.55990200000002
 51
354.29389900000001
  0
ARC
  5
1D5
  8
0
 62
     7
 10
35.614440000000002
 20
121.369462
 30
0.0
 40
89.85363000000001
 50
359.43484699999999
 51
359.99733300000003
  0
ARC
  5
1D6
  8
0
 62
     7
 10
-38.866432000000003
 20
122.1022649999999
 30
0.0
 40
164.33810700000001
 50
358.391096
 51
359.43550399999992
  0
ARC
  5
1D7
  8
0
 62
     7
 10
-190.59054299999991
 20
125.988151
 30
0.0
 40
316.11172999999991
 50
357.31340499999999
 51
358.45917400000002
  0
ARC
  5
1D8
  8
0
 62
     7
 10
-278.94039199999992
 20
129.6417449999999
 30
0.0
 40
404.53602399999988
 50
355.54342700000001
 51
357.38303500000001
  0
ARC
  5
1D9
  8
0
 62
     7
 10
132.03994399999991
 20
101.318105
 30
0.0
 40
8.2742240000000002
 50
202.07946699999991
 51
210.65093100000001
  0
ARC
  5
1DA
  8
0
 62
     7
 10
129.5226899999999
 20
99.86439
 30
0.0
 40
5.3676440000000003
 50
210.99994699999999
 51
216.73208699999989
  0
ARC
  5
1DB
  8
0
 62
     7
 10
127.597117
 20
98.438869000000011
 30
0.0
 40
2.9718580000000001
 50
216.908762
 51
224.2417549999999
  0
ARC
  5
1DC
  8
0
 62
     7
 10
129.366141
 20
101.3143
 30
0.0
 40
8.2641299999999998
 50
202.079386
 51
210.66173699999999
  0
ARC
  5
1DD
  8
0
 62
     7
 10
126.859887
 20
99.864580000000004
 30
0.0
 40
5.3690459999999991
 50
210.99331799999999
 51
216.72344699999999
  0
ARC
  5
1DE
  8
0
 62
     7
 10
124.929385
 20
98.435708000000005
 30
0.0
 40
2.9673039999999999
 50
216.89846800000001
 51
224.242187
  0
LINE
  5
1DF
  8
0
 62
     7
 10
124.373
 20
98.207899999999995
 30
0.0
 11
121.7079999999999
 21
98.207899999999995
 31
0.0
  0
LINE
  5
1E0
  8
0
 62
     7
 10
125.468
 20
96.365399999999994
 30
0.0
 11
122.804
 21
96.365399999999994
 31
0.0
  0
ARC
  5
1E1
  8
0
 62
     7
 10
32.673765000000003
 20
121.36094799999989
 30
0.0
 40
90.129852000000014
 50
0.002754
 51
0.563592
  0
ARC
  5
1E2
  8
0
 62
     7
 10
-41.797659000000003
 20
120.62552599999999
 30
0.0
 40
164.60490599999989
 50
0.564587
 51
1.607391999999999
  0
ARC
  5
1E3
  8
0
 62
     7
 10
-192.90249299999991
 20
116.760524
 30
0.0
 40
315.75891999999999
 50
1.5393279999999989
 51
2.6864099999999991
  0
ARC
  5
1E4
  8
0
 62
     7
 10
-281.03093999999987
 20
113.12030299999989
 30
0.0
 40
403.96143399999988
 50
2.616298
 51
4.4584939999999991
  0
ARC
  5
1E5
  8
0
 62
     7
 10
75.984378000000007
 20
121.358687
 30
0.0
 40
53.617144000000003
 50
0.007046
 51
2.5850529999999989
  0
ARC
  5
1E6
  8
0
 62
     7
 10
57.805106999999992
 20
120.6517129999999
 30
0.0
 40
71.809892000000005
 50
2.4943550000000001
 51
5.8023600000000002
  0
ARC
  5
1E7
  8
0
 62
     7
 10
37.562810999999989
 20
118.7505129999999
 30
0.0
 40
92.140812999999994
 50
5.7059879999999987
 51
17.439921999999999
  0
ARC
  5
1E8
  8
0
 62
     7
 10
35.592140999999998
 20
121.36110600000001
 30
0.0
 40
89.875928999999999
 50
0.002661
 51
0.565083
  0
ARC
  5
1E9
  8
0
 62
     7
 10
-38.888771999999989
 20
120.6283879999999
 30
0.0
 40
164.36044599999991
 50
0.564429
 51
1.6087849999999999
  0
ARC
  5
1EA
  8
0
 62
     7
 10
-190.577766
 20
116.74368699999999
 30
0.0
 40
316.09893299999999
 50
1.5407249999999999
 51
2.6865730000000001
  0
ARC
  5
1EB
  8
0
 62
     7
 10
-278.892472
 20
113.091815
 30
0.0
 40
404.48804200000001
 50
2.6169289999999998
 51
4.4567249999999987
  0
ARC
  5
1EC
  8
0
 62
     7
 10
132.043645
 20
141.411294
 30
0.0
 40
8.2782199999999992
 50
149.35264599999999
 51
157.92049999999989
  0
ARC
  5
1ED
  8
0
 62
     7
 10
129.52421499999991
 20
142.86565400000001
 30
0.0
 40
5.369438999999999
 50
143.269464
 51
148.99978200000001
  0
ARC
  5
1EE
  8
0
 62
     7
 10
127.6012139999999
 20
144.28916599999991
 30
0.0
 40
2.9769149999999991
 50
135.77131900000001
 51
143.092941
  0
ARC
  5
1EF
  8
0
 62
     7
 10
129.36983399999991
 20
141.41510199999999
 30
0.0
 40
8.2681170000000002
 50
149.34183999999991
 51
157.920582
  0
ARC
  5
1F0
  8
0
 62
     7
 10
126.8614139999999
 20
142.86546399999989
 30
0.0
 40
5.3708419999999988
 50
143.27810400000001
 51
149.00641100000001
  0
ARC
  5
1F1
  8
0
 62
     7
 10
124.933471
 20
144.29233599999989
 30
0.0
 40
2.9723479999999989
 50
135.77088699999999
 51
143.10323500000001
  0
LINE
  5
1F2
  8
0
 62
     7
 10
124.373
 20
144.523
 30
0.0
 11
121.7079999999999
 21
144.523
 31
0.0
  0
LINE
  5
1F3
  8
0
 62
     7
 10
125.468
 20
146.36600000000001
 30
0.0
 11
122.804
 21
146.36600000000001
 31
0.0
  0
LINE
  5
1F4
  8
0
 62
     7
 10
19.189800000000002
 20
187.70099999999999
 30
0.0
 11
30.392299999999992
 21
194.167
 31
0.0
  0
LINE
  5
1F5
  8
0
  6
AIGENLINE002
 62
     7
 10
30.941600000000001
 20
194.48400000000001
 30
0.0
 11
45.870699999999992
 21
203.10299999999989
 31
0.0
  0
LINE
  5
1F6
  8
0
 62
     7
 10
72.529399999999995
 20
187.71299999999999
 30
0.0
 11
61.3491
 21
194.167
 31
0.0
  0
LINE
  5
1F7
  8
0
  6
AIGENLINE002
 62
     7
 10
60.799799999999991
 20
194.48400000000001
 30
0.0
 11
45.870699999999992
 21
203.10299999999989
 31
0.0
  0
LINE
  5
1F8
  8
0
  6
AIGENLINE002
 62
     7
 10
49.484999999999999
 20
203.10299999999989
 30
0.0
 11
42.302100000000003
 21
203.10299999999989
 31
0.0
  0
LINE
  5
1F9
  8
0
  6
AIGENLINE002
 62
     7
 10
147.45400000000001
 20
121.3649999999999
 30
0.0
 11
119.532
 21
121.3649999999999
 31
0.0
  0
ARC
  5
1FA
  8
0
 62
     7
 10
45.866520999999999
 20
100.765225
 30
0.0
 40
89.85363000000001
 50
89.434836999999987
 51
89.997322999999994
  0
ARC
  5
1FB
  8
0
 62
     7
 10
45.132696000000003
 20
26.195381999999999
 30
0.0
 40
164.42708400000001
 50
88.391582999999983
 51
89.435443000000006
  0
ARC
  5
1FC
  8
0
 62
     7
 10
41.25126199999999
 20
-125.324451
 30
0.0
 40
315.99638399999992
 50
87.313012000000001
 51
88.459215000000015
  0
ARC
  5
1FD
  8
0
 62
     7
 10
37.595103000000002
 20
-213.77794800000001
 30
0.0
 40
404.5243319999999
 50
85.543411000000006
 51
87.383053000000004
  0
ARC
  5
1FE
  8
0
 62
     7
 10
45.856799999999993
 20
141.7287189999999
 30
0.0
 40
55.687870999999987
 50
86.494865000000004
 51
89.985686000000001
  0
ARC
  5
1FF
  8
0
 62
     7
 10
44.723303999999992
 20
119.4619179999999
 30
0.0
 40
77.982656000000006
 50
82.664001999999996
 51
86.663829000000007
  0
ARC
  5
200
  8
0
 62
     7
 10
42.920594000000001
 20
103.805981
 30
0.0
 40
93.740863000000004
 50
72.652540000000002
 51
82.793038999999993
  0
ARC
  5
201
  8
0
 62
     7
 10
45.866520999999999
 20
103.429334
 30
0.0
 40
89.85363000000001
 50
89.434836999999987
 51
89.997322999999994
  0
ARC
  5
202
  8
0
 62
     7
 10
45.130786999999998
 20
28.696455
 30
0.0
 40
164.59013100000001
 50
88.392511999999996
 51
89.435338000000002
  0
ARC
  5
203
  8
0
 62
     7
 10
41.244081999999999
 20
-122.91319299999989
 30
0.0
 40
316.24935899999991
 50
87.313860999999989
 51
88.459146999999987
  0
ARC
  5
204
  8
0
 62
     7
 10
37.632678999999989
 20
-210.47334900000001
 30
0.0
 40
403.88285999999999
 50
85.541664999999995
 51
87.384230000000002
  0
ARC
  5
205
  8
0
 62
     7
 10
65.921605
 20
199.847804
 30
0.0
 40
8.2663039999999999
 50
292.07384499999989
 51
300.65480799999989
  0
ARC
  5
206
  8
0
 62
     7
 10
67.369776999999999
 20
197.34146199999989
 30
0.0
 40
5.3719359999999989
 50
300.99716399999988
 51
306.72465499999998
  0
ARC
  5
207
  8
0
 62
     7
 10
68.794266000000007
 20
195.417035
 30
0.0
 40
2.9776849999999988
 50
306.89772900000003
 51
314.21828999999991
  0
ARC
  5
208
  8
0
 62
     7
 10
65.917799999999986
 20
197.193048
 30
0.0
 40
8.2764019999999991
 50
292.07392599999997
 51
300.64400199999989
  0
ARC
  5
209
  8
0
 62
     7
 10
67.374844999999993
 20
194.66905199999991
 30
0.0
 40
5.3623219999999989
 50
300.99571299999991
 51
306.73373900000001
  0
ARC
  5
20A
  8
0
 62
     7
 10
68.794370999999998
 20
192.7519749999999
 30
0.0
 40
2.976929999999999
 50
306.90611899999988
 51
314.22961900000001
  0
LINE
  5
20B
  8
0
 62
     7
 10
69.028099999999995
 20
192.18700000000001
 30
0.0
 11
69.028099999999995
 21
189.52299999999991
 31
0.0
  0
LINE
  5
20C
  8
0
 62
     7
 10
70.870900000000006
 20
193.2829999999999
 30
0.0
 11
70.870900000000006
 21
190.619
 31
0.0
  0
ARC
  5
20D
  8
0
 62
     7
 10
45.874881000000002
 20
100.7540759999999
 30
0.0
 40
89.864778999999999
 50
90.002654000000007
 51
90.565108000000009
  0
ARC
  5
20E
  8
0
 62
     7
 10
46.608649999999997
 20
26.185351000000001
 30
0.0
 40
164.43711399999989
 50
90.564503000000016
 51
91.608341999999993
  0
ARC
  5
20F
  8
0
 62
     7
 10
50.489384000000001
 20
-125.31362299999989
 30
0.0
 40
315.985545
 50
91.540712999999997
 51
92.686969000000005
  0
ARC
  5
210
  8
0
 62
     7
 10
54.144405000000013
 20
-213.74128300000001
 30
0.0
 40
404.48763100000002
 50
92.616931999999977
 51
94.456704999999985
  0
ARC
  5
211
  8
0
 62
     7
 10
45.884599999999999
 20
141.72505200000001
 30
0.0
 40
55.691538000000001
 50
90.014286999999996
 51
93.504999999999995
  0
ARC
  5
212
  8
0
 62
     7
 10
47.017763000000002
 20
119.4637469999999
 30
0.0
 40
77.980817999999999
 50
93.336068000000012
 51
97.336009000000004
  0
ARC
  5
213
  8
0
 62
     7
 10
48.820296999999997
 20
103.808829
 30
0.0
 40
93.737991000000008
 50
97.206936000000013
 51
107.34765899999999
  0
ARC
  5
214
  8
0
 62
     7
 10
45.874881000000002
 20
103.41818499999989
 30
0.0
 40
89.864778999999999
 50
90.002654000000007
 51
90.565108000000009
  0
ARC
  5
215
  8
0
 62
     7
 10
46.610559000000002
 20
28.686418
 30
0.0
 40
164.60016799999991
 50
90.564607999999978
 51
91.607412999999994
  0
ARC
  5
216
  8
0
 62
     7
 10
50.496563000000002
 20
-122.9023429999999
 30
0.0
 40
316.238497
 50
91.540781999999979
 51
92.686121000000014
  0
ARC
  5
217
  8
0
 62
     7
 10
54.106833999999992
 20
-210.43678099999991
 30
0.0
 40
403.84625499999999
 50
92.615754999999993
 51
94.458450999999997
  0
ARC
  5
218
  8
0
 62
     7
 10
25.819800000000001
 20
199.847804
 30
0.0
 40
8.2663039999999999
 50
239.345212
 51
247.926175
  0
ARC
  5
219
  8
0
 62
     7
 10
24.371628999999999
 20
197.34146199999989
 30
0.0
 40
5.3719359999999989
 50
233.27536499999999
 51
239.00285599999989
  0
ARC
  5
21A
  8
0
 62
     7
 10
22.947140000000001
 20
195.417035
 30
0.0
 40
2.9776849999999988
 50
225.78173000000001
 51
233.10229100000001
  0
ARC
  5
21B
  8
0
 62
     7
 10
25.823605999999991
 20
197.193048
 30
0.0
 40
8.2764019999999991
 50
239.35601800000001
 51
247.92609400000001
  0
ARC
  5
21C
  8
0
 62
     7
 10
24.36656099999999
 20
194.66905199999991
 30
0.0
 40
5.3623219999999989
 50
233.26628099999999
 51
239.0043059999999
  0
ARC
  5
21D
  8
0
 62
     7
 10
22.947035
 20
192.7519749999999
 30
0.0
 40
2.976929999999999
 50
225.77040099999991
 51
233.0939009999999
  0
ARC
  5
21E
  8
0
 62
     7
 10
-78.487724
 20
122.2594669999999
 30
0.0
 40
148.9764439999999
 50
350.87482999999992
 51
358.83668499999987
  0
ARC
  5
21F
  8
0
 62
     7
 10
-51.493741
 20
121.3931709999999
 30
0.0
 40
121.97085199999999
 50
358.98610200000002
 51
359.986898
  0
ARC
  5
220
  8
0
 62
     7
 10
-42.215761000000001
 20
117.632457
 30
0.0
 40
112.8464949999999
 50
350.12402900000001
 51
353.72211800000002
  0
ARC
  5
221
  8
0
 62
     7
 10
-75.580744999999993
 20
121.657129
 30
0.0
 40
146.45192099999991
 50
353.584385
 51
359.88582100000002
  0
ARC
  5
222
  8
0
 62
     7
 10
-78.486981
 20
120.471729
 30
0.0
 40
148.97569300000001
 50
1.163138
 51
9.1251699999999971
  0
ARC
  5
223
  8
0
 62
     7
 10
-51.511681000000003
 20
121.33739199999989
 30
0.0
 40
121.9887919999999
 50
0.013099
 51
1.013822999999999
  0
ARC
  5
224
  8
0
 62
     7
 10
-42.218792999999998
 20
125.09792299999989
 30
0.0
 40
112.8495719999999
 50
6.2780059999999986
 51
9.8759689999999996
  0
ARC
  5
225
  8
0
 62
     7
 10
-75.580612000000002
 20
121.07384399999989
 30
0.0
 40
146.45178799999999
 50
0.114017
 51
6.4156149999999998
  0
ARC
  5
226
  8
0
 62
     7
 10
46.769153000000003
 20
245.74907200000001
 30
0.0
 40
149.00188
 50
260.87461599999989
 51
268.83517399999988
  0
ARC
  5
227
  8
0
 62
     7
 10
45.899228000000001
 20
218.72100099999989
 30
0.0
 40
121.962129
 50
268.98564399999992
 51
269.98660899999987
  0
ARC
  5
228
  8
0
 62
     7
 10
42.117384000000001
 20
209.313849
 30
0.0
 40
112.70712899999999
 50
260.12228099999987
 51
263.72478599999988
  0
ARC
  5
229
  8
0
 62
     7
 10
46.158740999999999
 20
242.79575
 30
0.0
 40
146.43059099999999
 50
263.58493299999998
 51
269.88730600000002
  0
ARC
  5
22A
  8
0
 62
     7
 10
44.972284000000002
 20
245.74888100000001
 30
0.0
 40
149.00168600000001
 50
271.1648009999999
 51
279.12540300000001
  0
ARC
  5
22B
  8
0
 62
     7
 10
45.842145000000002
 20
218.71433999999999
 30
0.0
 40
121.95546899999999
 50
270.01342699999992
 51
271.01440400000001
  0
ARC
  5
22C
  8
0
 62
     7
 10
49.624546000000002
 20
209.31082699999999
 30
0.0
 40
112.704061
 50
276.27510999999998
 51
279.87774000000002
  0
ARC
  5
22D
  8
0
 62
     7
 10
45.58245999999999
 20
242.79838499999991
 30
0.0
 40
146.43322599999991
 50
270.11279300000001
 51
276.41503
  0
ARC
  5
22E
  8
0
 62
     7
 10
170.15553199999991
 20
120.4757979999999
 30
0.0
 40
148.9031149999999
 50
170.87191000000001
 51
178.83784099999991
  0
ARC
  5
22F
  8
0
 62
     7
 10
143.2527419999999
 20
121.33739199999989
 30
0.0
 40
121.9887919999999
 50
178.98615699999999
 51
179.98688100000001
  0
ARC
  5
230
  8
0
 62
     7
 10
133.94219499999991
 20
125.09815399999999
 30
0.0
 40
112.8317959999999
 50
170.12255899999991
 51
173.72110000000001
  0
ARC
  5
231
  8
0
 62
     7
 10
167.27287100000001
 20
121.0779629999999
 30
0.0
 40
146.40263200000001
 50
173.58382399999991
 51
179.88753700000001
  0
ARC
  5
232
  8
0
 62
     7
 10
170.156273
 20
122.255398
 30
0.0
 40
148.90386499999991
 50
181.16233600000001
 51
189.1280899999999
  0
ARC
  5
233
  8
0
 62
     7
 10
143.234802
 20
121.3931709999999
 30
0.0
 40
121.97085199999999
 50
180.0131219999999
 51
181.01391699999999
  0
ARC
  5
234
  8
0
 62
     7
 10
133.93916399999989
 20
117.632226
 30
0.0
 40
112.8287199999999
 50
186.27877699999991
 51
189.87744299999989
  0
ARC
  5
235
  8
0
 62
     7
 10
167.27300099999991
 20
121.65300999999999
 30
0.0
 40
146.40276399999991
 50
180.11262500000001
 51
186.41617600000001
  0
ARC
  5
236
  8
0
 62
     7
 10
44.984538999999998
 20
-2.8937930000000001
 30
0.0
 40
148.87729999999991
 50
80.871684000000016
 51
88.838942999999986
  0
ARC
  5
237
  8
0
 62
     7
 10
45.841946999999998
 20
23.856849
 30
0.0
 40
122.115184
 50
88.986829
 51
89.986497999999997
  0
ARC
  5
238
  8
0
 62
     7
 10
49.621689000000003
 20
33.403582
 30
0.0
 40
112.720803
 50
80.122268000000005
 51
83.724365000000006
  0
ARC
  5
239
  8
0
 62
     7
 10
45.579821000000003
 20
-0.09136
 30
0.0
 40
146.45728399999999
 50
83.584988999999993
 51
89.886193999999989
  0
ARC
  5
23A
  8
0
 62
     7
 10
46.756896999999988
 20
-2.893983
 30
0.0
 40
148.8774929999999
 50
91.161082000000007
 51
99.128296000000006
  0
ARC
  5
23B
  8
0
 62
     7
 10
45.899425999999991
 20
23.850180999999989
 30
0.0
 40
122.121853
 50
90.013466000000008
 51
91.013122999999979
  0
ARC
  5
23C
  8
0
 62
     7
 10
42.120240000000003
 20
33.400557999999997
 30
0.0
 40
112.723871
 50
96.275739000000016
 51
99.877711000000033
  0
ARC
  5
23D
  8
0
 62
     7
 10
46.161380000000001
 20
-0.088725
 30
0.0
 40
146.45464799999991
 50
90.113708000000017
 51
96.415047000000015
  0
LINE
  5
23E
  8
0
  6
AIGENLINE002
 62
     7
 10
48.370800000000003
 20
93.850499999999997
 30
0.0
 11
48.370800000000003
 21
97.380399999999995
 31
0.0
  0
LINE
  5
23F
  8
0
  6
AIGENLINE003
 62
     7
 10
47.996000000000002
 20
94.990199999999987
 30
0.0
 11
48.746000000000002
 21
94.990199999999987
 31
0.0
  0
LINE
  5
240
  8
0
  6
AIGENLINE003
 62
     7
 10
47.996000000000002
 20
96.240700000000004
 30
0.0
 11
48.746000000000002
 21
96.240700000000004
 31
0.0
  0
ARC
  5
241
  8
0
  6
AIGENLINE003
 62
     7
 10
48.745998
 20
95.615784000000005
 30
0.0
 40
0.6249440000000001
 50
0.00001
 51
89.999980000000008
  0
ARC
  5
242
  8
0
  6
AIGENLINE003
 62
     7
 10
48.721544999999999
 20
95.639522000000014
 30
0.0
 40
0.6498310000000001
 50
272.15650899999991
 51
357.90663699999999
  0
ARC
  5
243
  8
0
  6
AIGENLINE003
 62
     7
 10
48.020178000000001
 20
95.639608999999993
 30
0.0
 40
0.649907
 50
182.1008239999999
 51
267.86764599999992
  0
ARC
  5
244
  8
0
  6
AIGENLINE003
 62
     7
 10
48.01981
 20
95.591612999999995
 30
0.0
 40
0.6495530000000001
 50
92.101055000000002
 51
177.8673389999999
  0
LINE
  5
245
  8
0
  6
AIGENLINE002
 62
     7
 10
46.590699999999991
 20
95.615799999999993
 30
0.0
 11
50.383099999999999
 21
95.615799999999993
 31
0.0
  0
LINE
  5
246
  8
0
  6
AIGENLINE002
 62
     7
 10
41.606000000000002
 20
95.615799999999993
 30
0.0
 11
45.136200000000002
 21
95.615799999999993
 31
0.0
  0
LINE
  5
247
  8
0
  6
AIGENLINE003
 62
     7
 10
42.746000000000002
 20
95.990599999999986
 30
0.0
 11
42.746000000000002
 21
95.240300000000005
 31
0.0
  0
LINE
  5
248
  8
0
  6
AIGENLINE003
 62
     7
 10
43.996200000000002
 20
95.990599999999986
 30
0.0
 11
43.996200000000002
 21
95.240300000000005
 31
0.0
  0
ARC
  5
249
  8
0
  6
AIGENLINE003
 62
     7
 10
43.347503999999986
 20
95.264045999999993
 30
0.0
 40
0.6491470000000001
 50
272.06777299999987
 51
357.90066000000002
  0
ARC
  5
24A
  8
0
  6
AIGENLINE003
 62
     7
 10
43.370925999999997
 20
95.240267000000003
 30
0.0
 40
0.6249440000000001
 50
179.99996999999991
 51
270.00002000000001
  0
ARC
  5
24B
  8
0
  6
AIGENLINE003
 62
     7
 10
43.370925999999997
 20
95.990612999999996
 30
0.0
 40
0.6249440000000001
 50
90.0
 51
179.99996999999991
  0
ARC
  5
24C
  8
0
  6
AIGENLINE003
 62
     7
 10
43.346792000000001
 20
95.966121999999999
 30
0.0
 40
0.6498840000000001
 50
2.1597419999999992
 51
87.871825000000001
  0
LINE
  5
24D
  8
0
  6
AIGENLINE002
 62
     7
 10
43.370899999999992
 20
97.395500000000013
 30
0.0
 11
43.370899999999992
 21
93.603099999999998
 31
0.0
  0
LINE
  5
24E
  8
0
  6
AIGENLINE002
 62
     7
 10
44.105400000000003
 20
111.8659999999999
 30
0.0
 11
47.636000000000003
 21
111.8659999999999
 31
0.0
  0
LINE
  5
24F
  8
0
  6
AIGENLINE003
 62
     7
 10
45.495499999999993
 20
111.23999999999999
 30
0.0
 11
46.24519999999999
 21
111.23999999999999
 31
0.0
  0
LINE
  5
250
  8
0
  6
AIGENLINE003
 62
     7
 10
45.495499999999993
 20
112.48999999999999
 30
0.0
 11
46.24519999999999
 21
112.48999999999999
 31
0.0
  0
ARC
  5
251
  8
0
  6
AIGENLINE003
 62
     7
 10
46.221063000000001
 20
111.840529
 30
0.0
 40
0.650232
 50
2.1893729999999989
 51
87.873752999999994
  0
ARC
  5
252
  8
0
  6
AIGENLINE003
 62
     7
 10
46.22170599999999
 20
111.889565
 30
0.0
 40
0.649565
 50
272.07162499999993
 51
357.86525
  0
ARC
  5
253
  8
0
  6
AIGENLINE003
 62
     7
 10
45.495528999999998
 20
111.865369
 30
0.0
 40
0.6249440000000001
 50
179.99996999999991
 51
270.00002000000001
  0
ARC
  5
254
  8
0
  6
AIGENLINE003
 62
     7
 10
45.495530000000002
 20
111.865369
 30
0.0
 40
0.6249440000000001
 50
90.0
 51
179.99996999999991
  0
LINE
  5
255
  8
0
  6
AIGENLINE002
 62
     7
 10
44.105400000000003
 20
79.365200000000002
 30
0.0
 11
47.636000000000003
 21
79.365200000000002
 31
0.0
  0
LINE
  5
256
  8
0
  6
AIGENLINE003
 62
     7
 10
45.245800000000003
 20
79.740700000000004
 30
0.0
 11
45.245800000000003
 21
78.990300000000005
 31
0.0
  0
LINE
  5
257
  8
0
  6
AIGENLINE003
 62
     7
 10
46.495600000000003
 20
79.740700000000004
 30
0.0
 11
46.495600000000003
 21
78.990300000000005
 31
0.0
  0
ARC
  5
258
  8
0
  6
AIGENLINE003
 62
     7
 10
45.870702999999999
 20
78.990337999999994
 30
0.0
 40
0.6249440000000001
 50
270.00002000000001
 51
359.99998999999991
  0
ARC
  5
259
  8
0
  6
AIGENLINE003
 62
     7
 10
45.870702999999999
 20
78.990337999999994
 30
0.0
 40
0.6249440000000001
 50
179.99996999999991
 51
270.00002000000001
  0
ARC
  5
25A
  8
0
  6
AIGENLINE003
 62
     7
 10
45.870702999999999
 20
79.740684000000002
 30
0.0
 40
0.6249440000000001
 50
90.0
 51
179.99996999999991
  0
ARC
  5
25B
  8
0
  6
AIGENLINE003
 62
     7
 10
45.870702999999999
 20
79.740684000000002
 30
0.0
 40
0.6249440000000001
 50
0.00001
 51
89.999980000000008
  0
LINE
  5
25C
  8
0
  6
AIGENLINE002
 62
     7
 10
18.073399999999989
 20
121.3649999999999
 30
0.0
 11
73.765799999999999
 21
121.3649999999999
 31
0.0
  0
LINE
  5
25D
  8
0
 62
     7
 10
22.7133
 20
192.18700000000001
 30
0.0
 11
22.7133
 21
189.52299999999991
 31
0.0
  0
LINE
  5
25E
  8
0
 62
     7
 10
20.8705
 20
193.2829999999999
 30
0.0
 11
20.8705
 21
190.619
 31
0.0
  0
LINE
  5
25F
  8
0
 62
     7
 10
40.244799999999991
 20
213.07400000000001
 30
0.0
 11
40.244799999999991
 21
208.07400000000001
 31
0.0
  0
LINE
  5
260
  8
0
 62
     7
 10
40.8705
 20
228.142
 30
0.0
 11
40.8705
 21
227.267
 31
0.0
  0
LINE
  5
261
  8
0
 62
     7
 10
50.87060000000001
 20
228.142
 30
0.0
 11
50.87060000000001
 21
227.267
 31
0.0
  0
LINE
  5
262
  8
0
 62
     7
 10
51.380800000000001
 20
227.267
 30
0.0
 11
51.380800000000001
 21
224.76699999999991
 31
0.0
  0
LINE
  5
263
  8
0
 62
     7
 10
51.380800000000001
 20
208.32199999999989
 30
0.0
 11
51.380800000000001
 21
197.15899999999999
 31
0.0
  0
LINE
  5
264
  8
0
 62
     7
 10
40.360599999999991
 20
227.267
 30
0.0
 11
40.360599999999991
 21
224.76699999999991
 31
0.0
  0
LINE
  5
265
  8
0
 62
     7
 10
51.494900000000001
 20
227.03700000000001
 30
0.0
 11
51.494900000000001
 21
222.03699999999989
 31
0.0
  0
LINE
  5
266
  8
0
 62
     7
 10
49.494999999999997
 20
224.76699999999991
 30
0.0
 11
49.494999999999997
 21
223.8309999999999
 31
0.0
  0
LINE
  5
267
  8
0
 62
     7
 10
49.610700000000001
 20
213.07400000000001
 30
0.0
 11
49.610700000000001
 21
208.32199999999989
 31
0.0
  0
LINE
  5
268
  8
0
 62
     7
 10
42.245100000000001
 20
224.76699999999991
 30
0.0
 11
42.245100000000001
 21
223.8309999999999
 31
0.0
  0
LINE
  5
269
  8
0
 62
     7
 10
40.244799999999991
 20
227.03700000000001
 30
0.0
 11
40.244799999999991
 21
222.03699999999989
 31
0.0
  0
LINE
  5
26A
  8
0
 62
     7
 10
51.380800000000001
 20
223.8309999999999
 30
0.0
 11
51.380800000000001
 21
213.07400000000001
 31
0.0
  0
LINE
  5
26B
  8
0
 62
     7
 10
40.360599999999991
 20
223.8309999999999
 30
0.0
 11
40.360599999999991
 21
213.07400000000001
 31
0.0
  0
LINE
  5
26C
  8
0
 62
     7
 10
42.360799999999998
 20
213.07400000000001
 30
0.0
 11
42.360799999999998
 21
208.32199999999989
 31
0.0
  0
LINE
  5
26D
  8
0
 62
     7
 10
40.360599999999991
 20
208.32199999999989
 30
0.0
 11
40.360599999999991
 21
197.15899999999999
 31
0.0
  0
LINE
  5
26E
  8
0
 62
     7
 10
135.51300000000001
 20
121.4399999999999
 30
0.0
 11
139.8239999999999
 21
121.4399999999999
 31
0.0
  0
LINE
  5
26F
  8
0
 62
     7
 10
129.77899999999991
 20
121.5529999999999
 30
0.0
 11
129.77899999999991
 21
121.4399999999999
 31
0.0
  0
LINE
  5
270
  8
0
 62
     7
 10
129.77899999999991
 20
121.4399999999999
 30
0.0
 11
129.96600000000001
 21
121.4399999999999
 31
0.0
  0
LINE
  5
271
  8
0
 62
     7
 10
129.96600000000001
 20
121.4399999999999
 30
0.0
 11
130.52799999999991
 21
121.4399999999999
 31
0.0
  0
LINE
  5
272
  8
0
 62
     7
 10
130.52799999999991
 20
121.4399999999999
 30
0.0
 11
131.42699999999999
 21
121.4399999999999
 31
0.0
  0
LINE
  5
273
  8
0
 62
     7
 10
131.42699999999999
 20
121.4399999999999
 30
0.0
 11
132.589
 21
121.4399999999999
 31
0.0
  0
LINE
  5
274
  8
0
 62
     7
 10
132.589
 20
121.4399999999999
 30
0.0
 11
133.976
 21
121.4399999999999
 31
0.0
  0
LINE
  5
275
  8
0
 62
     7
 10
133.976
 20
121.4399999999999
 30
0.0
 11
135.51300000000001
 21
121.4399999999999
 31
0.0
  0
LINE
  5
276
  8
0
 62
     7
 10
139.9729999999999
 20
120.429
 30
0.0
 11
140.441
 21
120.429
 31
0.0
  0
LINE
  5
277
  8
0
 62
     7
 10
140.50700000000001
 20
122.4529999999999
 30
0.0
 11
129.77899999999991
 21
122.4529999999999
 31
0.0
  0
LINE
  5
278
  8
0
 62
     7
 10
129.77899999999991
 20
122.34
 30
0.0
 11
129.77899999999991
 21
121.5529999999999
 31
0.0
  0
LINE
  5
279
  8
0
 62
     7
 10
139.93600000000001
 20
121.4399999999999
 30
0.0
 11
139.93600000000001
 21
120.429
 31
0.0
  0
LINE
  5
27A
  8
0
 62
     7
 10
139.93600000000001
 20
120.429
 30
0.0
 11
139.9729999999999
 21
120.429
 31
0.0
  0
LINE
  5
27B
  8
0
 62
     7
 10
139.8239999999999
 20
121.4399999999999
 30
0.0
 11
139.93600000000001
 21
121.4399999999999
 31
0.0
  0
LINE
  5
27C
  8
0
 62
     7
 10
129.77899999999991
 20
122.4529999999999
 30
0.0
 11
129.77899999999991
 21
122.34
 31
0.0
  0
LINE
  5
27D
  8
0
 62
     7
 10
142.078
 20
118.95999999999989
 30
0.0
 11
154.06399999999991
 21
71.558499999999995
 31
0.0
  0
LINE
  5
27E
  8
0
 62
     7
 10
144.50200000000001
 20
119.574
 30
0.0
 11
155.96399999999991
 21
74.247799999999998
 31
0.0
  0
LINE
  5
27F
  8
0
 62
     7
 10
129.59299999999999
 20
120.429
 30
0.0
 11
139.8239999999999
 21
120.429
 31
0.0
  0
LINE
  5
280
  8
0
 62
     7
 10
139.8239999999999
 20
121.40299999999991
 30
0.0
 11
129.602
 21
121.40299999999991
 31
0.0
  0
LINE
  5
281
  8
0
 62
     7
 10
139.8239999999999
 20
120.429
 30
0.0
 11
139.8239999999999
 21
121.40299999999991
 31
0.0
  0
LINE
  5
282
  8
0
 62
     7
 10
51.399799999999999
 20
74.365600000000001
 30
0.0
 11
51.495899999999992
 21
74.365600000000001
 31
0.0
  0
LINE
  5
283
  8
0
 62
     7
 10
40.2455
 20
68.665300000000002
 30
0.0
 11
40.2455
 21
58.467100000000002
 31
0.0
  0
LINE
  5
284
  8
0
 62
     7
 10
66.916899999999998
 20
146.36600000000001
 30
0.0
 11
66.916899999999998
 21
96.365399999999994
 31
0.0
  0
LINE
  5
285
  8
0
 62
     7
 10
121.7079999999999
 20
155.24199999999999
 30
0.0
 11
121.7079999999999
 21
145.92299999999989
 31
0.0
  0
LINE
  5
286
  8
0
 62
     7
 10
160.327
 20
155.24199999999999
 30
0.0
 11
160.327
 21
120.066
 31
0.0
  0
LINE
  5
287
  8
0
 62
     7
 10
175.327
 20
111.8659999999999
 30
0.0
 11
175.327
 21
69.365399999999994
 31
0.0
  0
LINE
  5
288
  8
0
 62
     7
 10
173.1399999999999
 20
95.615799999999993
 30
0.0
 11
176.02699999999999
 21
95.615799999999993
 31
0.0
  0
LINE
  5
289
  8
0
 62
     7
 10
121.7079999999999
 20
154.542
 30
0.0
 11
160.327
 21
154.542
 31
0.0
  0
LINE
  5
28A
  8
0
 62
     7
 10
76.441000000000003
 20
146.36600000000001
 30
0.0
 11
76.441000000000003
 21
69.365399999999994
 31
0.0
  0
LINE
  5
28B
  8
0
 62
     7
 10
51.495899999999992
 20
68.665300000000002
 30
0.0
 11
51.495899999999992
 21
58.467100000000002
 31
0.0
  0
LINE
  5
28C
  8
0
 62
     7
 10
51.495899999999992
 20
74.365600000000001
 30
0.0
 11
51.495899999999992
 21
69.365399999999994
 31
0.0
  0
LINE
  5
28D
  8
0
 62
     7
 10
51.380800000000001
 20
74.365600000000001
 30
0.0
 11
51.399799999999999
 21
74.365600000000001
 31
0.0
  0
LINE
  5
28E
  8
0
 62
     7
 10
51.380800000000001
 20
96.483300000000014
 30
0.0
 11
51.380800000000001
 21
70.822699999999998
 31
0.0
  0
LINE
  5
28F
  8
0
 62
     7
 10
40.341299999999997
 20
74.365600000000001
 30
0.0
 11
40.2455
 21
74.365600000000001
 31
0.0
  0
LINE
  5
290
  8
0
 62
     7
 10
43.370600000000003
 20
246.37700000000001
 30
0.0
 11
43.370600000000003
 21
240.95400000000001
 31
0.0
  0
LINE
  5
291
  8
0
 62
     7
 10
48.3705
 20
246.37700000000001
 30
0.0
 11
48.3705
 21
240.95400000000001
 31
0.0
  0
LINE
  5
292
  8
0
 62
     7
 10
39.667099999999991
 20
245.67699999999999
 30
0.0
 11
52.136699999999998
 21
245.67699999999999
 31
0.0
  0
LINE
  5
293
  8
0
 62
     7
 10
20.8705
 20
155.27600000000001
 30
0.0
 11
20.8705
 21
132.55099999999999
 31
0.0
  0
LINE
  5
294
  8
0
 62
     7
 10
70.870900000000006
 20
155.27600000000001
 30
0.0
 11
70.870900000000006
 21
132.55099999999999
 31
0.0
  0
LINE
  5
295
  8
0
  6
AIGENLINE002
 62
     7
 10
45.870699999999992
 20
240.25399999999999
 30
0.0
 11
45.870699999999992
 21
187.43499999999989
 31
0.0
  0
LINE
  5
296
  8
0
  6
AIGENLINE002
 62
     7
 10
45.870699999999992
 20
148.37200000000001
 30
0.0
 11
45.870699999999992
 21
67.839200000000005
 31
0.0
  0
LINE
  5
297
  8
0
 62
     7
 10
40.2455
 20
74.365600000000001
 30
0.0
 11
40.2455
 21
69.365399999999994
 31
0.0
  0
LINE
  5
298
  8
0
 62
     7
 10
20.8705
 20
154.57599999999999
 30
0.0
 11
70.870900000000006
 21
154.57599999999999
 31
0.0
  0
LINE
  5
299
  8
0
 62
     7
 10
56.9178
 20
146.36600000000001
 30
0.0
 11
77.141000000000005
 21
146.36600000000001
 31
0.0
  0
LINE
  5
29A
  8
0
 62
     7
 10
52.195900000000002
 20
96.365399999999994
 30
0.0
 11
67.617000000000004
 21
96.365399999999994
 31
0.0
  0
LINE
  5
29B
  8
0
 62
     7
 10
40.2455
 20
59.167099999999998
 30
0.0
 11
51.495899999999992
 21
59.167099999999998
 31
0.0
  0
LINE
  5
29C
  8
0
 62
     7
 10
52.195900000000002
 20
69.365399999999994
 30
0.0
 11
77.141000000000005
 21
69.365399999999994
 31
0.0
  0
LINE
  5
29D
  8
0
 62
     7
 10
40.2455
 20
69.365399999999994
 30
0.0
 11
51.495899999999992
 21
69.365399999999994
 31
0.0
  0
LINE
  5
29E
  8
0
 62
     7
 10
40.360599999999991
 20
74.365600000000001
 30
0.0
 11
40.341299999999997
 21
74.365600000000001
 31
0.0
  0
LINE
  5
29F
  8
0
 62
     7
 10
40.360599999999991
 20
96.483300000000014
 30
0.0
 11
40.360599999999991
 21
70.822699999999998
 31
0.0
  0
LINE
  5
2A0
  8
0
 62
     7
 10
40.360599999999991
 20
70.822699999999998
 30
0.0
 11
51.380800000000001
 21
70.822699999999998
 31
0.0
  0
ARC
  5
2A1
  8
0
 62
     7
 10
126.35968099999999
 20
70.407452000000006
 30
0.0
 40
46.914276999999998
 50
179.931319
 51
198.601866
  0
ARC
  5
2A2
  8
0
 62
     7
 10
126.8005239999999
 20
70.448656
 30
0.0
 40
47.355088000000002
 50
161.4857989999999
 51
179.98181099999999
  0
LINE
  5
2A3
  8
0
 62
     7
 10
80.686400000000006
 20
83.541300000000007
 30
0.0
 11
81.896299999999997
 21
85.485799999999983
 31
0.0
  0
LINE
  5
2A4
  8
0
 62
     7
 10
81.896299999999997
 20
85.485799999999983
 30
0.0
 11
81.820499999999996
 21
83.196799999999996
 31
0.0
  0
LINE
  5
2A5
  8
0
 62
     7
 10
81.820499999999996
 20
83.196799999999996
 30
0.0
 11
80.686400000000006
 21
83.541300000000007
 31
0.0
  0
LINE
  5
2A6
  8
0
 62
     7
 10
80.685699999999997
 20
57.38669999999999
 30
0.0
 11
81.896299999999997
 21
55.442300000000003
 31
0.0
  0
LINE
  5
2A7
  8
0
 62
     7
 10
81.896299999999997
 20
55.442300000000003
 30
0.0
 11
81.819800000000015
 21
57.731200000000001
 31
0.0
  0
LINE
  5
2A8
  8
0
 62
     7
 10
81.819800000000015
 20
57.731200000000001
 30
0.0
 11
80.685699999999997
 21
57.38669999999999
 31
0.0
  0
LINE
  5
2A9
  8
0
 62
     7
 10
20.450900000000001
 20
185.851
 30
0.0
 11
19.7743
 21
188.0379999999999
 31
0.0
  0
LINE
  5
2AA
  8
0
 62
     7
 10
19.7743
 20
188.0379999999999
 30
0.0
 11
21.4541
 21
186.48199999999991
 31
0.0
  0
LINE
  5
2AB
  8
0
 62
     7
 10
21.4541
 20
186.48199999999991
 30
0.0
 11
20.450900000000001
 21
185.851
 31
0.0
  0
LINE
  5
2AC
  8
0
 62
     7
 10
71.289100000000005
 20
185.84999999999999
 30
0.0
 11
71.965699999999998
 21
188.0379999999999
 31
0.0
  0
LINE
  5
2AD
  8
0
 62
     7
 10
71.965699999999998
 20
188.0379999999999
 30
0.0
 11
70.285899999999998
 21
186.48199999999991
 31
0.0
  0
LINE
  5
2AE
  8
0
 62
     7
 10
70.285899999999998
 20
186.48199999999991
 30
0.0
 11
71.289100000000005
 21
185.84999999999999
 31
0.0
  0
LINE
  5
2AF
  8
0
 62
     7
 10
49.978700000000003
 20
234.61500000000001
 30
0.0
 11
48.870699999999999
 21
232.6109999999999
 31
0.0
  0
LINE
  5
2B0
  8
0
 62
     7
 10
48.870699999999999
 20
232.6109999999999
 30
0.0
 11
50.832399999999993
 21
233.79300000000001
 31
0.0
  0
LINE
  5
2B1
  8
0
 62
     7
 10
50.832399999999993
 20
233.79300000000001
 30
0.0
 11
49.978700000000003
 21
234.61500000000001
 31
0.0
  0
LINE
  5
2B2
  8
0
 62
     7
 10
48.866599999999998
 20
232.61699999999999
 30
0.0
 11
56.558799999999991
 21
240.601
 31
0.0
  0
LINE
  5
2B3
  8
0
 62
     7
 10
56.558799999999991
 20
240.601
 30
0.0
 11
93.551100000000005
 21
240.601
 31
0.0
  0
TEXT
  5
2B4
  8
_________2
 62
     7
 10
24.586400000000001
 20
0.707627
 30
0.0
 40
3.9357000000000002
  1
拡大鏡の倍率は5倍
 41
0.5
  0
TEXT
  5
2B5
  8
_________2
 62
     7
 10
109.179
 20
24.226099999999999
 30
0.0
 40
3.9357000000000002
  1
アイルックム－ブ拡大鏡
 41
0.5
  0
LINE
  5
2B6
  8
_________2
 62
     7
 10
205.30099999999999
 20
127.411
 30
0.0
 11
183.55099999999999
 21
127.411
 31
0.0
  0
LINE
  5
2B7
  8
_________2
 62
     7
 10
100.2999999999999
 20
-4.0910799999999998
 30
0.0
 11
100.2999999999999
 21
-21.070999999999991
 31
0.0
  0
LINE
  5
2B8
  8
_________2
 62
     7
 10
100.2999999999999
 20
275.93099999999993
 30
0.0
 11
100.2999999999999
 21
258.911
 31
0.0
  0
LINE
  5
2B9
  8
_________2
 62
     7
 10
17.049199999999988
 20
127.411
 30
0.0
 11
-4.7012099999999988
 21
127.411
 31
0.0
  0
LINE
  5
2BA
  8
_________2
 62
     7
 10
76.740700000000004
 20
29.8047
 30
0.0
 11
74.554400000000001
 21
29.8047
 31
0.0
  0
LINE
  5
2BB
  8
_________2
 62
     7
 10
77.2333
 20
29.8047
 30
0.0
 11
76.981099999999984
 21
29.8047
 31
0.0
  0
LINE
  5
2BC
  8
_________2
 62
     7
 10
77.725999999999999
 20
29.8047
 30
0.0
 11
80.650899999999993
 21
29.8047
 31
0.0
  0
LINE
  5
2BD
  8
_________2
 62
     7
 10
77.2333
 20
29.8047
 30
0.0
 11
77.485500000000002
 21
29.8047
 31
0.0
  0
LINE
  5
2BE
  8
_________2
 62
     7
 10
70.837100000000007
 20
29.8047
 30
0.0
 11
68.650199999999998
 21
29.8047
 31
0.0
  0
LINE
  5
2BF
  8
_________2
 62
     7
 10
71.329099999999997
 20
29.8047
 30
0.0
 11
71.077600000000004
 21
29.8047
 31
0.0
  0
LINE
  5
2C0
  8
_________2
 62
     7
 10
71.329099999999997
 20
30.2974
 30
0.0
 11
71.329099999999997
 21
32.484400000000001
 31
0.0
  0
LINE
  5
2C1
  8
_________2
 62
     7
 10
71.329099999999997
 20
29.8047
 30
0.0
 11
71.329099999999997
 21
30.057300000000001
 31
0.0
  0
LINE
  5
2C2
  8
_________2
 62
     7
 10
71.821700000000007
 20
29.8047
 30
0.0
 11
74.008700000000005
 21
29.8047
 31
0.0
  0
LINE
  5
2C3
  8
_________2
 62
     7
 10
71.329099999999997
 20
29.8047
 30
0.0
 11
71.581299999999985
 21
29.8047
 31
0.0
  0
LINE
  5
2C4
  8
_________2
 62
     7
 10
71.329099999999997
 20
29.312799999999999
 30
0.0
 11
71.329099999999997
 21
27.126200000000001
 31
0.0
  0
LINE
  5
2C5
  8
_________2
 62
     7
 10
71.329099999999997
 20
29.8047
 30
0.0
 11
71.329099999999997
 21
29.5532
 31
0.0
  0
LINE
  5
2C6
  8
_________2
 62
     7
 10
75.040199999999999
 20
28.5852
 30
0.0
 11
80.218199999999996
 21
27.720400000000001
 31
0.0
  0
LINE
  5
2C7
  8
_________2
 62
     7
 10
75.040199999999999
 20
31.024699999999999
 30
0.0
 11
80.218199999999996
 21
31.8901
 31
0.0
  0
LINE
  5
2C8
  8
_________2
 62
     7
 10
80.218199999999996
 20
27.720400000000001
 30
0.0
 11
80.218199999999996
 21
31.8901
 31
0.0
  0
LINE
  5
2C9
  8
_________2
 62
     7
 10
75.040199999999999
 20
28.5852
 30
0.0
 11
75.040199999999999
 21
31.024699999999999
 31
0.0
  0
ARC
  5
2CA
  8
_________2
 62
     7
 10
71.282501999999994
 20
29.757801000000001
 30
0.0
 40
1.267714
 50
2.1220840000000001
 51
87.894083999999992
  0
ARC
  5
2CB
  8
_________2
 62
     7
 10
71.375640000000004
 20
29.758545999999999
 30
0.0
 40
1.2669680000000001
 50
92.105782999999988
 51
177.91037
  0
ARC
  5
2CC
  8
_________2
 62
     7
 10
71.376013999999998
 20
29.851671
 30
0.0
 40
1.2673680000000001
 50
182.12203600000001
 51
267.877993
  0
ARC
  5
2CD
  8
_________2
 62
     7
 10
71.282195999999999
 20
29.852347999999999
 30
0.0
 40
1.2680439999999991
 50
272.11916400000001
 51
357.84848499999993
  0
ARC
  5
2CE
  8
_________2
 62
     7
 10
71.248716999999985
 20
29.724731999999989
 30
0.0
 40
2.1668310000000002
 50
2.1161439999999989
 51
87.874379000000005
  0
ARC
  5
2CF
  8
_________2
 62
     7
 10
71.408756000000011
 20
29.726146
 30
0.0
 40
2.165392999999999
 50
92.108508999999998
 51
177.91986499999999
  0
ARC
  5
2D0
  8
_________2
 62
     7
 10
71.409094999999994
 20
29.884751999999999
 30
0.0
 40
2.1657829999999998
 50
182.117133
 51
267.88289700000001
  0
ARC
  5
2D1
  8
_________2
 62
     7
 10
71.249115000000003
 20
29.885429999999989
 30
0.0
 40
2.1664590000000001
 50
272.11546800000002
 51
357.86560400000002
  0
TEXT
  5
2D2
  8
_________2
 62
     7
 10
104.605
 20
1.6794899999999999
 30
0.0
 40
3.0923400000000001
  1
図番
 41
0.5
  0
LINE
  5
2D3
  8
_________2
 62
     7
 10
103.55
 20
5.9087199999999989
 30
0.0
 11
183.55099999999999
 21
5.9087199999999989
 31
0.0
  0
TEXT
  5
2D4
  8
_________2
 62
     7
 10
104.605
 20
11.679299999999991
 30
0.0
 40
3.0923400000000001
  1
品番
 41
0.5
  0
TEXT
  5
2D5
  8
_________2
 62
     7
 10
104.605
 20
31.8184
 30
0.0
 40
3.0923400000000001
  1
名称
 41
0.5
  0
TEXT
  5
2D6
  8
_________2
 62
     7
 10
91.844758333333345
 20
26.822299999999998
 30
0.0
 40
3.6545800000000002
  1
mm
 41
0.5
 72
     1
 11
93.367500000000007
 21
26.822299999999998
 31
0.0
  0
TEXT
  5
2D7
  8
_________2
 62
     7
 10
85.642899999999983
 20
31.8184
 30
0.0
 40
3.0923400000000001
  1
単位
 41
0.5
  0
TEXT
  5
2D8
  8
_________2
 62
     7
 10
85.642899999999983
 20
19.410799999999991
 30
0.0
 40
3.0923400000000001
  1
尺度
 41
0.5
  0
TEXT
  5
2D9
  8
_________2
 62
     7
 10
90.548458666666676
 20
13.218199999999991
 30
0.0
 40
3.6545800000000002
  1
1 ： 4
 41
0.5
 72
     1
 11
93.959400000000016
 21
13.218199999999991
 31
0.0
  0
TEXT
  5
2DA
  8
_________2
 62
     7
 10
137.64644999999999
 20
9.1082000000000001
 30
0.0
 40
3.9357000000000002
  1
KC17613
 41
0.5
 72
     1
 11
143.55000000000001
 21
9.1082000000000001
 31
0.0
  0
TEXT
  5
2DB
  8
_________2
 62
     7
 10
137.64644999999999
 20
-0.8926299999999999
 30
0.0
 40
3.9357000000000002
  1
KC17613
 41
0.5
 72
     1
 11
143.55000000000001
 21
-0.8926299999999999
 31
0.0
  0
TEXT
  5
2DC
  8
_________2
 62
     7
 10
39.42500033333333
 20
13.603400000000001
 30
0.0
 40
3.6545800000000002
  1
早川
 41
0.5
 72
     1
 11
41.313200000000002
 21
13.603400000000001
 31
0.0
  0
TEXT
  5
2DD
  8
_________2
 62
     7
 10
20.790090666666661
 20
13.603400000000001
 30
0.0
 40
3.6545800000000002
  1
菅原
 41
0.5
 72
     1
 11
22.73919999999999
 21
13.603400000000001
 31
0.0
  0
TEXT
  5
2DE
  8
_________2
 62
     7
 10
67.785399999999996
 20
13.218199999999991
 30
0.0
 40
3.6545800000000002
  1
14.01.08
 41
0.5
  0
TEXT
  5
2DF
  8
_________2
 62
     7
 10
66.592699999999994
 20
19.410799999999991
 30
0.0
 40
3.0923400000000001
  1
日付
 41
0.5
  0
TEXT
  5
2E0
  8
_________2
 62
     7
 10
29.638999999999999
 20
19.410799999999991
 30
0.0
 40
3.0923400000000001
  1
検図
 41
0.5
  0
TEXT
  5
2E1
  8
_________2
 62
     7
 10
18.020700000000001
 20
5.21143
 30
0.0
 40
3.0923400000000001
  1
備考
 41
0.5
  0
TEXT
  5
2E2
  8
_________2
 62
     7
 10
18.020700000000001
 20
19.410799999999991
 30
0.0
 40
3.0923400000000001
  1
製図
 41
0.5
  0
TEXT
  5
2E3
  8
_________2
 62
     7
 10
23.788165333333328
 20
27.936800000000002
 30
0.0
 40
4.4979399999999989
  1
セラトレーディング株式会社
 41
0.5
 72
     1
 11
41.180199999999999
 21
27.936800000000002
 31
0.0
  0
LINE
  5
2E4
  8
_________2
 62
     7
 10
183.55099999999999
 20
-4.0910799999999998
 30
0.0
 11
17.049199999999988
 21
-4.0910799999999998
 31
0.0
  0
LINE
  5
2E5
  8
_________2
 62
     7
 10
17.049199999999988
 20
-4.0910799999999998
 30
0.0
 11
17.049199999999988
 21
258.911
 31
0.0
  0
LINE
  5
2E6
  8
_________2
 62
     7
 10
17.049199999999988
 20
258.911
 30
0.0
 11
183.55099999999999
 21
258.911
 31
0.0
  0
LINE
  5
2E7
  8
_________2
 62
     7
 10
183.55099999999999
 20
258.911
 30
0.0
 11
183.55099999999999
 21
-4.0910799999999998
 31
0.0
  0
LINE
  5
2E8
  8
_________2
 62
     7
 10
65.549599999999998
 20
9.4092999999999982
 30
0.0
 11
65.549599999999998
 21
35.909100000000002
 31
0.0
  0
LINE
  5
2E9
  8
_________2
 62
     7
 10
84.549400000000006
 20
9.4092999999999982
 30
0.0
 11
84.549400000000006
 21
35.909100000000002
 31
0.0
  0
LINE
  5
2EA
  8
_________2
 62
     7
 10
103.55
 20
-4.0910799999999998
 30
0.0
 11
103.55
 21
35.909100000000002
 31
0.0
  0
LINE
  5
2EB
  8
_________2
 62
     7
 10
28.548999999999999
 20
9.4092999999999982
 30
0.0
 11
28.548999999999999
 21
23.409199999999998
 31
0.0
  0
LINE
  5
2EC
  8
_________2
 62
     7
 10
17.049199999999988
 20
9.4092999999999982
 30
0.0
 11
103.55
 21
9.4092999999999982
 31
0.0
  0
LINE
  5
2ED
  8
_________2
 62
     7
 10
17.049199999999988
 20
23.409199999999998
 30
0.0
 11
103.55
 21
23.409199999999998
 31
0.0
  0
LINE
  5
2EE
  8
_________2
 62
     7
 10
103.55
 20
15.9085
 30
0.0
 11
183.55099999999999
 21
15.9085
 31
0.0
  0
LINE
  5
2EF
  8
_________2
 62
     7
 10
17.049199999999988
 20
35.909100000000002
 30
0.0
 11
183.55099999999999
 21
35.909100000000002
 31
0.0
  0
ENDSEC
  0
EOF
