  0
SECTION
  2
HEADER
  9
$ACADVER
  1
AC1009
  9
$INSBASE
 10
0.0
 20
0.0
 30
0.0
  9
$EXTMIN
 10
-4.70052
 20
-21.070699999999992
 30
0.0
  9
$EXTMAX
 10
205.30099999999999
 20
275.93099999999993
 30
0.0
  9
$LIMMIN
 10
0.0
 20
0.0
  9
$LIMMAX
 10
12.0
 20
9.0
  9
$ORTHOMODE
 70
     0
  9
$REGENMODE
 70
     1
  9
$FILLMODE
 70
     1
  9
$QTEXTMODE
 70
     0
  9
$MIRRTEXT
 70
     1
  9
$DRAGMODE
 70
     2
  9
$LTSCALE
 40
1.0
  9
$OSMODE
 70
    37
  9
$ATTMODE
 70
     1
  9
$TEXTSIZE
 40
0.0
  9
$TRACEWID
 40
0.05
  9
$TEXTSTYLE
  7
STANDARD
  9
$CLAYER
  8
0
  9
$CELTYPE
  6
CONTINUOUS
  9
$CECOLOR
 62
   256
  9
$DIMSCALE
 40
1.0
  9
$DIMASZ
 40
0.18
  9
$DIMEXO
 40
0.0625
  9
$DIMDLI
 40
0.38
  9
$DIMRND
 40
0.0
  9
$DIMDLE
 40
0.0
  9
$DIMEXE
 40
0.18
  9
$DIMTP
 40
0.0
  9
$DIMTM
 40
0.0
  9
$DIMTXT
 40
0.18
  9
$DIMCEN
 40
0.09
  9
$DIMTSZ
 40
0.0
  9
$DIMTOL
 70
     0
  9
$DIMLIM
 70
     0
  9
$DIMTIH
 70
     1
  9
$DIMTOH
 70
     1
  9
$DIMSE1
 70
     0
  9
$DIMSE2
 70
     0
  9
$DIMTAD
 70
     0
  9
$DIMZIN
 70
     0
  9
$DIMBLK
  1

  9
$DIMASO
 70
     1
  9
$DIMSHO
 70
     1
  9
$DIMPOST
  1

  9
$DIMAPOST
  1

  9
$DIMALT
 70
     0
  9
$DIMALTD
 70
     2
  9
$DIMALTF
 40
25.399999999999999
  9
$DIMLFAC
 40
1.0
  9
$DIMTOFL
 70
     0
  9
$DIMTVP
 40
0.0
  9
$DIMTIX
 70
     0
  9
$DIMSOXD
 70
     0
  9
$DIMSAH
 70
     0
  9
$DIMBLK1
  1

  9
$DIMBLK2
  1

  9
$DIMSTYLE
  2
STANDARD
  9
$DIMCLRD
 70
     0
  9
$DIMCLRE
 70
     0
  9
$DIMCLRT
 70
     0
  9
$DIMTFAC
 40
1.0
  9
$DIMGAP
 40
0.09
  9
$LUNITS
 70
     2
  9
$LUPREC
 70
     4
  9
$SKETCHINC
 40
0.1
  9
$FILLETRAD
 40
0.0
  9
$AUNITS
 70
     0
  9
$AUPREC
 70
     0
  9
$MENU
  1
.
  9
$ELEVATION
 40
0.0
  9
$PELEVATION
 40
0.0
  9
$THICKNESS
 40
0.0
  9
$LIMCHECK
 70
     0
  9
$BLIPMODE
 70
     0
  9
$CHAMFERA
 40
0.0
  9
$CHAMFERB
 40
0.0
  9
$SKPOLY
 70
     0
  9
$TDCREATE
 40
2444972.375
  9
$TDUPDATE
 40
2455387.400206157
  9
$TDINDWG
 40
0.0129007292
  9
$TDUSRTIMER
 40
0.0129007292
  9
$USRTIMER
 70
     1
  9
$ANGBASE
 50
0.0
  9
$ANGDIR
 70
     0
  9
$PDMODE
 70
     0
  9
$PDSIZE
 40
0.0
  9
$PLINEWID
 40
0.0
  9
$COORDS
 70
     1
  9
$SPLFRAME
 70
     0
  9
$SPLINETYPE
 70
     6
  9
$SPLINESEGS
 70
     8
  9
$ATTDIA
 70
     0
  9
$ATTREQ
 70
     1
  9
$HANDLING
 70
     1
  9
$HANDSEED
  5
28D
  9
$SURFTAB1
 70
     6
  9
$SURFTAB2
 70
     6
  9
$SURFTYPE
 70
     6
  9
$SURFU
 70
     6
  9
$SURFV
 70
     6
  9
$UCSNAME
  2

  9
$UCSORG
 10
0.0
 20
0.0
 30
0.0
  9
$UCSXDIR
 10
1.0
 20
0.0
 30
0.0
  9
$UCSYDIR
 10
0.0
 20
1.0
 30
0.0
  9
$PUCSNAME
  2

  9
$PUCSORG
 10
0.0
 20
0.0
 30
0.0
  9
$PUCSXDIR
 10
1.0
 20
0.0
 30
0.0
  9
$PUCSYDIR
 10
0.0
 20
1.0
 30
0.0
  9
$USERI1
 70
     0
  9
$USERI2
 70
     0
  9
$USERI3
 70
     0
  9
$USERI4
 70
     0
  9
$USERI5
 70
     0
  9
$USERR1
 40
0.0
  9
$USERR2
 40
0.0
  9
$USERR3
 40
0.0
  9
$USERR4
 40
0.0
  9
$USERR5
 40
0.0
  9
$WORLDVIEW
 70
     1
  9
$SHADEDGE
 70
     3
  9
$SHADEDIF
 70
    70
  9
$TILEMODE
 70
     1
  9
$MAXACTVP
 70
    48
  9
$PLIMCHECK
 70
     0
  9
$PEXTMIN
 10
1.0000000000000000E+020
 20
1.0000000000000000E+020
 30
1.0000000000000000E+020
  9
$PEXTMAX
 10
-1.0000000000000000E+020
 20
-1.0000000000000000E+020
 30
-1.0000000000000000E+020
  9
$PLIMMIN
 10
0.0
 20
0.0
  9
$PLIMMAX
 10
12.0
 20
9.0
  9
$UNITMODE
 70
     0
  9
$VISRETAIN
 70
     1
  9
$PLINEGEN
 70
     0
  9
$PSLTSCALE
 70
     1
  0
ENDSEC
  0
SECTION
  2
TABLES
  0
TABLE
  2
VPORT
 70
     2
  0
VPORT
  2
*ACTIVE
 70
     0
 10
0.0
 20
0.0
 11
1.0
 21
1.0
 12
289.91183557474972
 22
114.3673164049645
 13
0.0
 23
0.0
 14
1.0
 24
1.0
 15
0.0
 25
0.0
 16
0.0
 26
0.0
 36
1.0
 17
0.0
 27
0.0
 37
0.0
 40
315.27338829733719
 41
2.2894736842105261
 42
50.0
 43
0.0
 44
0.0
 50
0.0
 51
0.0
 71
     0
 72
   100
 73
     1
 74
     1
 75
     0
 76
     0
 77
     0
 78
     0
  0
ENDTAB
  0
TABLE
  2
LTYPE
 70
     4
  0
LTYPE
  2
CONTINUOUS
 70
     0
  3
Solid line
 72
    65
 73
     0
 40
0.0
  0
LTYPE
  2
AIGENLINE001
 70
     0
  3
generate AI->DXF Converter
 72
    65
 73
     4
 40
5.8561449999999988
 49
3.5278
 49
-0.776115
 49
0.776115
 49
-0.776115
  0
LTYPE
  2
AIGENLINE002
 70
     0
  3
generate AI->DXF Converter
 72
    65
 73
     2
 40
1.5522299999999991
 49
0.776115
 49
-0.776115
  0
LTYPE
  2
AIGENLINE003
 70
     0
  3
generate AI->DXF Converter
 72
    65
 73
     6
 40
7.4083750000000004
 49
3.5278
 49
-0.776115
 49
0.776115
 49
-0.776115
 49
0.776115
 49
-0.776115
  0
ENDTAB
  0
TABLE
  2
LAYER
 70
     2
  0
LAYER
  2
0
 70
     0
 62
     7
  6
CONTINUOUS
  0
LAYER
  2
_________2
 70
     0
 62
     7
  6
CONTINUOUS
  0
ENDTAB
  0
TABLE
  2
STYLE
 70
     1
  0
STYLE
  2
STANDARD
 70
     0
 40
0.0
 41
0.0
 50
0.0
 71
     0
 42
0.0
  3
TXT
  4
EXTFONT.SHX
  0
ENDTAB
  0
TABLE
  2
VIEW
 70
     0
  0
ENDTAB
  0
TABLE
  2
UCS
 70
     0
  0
ENDTAB
  0
TABLE
  2
APPID
 70
     1
  0
APPID
  2
ACAD
 70
     0
  0
ENDTAB
  0
TABLE
  2
DIMSTYLE
 70
     1
  0
DIMSTYLE
  2
STANDARD
 70
     0
  3

  4

  5

  6

  7

 40
1.0
 41
0.18
 42
0.0625
 43
0.38
 44
0.18
 45
0.0
 46
0.0
 47
0.0
 48
0.0
140
0.18
141
0.09
142
0.0
143
25.399999999999999
144
1.0
145
0.0
146
1.0
147
0.09
 71
     0
 72
     0
 73
     1
 74
     1
 75
     0
 76
     0
 77
     0
 78
     0
170
     0
171
     2
172
     0
173
     0
174
     0
175
     0
176
     0
177
     0
178
     0
  0
ENDTAB
  0
ENDSEC
  0
SECTION
  2
BLOCKS
  0
BLOCK
  8
0
  2
$MODEL_SPACE
 70
     0
 10
0.0
 20
0.0
 30
0.0
  3
$MODEL_SPACE
  1

  0
ENDBLK
  5
1A
  8
0
  0
BLOCK
 67
     1
  8
0
  2
$PAPER_SPACE
 70
     0
 10
0.0
 20
0.0
 30
0.0
  3
$PAPER_SPACE
  1

  0
ENDBLK
  5
17
 67
     1
  8
0
  0
ENDSEC
  0
SECTION
  2
ENTITIES
  0
TEXT
  5
24
  8
0
 62
     7
 10
146.14129199999991
 20
185.11500000000001
 30
0.0
 40
3.0923400000000001
  1
排水口位置
 41
0.5
 72
     2
 11
155.006
 21
185.11500000000001
 31
0.0
  0
TEXT
  5
25
  8
0
 62
     7
 10
86.204429999999988
 20
165.54900000000001
 30
0.0
 40
3.0923400000000001
  1
115
 41
0.5
 72
     1
 11
87.750600000000006
 21
165.54900000000001
 31
0.0
  0
TEXT
  5
26
  8
0
 62
     7
 10
37.137799999999991
 20
165.54900000000001
 30
0.0
 40
3.0923400000000001
  1
30
 41
0.5
  0
TEXT
  5
27
  8
0
 62
     7
 10
66.696635000000001
 20
239.51099999999991
 30
0.0
 40
3.0923400000000001
  1
500
 41
0.5
 72
     1
 11
68.500500000000002
 21
239.51099999999991
 31
0.0
  0
TEXT
  5
28
  8
0
 62
     7
 10
51.817687499999991
 20
232.03499999999991
 30
0.0
 40
3.0923400000000001
  1
205
 41
0.5
 72
     1
 11
53.750399999999999
 21
232.03499999999991
 31
0.0
  0
TEXT
  5
29
  8
0
 62
     7
 10
59.461725000000001
 20
136.19799999999989
 30
0.0
 40
3.0923400000000001
  1
65
 41
0.5
 72
     1
 11
60.7502
 21
136.19799999999989
 31
0.0
  0
TEXT
  5
2A
  8
0
 62
     7
 10
66.567887500000012
 20
143.86000000000001
 30
0.0
 40
3.0923400000000001
  1
220
 41
0.5
 72
     1
 11
68.500600000000006
 21
143.86000000000001
 31
0.0
  0
TEXT
  5
2B
  8
0
 62
     7
 10
139.707618
 20
52.003399999999999
 30
0.0
 40
3.0923400000000001
  1
トレー（樹脂製）
 41
0.5
 72
     1
 11
146.81999999999991
 21
52.003399999999999
 31
0.0
  0
TEXT
  5
2C
  8
0
 62
     7
 10
153.43028749999991
 20
106.684
 30
0.0
 40
3.0923400000000001
  1
290
 41
0.5
 72
     1
 11
155.363
 21
106.684
 31
0.0
  0
TEXT
  5
2D
  8
0
 62
     7
 10
125.551135
 20
59.039000000000001
 30
0.0
 40
3.0923400000000001
  1
135
 41
0.5
 72
     1
 11
127.3549999999999
 21
59.039000000000001
 31
0.0
  0
TEXT
  5
2E
  8
0
 62
     7
 10
62.188839999999999
 20
165.54900000000001
 30
0.0
 40
3.0923400000000001
  1
355
 41
0.5
 72
     1
 11
64.250399999999999
 21
165.54900000000001
 31
0.0
  0
TEXT
  5
2F
  8
0
 62
     7
 10
167.97900000000001
 20
199.52128749999989
 30
0.0
 40
3.0923400000000001
  1
430
 50
90.0
 41
0.5
 72
     1
 11
167.97900000000001
 21
201.45400000000001
 31
0.0
  0
TEXT
  5
30
  8
0
 62
     7
 10
148.9499999999999
 20
206.52128749999989
 30
0.0
 40
3.0923400000000001
  1
290
 50
90.0
 41
0.5
 72
     1
 11
148.9499999999999
 21
208.45400000000001
 31
0.0
  0
TEXT
  5
31
  8
0
 62
     7
 10
157.805454
 20
227.08500000000001
 30
0.0
 40
3.0923400000000001
  1
壁
 41
0.5
 72
     1
 11
158.52699999999999
 21
227.08500000000001
 31
0.0
  0
TEXT
  5
32
  8
0
 62
     7
 10
102.736
 20
168.16300000000001
 30
0.0
 40
3.0923400000000001
  1
35
 50
90.0
 41
0.5
  0
TEXT
  5
33
  8
0
 62
     7
 10
102.736
 20
215.6568299999999
 30
0.0
 40
3.0923400000000001
  1
115
 50
90.0
 41
0.5
 72
     1
 11
102.736
 21
217.20299999999989
 31
0.0
  0
TEXT
  5
34
  8
0
 62
     7
 10
100.40000000000001
 20
125.0405249999999
 30
0.0
 40
3.0923400000000001
  1
55
 50
90.0
 41
0.5
 72
     1
 11
100.40000000000001
 21
126.32899999999999
 31
0.0
  0
TEXT
  5
35
  8
0
 62
     7
 10
35.297499999999992
 20
123.41937249999989
 30
0.0
 40
3.0923400000000001
  1
90
 50
90.0
 41
0.5
 72
     1
 11
35.297499999999992
 21
124.57899999999989
 31
0.0
  0
TEXT
  5
36
  8
0
 62
     7
 10
24.3582
 20
196.6414399999999
 30
0.0
 40
3.0923400000000001
  1
485
 50
90.0
 41
0.5
 72
     1
 11
24.3582
 21
198.703
 31
0.0
  0
TEXT
  5
37
  8
0
 62
     7
 10
31.178100000000001
 20
206.52028749999991
 30
0.0
 40
3.0923400000000001
  1
290
 50
90.0
 41
0.5
 72
     1
 11
31.178100000000001
 21
208.45299999999989
 31
0.0
  0
TEXT
  5
38
  8
0
 62
     7
 10
141.006
 20
94.348650000000006
 30
0.0
 40
3.0923400000000001
  1
27
 50
90.0
 41
0.5
 72
     2
 11
141.006
 21
96.925600000000003
 31
0.0
  0
TEXT
  5
39
  8
0
 62
     7
 10
37.388300000000001
 20
218.7933725
 30
0.0
 40
3.0923400000000001
  1
60
 50
90.0
 41
0.5
 72
     1
 11
37.388300000000001
 21
219.953
 31
0.0
  0
TEXT
  5
3A
  8
0
 62
     7
 10
177.17799999999991
 20
119.9199824999999
 30
0.0
 40
3.0923400000000001
  1
150
 50
90.0
 41
0.5
 72
     1
 11
177.17799999999991
 21
121.595
 31
0.0
  0
TEXT
  5
3B
  8
0
 62
     7
 10
114.0349999999999
 20
122.55183
 30
0.0
 40
3.0923400000000001
  1
100
 50
90.0
 41
0.5
 72
     1
 11
114.0349999999999
 21
124.0979999999999
 31
0.0
  0
TEXT
  5
3C
  8
0
 62
     7
 10
141.006
 20
70.259734999999992
 30
0.0
 40
3.0923400000000001
  1
135
 50
90.0
 41
0.5
 72
     1
 11
141.006
 21
72.063599999999994
 31
0.0
  0
TEXT
  5
3D
  8
0
 62
     7
 10
102.736
 20
192.6414399999999
 30
0.0
 40
3.0923400000000001
  1
335
 50
90.0
 41
0.5
 72
     1
 11
102.736
 21
194.70299999999989
 31
0.0
  0
TEXT
  5
3E
  8
0
 62
     7
 10
126.309135
 20
234.72399999999999
 30
0.0
 40
3.0923400000000001
  1
165
 41
0.5
 72
     1
 11
128.113
 21
234.72399999999999
 31
0.0
  0
TEXT
  5
3F
  8
0
 62
     7
 10
147.05144000000001
 20
234.72399999999999
 30
0.0
 40
3.0923400000000001
  1
255
 41
0.5
 72
     1
 11
149.113
 21
234.72399999999999
 31
0.0
  0
TEXT
  5
40
  8
0
 62
     7
 10
138.93028749999999
 20
240.8479999999999
 30
0.0
 40
3.0923400000000001
  1
420
 41
0.5
 72
     1
 11
140.863
 21
240.8479999999999
 31
0.0
  0
TEXT
  5
41
  8
0
 62
     7
 10
126.861
 20
163.24899999999991
 30
0.0
 40
3.0923400000000001
  1
※カウンターを設ける場合も
 41
0.5
  0
TEXT
  5
42
  8
0
 62
     7
 10
126.861
 20
159.3829999999999
 30
0.0
 40
3.0923400000000001
  1
　洗面器の壁固定が必要です。
 41
0.5
  0
TEXT
  5
43
  8
0
 62
     7
 10
31.118896359434451
 20
45.17018030301778
 30
0.0
 40
3.9357000000000002
  1
※壁取付部には厚さ30mm以上の補強材を入れてください。
 41
0.5
  0
TEXT
  5
44
  8
0
 62
     7
 10
126.861
 20
169.2459999999999
 30
0.0
 40
3.0923400000000001
  1
カウンター切込寸法
 41
0.5
  0
TEXT
  5
45
  8
0
 62
     7
 10
126.99196499999999
 20
185.8249999999999
 30
0.0
 40
3.0923400000000001
  1
R10
 41
0.5
 72
     2
 11
130.34200000000001
 21
185.8249999999999
 31
0.0
  0
TEXT
  5
46
  8
0
 62
     7
 10
64.3887
 20
201.9079999999999
 30
0.0
 40
3.0923400000000001
  1
%%c46
 41
0.5
  0
TEXT
  5
47
  8
0
 62
     7
 10
73.762680000000003
 20
226.04099999999991
 30
0.0
 40
3.0923400000000001
  1
%%c35
 41
0.5
 72
     2
 11
77.885800000000003
 21
226.04099999999991
 31
0.0
  0
LINE
  5
48
  8
0
 62
     7
 10
138.17699999999999
 20
189.7459999999999
 30
0.0
 11
137.1639999999999
 21
191.79899999999989
 31
0.0
  0
LINE
  5
49
  8
0
 62
     7
 10
137.1639999999999
 20
191.79899999999989
 30
0.0
 11
137.0149999999999
 21
189.5139999999999
 31
0.0
  0
LINE
  5
4A
  8
0
 62
     7
 10
137.0149999999999
 20
189.5139999999999
 30
0.0
 11
138.17699999999999
 21
189.7459999999999
 31
0.0
  0
LINE
  5
4B
  8
0
 62
     7
 10
137.17799999999991
 20
191.80199999999999
 30
0.0
 11
138.74000000000001
 21
183.96100000000001
 31
0.0
  0
LINE
  5
4C
  8
0
 62
     7
 10
155.006
 20
183.96100000000001
 30
0.0
 11
138.74000000000001
 21
183.96100000000001
 31
0.0
  0
ARC
  5
4D
  8
0
 62
     7
 10
49.273719999999997
 20
178.77600100000001
 30
0.0
 40
41.042937000000002
 50
39.407468000000001
 51
50.524056999999999
  0
ARC
  5
4E
  8
0
 62
     7
 10
102.681113
 20
232.0587689999999
 30
0.0
 40
32.346850000000003
 50
217.92170699999991
 51
231.96892899999989
  0
LINE
  5
4F
  8
0
 62
     7
 10
122.81699999999999
 20
58.917000000000002
 30
0.0
 11
120.605
 21
58.3245
 31
0.0
  0
LINE
  5
50
  8
0
 62
     7
 10
120.605
 20
58.3245
 30
0.0
 11
122.81699999999999
 21
57.731900000000003
 31
0.0
  0
LINE
  5
51
  8
0
 62
     7
 10
122.81699999999999
 20
57.731900000000003
 30
0.0
 11
122.81699999999999
 21
58.917000000000002
 31
0.0
  0
LINE
  5
52
  8
0
 62
     7
 10
131.89400000000001
 20
57.746400000000001
 30
0.0
 11
134.1049999999999
 21
58.338900000000002
 31
0.0
  0
LINE
  5
53
  8
0
 62
     7
 10
134.1049999999999
 20
58.338900000000002
 30
0.0
 11
131.89400000000001
 21
58.9315
 31
0.0
  0
LINE
  5
54
  8
0
 62
     7
 10
131.89400000000001
 20
58.9315
 30
0.0
 11
131.89400000000001
 21
57.746400000000001
 31
0.0
  0
LINE
  5
55
  8
0
 62
     7
 10
120.605
 20
58.338900000000002
 30
0.0
 11
134.1049999999999
 21
58.338900000000002
 31
0.0
  0
LINE
  5
56
  8
0
 62
     7
 10
120.605
 20
57.288899999999991
 30
0.0
 11
120.605
 21
66.263400000000004
 31
0.0
  0
LINE
  5
57
  8
0
 62
     7
 10
134.1049999999999
 20
57.288899999999991
 30
0.0
 11
134.1049999999999
 21
66.263400000000004
 31
0.0
  0
LINE
  5
58
  8
0
 62
     7
 10
141.11299999999989
 20
93.200800000000001
 30
0.0
 11
141.70599999999999
 21
90.989699999999985
 31
0.0
  0
LINE
  5
59
  8
0
 62
     7
 10
141.70599999999999
 20
90.989699999999985
 30
0.0
 11
142.29900000000001
 21
93.200800000000001
 31
0.0
  0
LINE
  5
5A
  8
0
 62
     7
 10
142.29900000000001
 20
93.200800000000001
 30
0.0
 11
141.11299999999989
 21
93.200800000000001
 31
0.0
  0
LINE
  5
5B
  8
0
 62
     7
 10
142.29900000000001
 20
86.078299999999984
 30
0.0
 11
141.70599999999999
 21
88.289400000000015
 31
0.0
  0
LINE
  5
5C
  8
0
 62
     7
 10
141.70599999999999
 20
88.289400000000015
 30
0.0
 11
141.11299999999989
 21
86.078299999999984
 31
0.0
  0
LINE
  5
5D
  8
0
 62
     7
 10
141.11299999999989
 20
86.078299999999984
 30
0.0
 11
142.29900000000001
 21
86.078299999999984
 31
0.0
  0
LINE
  5
5E
  8
0
 62
     7
 10
141.70599999999999
 20
84.900800000000004
 30
0.0
 11
141.70599999999999
 21
96.925600000000003
 31
0.0
  0
LINE
  5
5F
  8
0
 62
     7
 10
141.1279999999999
 20
67.525000000000006
 30
0.0
 11
141.72
 21
65.313199999999995
 31
0.0
  0
LINE
  5
60
  8
0
 62
     7
 10
141.72
 20
65.313199999999995
 30
0.0
 11
142.31299999999999
 21
67.525000000000006
 31
0.0
  0
LINE
  5
61
  8
0
 62
     7
 10
142.31299999999999
 20
67.525000000000006
 30
0.0
 11
141.1279999999999
 21
67.525000000000006
 31
0.0
  0
LINE
  5
62
  8
0
 62
     7
 10
142.29900000000001
 20
76.602199999999996
 30
0.0
 11
141.70599999999999
 21
78.813299999999998
 31
0.0
  0
LINE
  5
63
  8
0
 62
     7
 10
141.70599999999999
 20
78.813299999999998
 30
0.0
 11
141.11299999999989
 21
76.602199999999996
 31
0.0
  0
LINE
  5
64
  8
0
 62
     7
 10
141.11299999999989
 20
76.602199999999996
 30
0.0
 11
142.29900000000001
 21
76.602199999999996
 31
0.0
  0
LINE
  5
65
  8
0
 62
     7
 10
141.70599999999999
 20
65.313199999999995
 30
0.0
 11
141.70599999999999
 21
78.813299999999998
 31
0.0
  0
LINE
  5
66
  8
0
 62
     7
 10
142.75599999999989
 20
65.313199999999995
 30
0.0
 11
133.506
 21
65.313199999999995
 31
0.0
  0
LINE
  5
67
  8
0
 62
     7
 10
142.75599999999989
 20
78.813299999999998
 30
0.0
 11
133.506
 21
78.813299999999998
 31
0.0
  0
LINE
  5
68
  8
0
 62
     7
 10
142.75599999999989
 20
88.289400000000015
 30
0.0
 11
132.6399999999999
 21
88.289400000000015
 31
0.0
  0
LINE
  5
69
  8
0
 62
     7
 10
142.75599999999989
 20
90.989699999999985
 30
0.0
 11
134.80500000000001
 21
90.989699999999985
 31
0.0
  0
LINE
  5
6A
  8
0
 62
     7
 10
177.30000000000001
 20
116.3059999999999
 30
0.0
 11
177.892
 21
114.0949999999999
 31
0.0
  0
LINE
  5
6B
  8
0
 62
     7
 10
177.892
 20
114.0949999999999
 30
0.0
 11
178.48500000000001
 21
116.3059999999999
 31
0.0
  0
LINE
  5
6C
  8
0
 62
     7
 10
178.48500000000001
 20
116.3059999999999
 30
0.0
 11
177.30000000000001
 21
116.3059999999999
 31
0.0
  0
LINE
  5
6D
  8
0
 62
     7
 10
178.46999999999991
 20
126.8829999999999
 30
0.0
 11
177.8779999999999
 21
129.095
 31
0.0
  0
LINE
  5
6E
  8
0
 62
     7
 10
177.8779999999999
 20
129.095
 30
0.0
 11
177.285
 21
126.8829999999999
 31
0.0
  0
LINE
  5
6F
  8
0
 62
     7
 10
177.285
 20
126.8829999999999
 30
0.0
 11
178.46999999999991
 21
126.8829999999999
 31
0.0
  0
LINE
  5
70
  8
0
 62
     7
 10
177.8779999999999
 20
114.0949999999999
 30
0.0
 11
177.8779999999999
 21
129.095
 31
0.0
  0
LINE
  5
71
  8
0
 62
     7
 10
178.578
 20
114.0949999999999
 30
0.0
 11
144.71100000000001
 21
114.0949999999999
 31
0.0
  0
LINE
  5
72
  8
0
 62
     7
 10
143.0739999999999
 20
106.577
 30
0.0
 11
140.863
 21
105.9839999999999
 31
0.0
  0
LINE
  5
73
  8
0
 62
     7
 10
140.863
 20
105.9839999999999
 30
0.0
 11
143.0739999999999
 21
105.392
 31
0.0
  0
LINE
  5
74
  8
0
 62
     7
 10
143.0739999999999
 20
105.392
 30
0.0
 11
143.0739999999999
 21
106.577
 31
0.0
  0
LINE
  5
75
  8
0
 62
     7
 10
167.6509999999999
 20
105.40599999999991
 30
0.0
 11
169.863
 21
105.9989999999999
 31
0.0
  0
LINE
  5
76
  8
0
 62
     7
 10
169.863
 20
105.9989999999999
 30
0.0
 11
167.6509999999999
 21
106.59099999999999
 31
0.0
  0
LINE
  5
77
  8
0
 62
     7
 10
167.6509999999999
 20
106.59099999999999
 30
0.0
 11
167.6509999999999
 21
105.40599999999991
 31
0.0
  0
LINE
  5
78
  8
0
 62
     7
 10
140.863
 20
105.9839999999999
 30
0.0
 11
169.863
 21
105.9839999999999
 31
0.0
  0
LINE
  5
79
  8
0
 62
     7
 10
169.863
 20
113.297
 30
0.0
 11
169.863
 21
105.28399999999991
 31
0.0
  0
LINE
  5
7A
  8
0
 62
     7
 10
140.863
 20
105.28399999999991
 30
0.0
 11
140.863
 21
110.77799999999991
 31
0.0
  0
LINE
  5
7B
  8
0
 62
     7
 10
114.157
 20
121.309
 30
0.0
 11
114.7499999999999
 21
119.0979999999999
 31
0.0
  0
LINE
  5
7C
  8
0
 62
     7
 10
114.7499999999999
 20
119.0979999999999
 30
0.0
 11
115.3429999999999
 21
121.309
 31
0.0
  0
LINE
  5
7D
  8
0
 62
     7
 10
115.3429999999999
 20
121.309
 30
0.0
 11
114.157
 21
121.309
 31
0.0
  0
LINE
  5
7E
  8
0
 62
     7
 10
115.3279999999999
 20
126.8869999999999
 30
0.0
 11
114.735
 21
129.0979999999999
 31
0.0
  0
LINE
  5
7F
  8
0
 62
     7
 10
114.735
 20
129.0979999999999
 30
0.0
 11
114.1429999999999
 21
126.8869999999999
 31
0.0
  0
LINE
  5
80
  8
0
 62
     7
 10
114.1429999999999
 20
126.8869999999999
 30
0.0
 11
115.3279999999999
 21
126.8869999999999
 31
0.0
  0
LINE
  5
81
  8
0
 62
     7
 10
114.735
 20
119.0979999999999
 30
0.0
 11
114.735
 21
129.0979999999999
 31
0.0
  0
LINE
  5
82
  8
0
 62
     7
 10
114.0349999999999
 20
119.0979999999999
 30
0.0
 11
134.762
 21
119.0979999999999
 31
0.0
  0
LINE
  5
83
  8
0
 62
     7
 10
114.0349999999999
 20
129.0979999999999
 30
0.0
 11
120.649
 21
129.0979999999999
 31
0.0
  0
LINE
  5
84
  8
0
 62
     7
 10
170.56299999999999
 20
129.095
 30
0.0
 11
178.578
 21
129.095
 31
0.0
  0
LINE
  5
85
  8
0
 62
     7
 10
43.05449999999999
 20
120.07899999999999
 30
0.0
 11
35.297499999999992
 21
120.07899999999999
 31
0.0
  0
ARC
  5
86
  8
0
 62
     7
 10
192.28702200000001
 20
128.327797
 30
0.0
 40
148.87847099999999
 50
179.93372899999989
 51
183.010266
  0
LINE
  5
87
  8
0
 62
     7
 10
25.6508
 20
220.74199999999999
 30
0.0
 11
25.058199999999989
 21
222.953
 31
0.0
  0
LINE
  5
88
  8
0
 62
     7
 10
25.058199999999989
 20
222.953
 30
0.0
 11
24.465699999999991
 21
220.74199999999999
 31
0.0
  0
LINE
  5
89
  8
0
 62
     7
 10
24.465699999999991
 20
220.74199999999999
 30
0.0
 11
25.6508
 21
220.74199999999999
 31
0.0
  0
LINE
  5
8A
  8
0
 62
     7
 10
24.4801
 20
176.66499999999999
 30
0.0
 11
25.072700000000001
 21
174.453
 31
0.0
  0
LINE
  5
8B
  8
0
 62
     7
 10
25.072700000000001
 20
174.453
 30
0.0
 11
25.665299999999998
 21
176.66499999999999
 31
0.0
  0
LINE
  5
8C
  8
0
 62
     7
 10
25.665299999999998
 20
176.66499999999999
 30
0.0
 11
24.4801
 21
176.66499999999999
 31
0.0
  0
LINE
  5
8D
  8
0
 62
     7
 10
25.058199999999989
 20
222.953
 30
0.0
 11
25.058199999999989
 21
174.453
 31
0.0
  0
LINE
  5
8E
  8
0
 62
     7
 10
31.3001
 20
196.16499999999991
 30
0.0
 11
31.892700000000001
 21
193.95299999999989
 31
0.0
  0
LINE
  5
8F
  8
0
 62
     7
 10
31.892700000000001
 20
193.95299999999989
 30
0.0
 11
32.485199999999999
 21
196.16499999999991
 31
0.0
  0
LINE
  5
90
  8
0
 62
     7
 10
32.485199999999999
 20
196.16499999999991
 30
0.0
 11
31.3001
 21
196.16499999999991
 31
0.0
  0
LINE
  5
91
  8
0
 62
     7
 10
32.470700000000001
 20
220.74199999999999
 30
0.0
 11
31.8782
 21
222.953
 31
0.0
  0
LINE
  5
92
  8
0
 62
     7
 10
31.8782
 20
222.953
 30
0.0
 11
31.285599999999999
 21
220.74199999999999
 31
0.0
  0
LINE
  5
93
  8
0
 62
     7
 10
31.285599999999999
 20
220.74199999999999
 30
0.0
 11
32.470700000000001
 21
220.74199999999999
 31
0.0
  0
LINE
  5
94
  8
0
 62
     7
 10
31.8782
 20
193.95299999999989
 30
0.0
 11
31.8782
 21
222.953
 31
0.0
  0
LINE
  5
95
  8
0
 62
     7
 10
37.510300000000001
 20
219.16499999999999
 30
0.0
 11
38.102800000000002
 21
216.95299999999989
 31
0.0
  0
LINE
  5
96
  8
0
 62
     7
 10
38.102800000000002
 20
216.95299999999989
 30
0.0
 11
38.695399999999999
 21
219.16499999999999
 31
0.0
  0
LINE
  5
97
  8
0
 62
     7
 10
38.695399999999999
 20
219.16499999999999
 30
0.0
 11
37.510300000000001
 21
219.16499999999999
 31
0.0
  0
LINE
  5
98
  8
0
 62
     7
 10
38.680900000000001
 20
220.74199999999999
 30
0.0
 11
38.0884
 21
222.95400000000001
 31
0.0
  0
LINE
  5
99
  8
0
 62
     7
 10
38.0884
 20
222.95400000000001
 30
0.0
 11
37.495800000000003
 21
220.74199999999999
 31
0.0
  0
LINE
  5
9A
  8
0
 62
     7
 10
37.495800000000003
 20
220.74199999999999
 30
0.0
 11
38.680900000000001
 21
220.74199999999999
 31
0.0
  0
LINE
  5
9B
  8
0
 62
     7
 10
38.0884
 20
216.95299999999989
 30
0.0
 11
38.0884
 21
222.95400000000001
 31
0.0
  0
LINE
  5
9C
  8
0
 62
     7
 10
61.788899999999991
 20
230.75700000000001
 30
0.0
 11
64.000500000000002
 21
231.34899999999999
 31
0.0
  0
LINE
  5
9D
  8
0
 62
     7
 10
64.000500000000002
 20
231.34899999999999
 30
0.0
 11
61.788899999999991
 21
231.94200000000001
 31
0.0
  0
LINE
  5
9E
  8
0
 62
     7
 10
61.788899999999991
 20
231.94200000000001
 30
0.0
 11
61.788899999999991
 21
230.75700000000001
 31
0.0
  0
LINE
  5
9F
  8
0
 62
     7
 10
45.7119
 20
231.92699999999999
 30
0.0
 11
43.500300000000003
 21
231.33500000000001
 31
0.0
  0
LINE
  5
A0
  8
0
 62
     7
 10
43.500300000000003
 20
231.33500000000001
 30
0.0
 11
45.7119
 21
230.74199999999999
 31
0.0
  0
LINE
  5
A1
  8
0
 62
     7
 10
45.7119
 20
230.74199999999999
 30
0.0
 11
45.7119
 21
231.92699999999999
 31
0.0
  0
LINE
  5
A2
  8
0
 62
     7
 10
64.000500000000002
 20
231.33500000000001
 30
0.0
 11
43.500300000000003
 21
231.33500000000001
 31
0.0
  0
LINE
  5
A3
  8
0
 62
     7
 10
102.8429999999999
 20
180.16499999999999
 30
0.0
 11
103.43600000000001
 21
177.953
 31
0.0
  0
LINE
  5
A4
  8
0
 62
     7
 10
103.43600000000001
 20
177.953
 30
0.0
 11
104.02799999999991
 21
180.16499999999999
 31
0.0
  0
LINE
  5
A5
  8
0
 62
     7
 10
104.02799999999991
 20
180.16499999999999
 30
0.0
 11
102.8429999999999
 21
180.16499999999999
 31
0.0
  0
LINE
  5
A6
  8
0
 62
     7
 10
102.8429999999999
 20
213.66499999999991
 30
0.0
 11
103.43600000000001
 21
211.453
 31
0.0
  0
LINE
  5
A7
  8
0
 62
     7
 10
103.43600000000001
 20
211.453
 30
0.0
 11
104.02799999999991
 21
213.66499999999991
 31
0.0
  0
LINE
  5
A8
  8
0
 62
     7
 10
104.02799999999991
 20
213.66499999999991
 30
0.0
 11
102.8429999999999
 21
213.66499999999991
 31
0.0
  0
LINE
  5
A9
  8
0
 62
     7
 10
104.02799999999991
 20
172.2409999999999
 30
0.0
 11
103.43600000000001
 21
174.453
 31
0.0
  0
LINE
  5
AA
  8
0
 62
     7
 10
103.43600000000001
 20
174.453
 30
0.0
 11
102.8429999999999
 21
172.2409999999999
 31
0.0
  0
LINE
  5
AB
  8
0
 62
     7
 10
102.8429999999999
 20
172.2409999999999
 30
0.0
 11
104.02799999999991
 21
172.2409999999999
 31
0.0
  0
LINE
  5
AC
  8
0
 62
     7
 10
104.02799999999991
 20
220.74199999999999
 30
0.0
 11
103.43600000000001
 21
222.953
 31
0.0
  0
LINE
  5
AD
  8
0
 62
     7
 10
103.43600000000001
 20
222.953
 30
0.0
 11
102.8429999999999
 21
220.74199999999999
 31
0.0
  0
LINE
  5
AE
  8
0
 62
     7
 10
102.8429999999999
 20
220.74199999999999
 30
0.0
 11
104.02799999999991
 21
220.74199999999999
 31
0.0
  0
LINE
  5
AF
  8
0
 62
     7
 10
103.43600000000001
 20
168.16300000000001
 30
0.0
 11
103.43600000000001
 21
222.953
 31
0.0
  0
LINE
  5
B0
  8
0
 62
     7
 10
41.288699999999999
 20
164.25599999999989
 30
0.0
 11
43.500300000000003
 21
164.84899999999999
 31
0.0
  0
LINE
  5
B1
  8
0
 62
     7
 10
43.500300000000003
 20
164.84899999999999
 30
0.0
 11
41.288699999999999
 21
165.44099999999989
 31
0.0
  0
LINE
  5
B2
  8
0
 62
     7
 10
41.288699999999999
 20
165.44099999999989
 30
0.0
 11
41.288699999999999
 21
164.25599999999989
 31
0.0
  0
LINE
  5
B3
  8
0
 62
     7
 10
91.289100000000005
 20
164.2709999999999
 30
0.0
 11
93.500699999999995
 21
164.86299999999989
 31
0.0
  0
LINE
  5
B4
  8
0
 62
     7
 10
93.500699999999995
 20
164.86299999999989
 30
0.0
 11
91.289100000000005
 21
165.45599999999999
 31
0.0
  0
LINE
  5
B5
  8
0
 62
     7
 10
91.289100000000005
 20
165.45599999999999
 30
0.0
 11
91.289100000000005
 21
164.2709999999999
 31
0.0
  0
LINE
  5
B6
  8
0
 62
     7
 10
48.7117
 20
165.44099999999989
 30
0.0
 11
46.500300000000003
 21
164.84899999999999
 31
0.0
  0
LINE
  5
B7
  8
0
 62
     7
 10
46.500300000000003
 20
164.84899999999999
 30
0.0
 11
48.7117
 21
164.25599999999989
 31
0.0
  0
LINE
  5
B8
  8
0
 62
     7
 10
48.7117
 20
164.25599999999989
 30
0.0
 11
48.7117
 21
165.44099999999989
 31
0.0
  0
LINE
  5
B9
  8
0
 62
     7
 10
84.211900000000014
 20
165.44099999999989
 30
0.0
 11
82.000500000000002
 21
164.84899999999999
 31
0.0
  0
LINE
  5
BA
  8
0
 62
     7
 10
82.000500000000002
 20
164.84899999999999
 30
0.0
 11
84.211900000000014
 21
164.25599999999989
 31
0.0
  0
LINE
  5
BB
  8
0
 62
     7
 10
84.211900000000014
 20
164.25599999999989
 30
0.0
 11
84.211900000000014
 21
165.44099999999989
 31
0.0
  0
LINE
  5
BC
  8
0
 62
     7
 10
93.500699999999995
 20
164.84899999999999
 30
0.0
 11
37.137799999999991
 21
164.84899999999999
 31
0.0
  0
LINE
  5
BD
  8
0
 62
     7
 10
93.500699999999995
 20
164.149
 30
0.0
 11
93.500699999999995
 21
173.988
 31
0.0
  0
LINE
  5
BE
  8
0
 62
     7
 10
93.400700000000001
 20
174.453
 30
0.0
 11
104.136
 21
174.453
 31
0.0
  0
LINE
  5
BF
  8
0
 62
     7
 10
79.0946
 20
177.953
 30
0.0
 11
104.136
 21
177.953
 31
0.0
  0
LINE
  5
C0
  8
0
 62
     7
 10
77.071399999999997
 20
211.453
 30
0.0
 11
104.136
 21
211.453
 31
0.0
  0
LINE
  5
C1
  8
0
 62
     7
 10
94.200699999999998
 20
222.953
 30
0.0
 11
104.136
 21
222.953
 31
0.0
  0
ARC
  5
C2
  8
0
 62
     7
 10
47.15162999999999
 20
408.61281000000002
 30
0.0
 40
205.75271799999999
 50
279.8635109999999
 51
279.97434199999998
  0
ARC
  5
C3
  8
0
 62
     7
 10
82.460616999999999
 20
205.546863
 30
0.0
 40
0.3601269999999999
 50
100.1123129999999
 51
143.7261399999999
  0
ARC
  5
C4
  8
0
 62
     7
 10
82.674068999999989
 20
205.39035699999999
 30
0.0
 40
0.624808
 50
143.73652300000001
 51
161.82140399999989
  0
ARC
  5
C5
  8
0
 62
     7
 10
83.332211999999998
 20
205.1716439999999
 30
0.0
 40
1.318338
 50
161.7140709999999
 51
174.33716000000001
  0
ARC
  5
C6
  8
0
 62
     7
 10
84.718861000000004
 20
205.01691199999999
 30
0.0
 40
2.713541999999999
 50
173.975042
 51
180.1793199999999
  0
LINE
  5
C7
  8
0
 62
     7
 10
76.500699999999995
 20
177.953
 30
0.0
 11
52.000399999999999
 21
177.953
 31
0.0
  0
ARC
  5
C8
  8
0
 62
     7
 10
76.500722999999994
 20
183.453012
 30
0.0
 40
5.4997860000000003
 50
270.00002000000001
 51
359.99998999999991
  0
LINE
  5
C9
  8
0
 62
     7
 10
46.500300000000003
 20
205.953
 30
0.0
 11
46.500300000000003
 21
183.45299999999989
 31
0.0
  0
ARC
  5
CA
  8
0
 62
     7
 10
52.000254999999989
 20
183.453182
 30
0.0
 40
5.4999570000000002
 50
180.00180399999999
 51
270.00181400000002
  0
LINE
  5
CB
  8
0
 62
     7
 10
75.989800000000002
 20
211.453
 30
0.0
 11
52.000399999999999
 21
211.453
 31
0.0
  0
ARC
  5
CC
  8
0
 62
     7
 10
52.000256
 20
205.9532429999999
 30
0.0
 40
5.4999580000000003
 50
89.998206000000025
 51
179.998176
  0
LINE
  5
CD
  8
0
 62
     7
 10
82.000500000000002
 20
164.149
 30
0.0
 11
82.000500000000002
 21
180.87700000000001
 31
0.0
  0
LINE
  5
CE
  8
0
 62
     7
 10
46.500300000000003
 20
164.149
 30
0.0
 11
46.500300000000003
 21
180.87700000000001
 31
0.0
  0
LINE
  5
CF
  8
0
 62
     7
 10
43.500300000000003
 20
164.149
 30
0.0
 11
43.500300000000003
 21
173.7529999999999
 31
0.0
  0
LINE
  5
D0
  8
0
 62
     7
 10
64.000500000000002
 20
232.03499999999991
 30
0.0
 11
64.000500000000002
 21
221.154
 31
0.0
  0
LINE
  5
D1
  8
0
 62
     7
 10
91.289100000000005
 20
238.233
 30
0.0
 11
93.500699999999995
 21
238.82599999999991
 31
0.0
  0
LINE
  5
D2
  8
0
 62
     7
 10
93.500699999999995
 20
238.82599999999991
 30
0.0
 11
91.289100000000005
 21
239.41799999999989
 31
0.0
  0
LINE
  5
D3
  8
0
 62
     7
 10
91.289100000000005
 20
239.41799999999989
 30
0.0
 11
91.289100000000005
 21
238.233
 31
0.0
  0
LINE
  5
D4
  8
0
 62
     7
 10
45.7119
 20
239.404
 30
0.0
 11
43.500300000000003
 21
238.81099999999989
 31
0.0
  0
LINE
  5
D5
  8
0
 62
     7
 10
43.500300000000003
 20
238.81099999999989
 30
0.0
 11
45.7119
 21
238.2179999999999
 31
0.0
  0
LINE
  5
D6
  8
0
 62
     7
 10
45.7119
 20
238.2179999999999
 30
0.0
 11
45.7119
 21
239.404
 31
0.0
  0
LINE
  5
D7
  8
0
 62
     7
 10
93.500699999999995
 20
238.81099999999989
 30
0.0
 11
43.500300000000003
 21
238.81099999999989
 31
0.0
  0
LINE
  5
D8
  8
0
 62
     7
 10
93.500699999999995
 20
239.51099999999991
 30
0.0
 11
93.500699999999995
 21
223.65299999999999
 31
0.0
  0
LINE
  5
D9
  8
0
 62
     7
 10
43.500300000000003
 20
239.51099999999991
 30
0.0
 11
43.500300000000003
 21
223.65299999999999
 31
0.0
  0
LINE
  5
DA
  8
0
 62
     7
 10
31.178100000000001
 20
193.95299999999989
 30
0.0
 11
58.426600000000001
 21
193.95299999999989
 31
0.0
  0
LINE
  5
DB
  8
0
 62
     7
 10
37.388300000000001
 20
216.95299999999989
 30
0.0
 11
59.800899999999999
 21
216.95299999999989
 31
0.0
  0
LINE
  5
DC
  8
0
 62
     7
 10
24.3582
 20
222.953
 30
0.0
 11
42.80019999999999
 21
222.953
 31
0.0
  0
LINE
  5
DD
  8
0
 62
     7
 10
24.357800000000001
 20
174.453
 30
0.0
 11
43.600200000000001
 21
174.453
 31
0.0
  0
LINE
  5
DE
  8
0
 62
     7
 10
77.885800000000003
 20
224.9909999999999
 30
0.0
 11
72.0381
 21
224.9909999999999
 31
0.0
  0
LINE
  5
DF
  8
0
 62
     7
 10
66.382900000000006
 20
220.17299999999989
 30
0.0
 11
65.237899999999996
 21
218.19099999999989
 31
0.0
  0
LINE
  5
E0
  8
0
 62
     7
 10
65.237899999999996
 20
218.19099999999989
 30
0.0
 11
67.221000000000004
 21
219.33500000000001
 31
0.0
  0
LINE
  5
E1
  8
0
 62
     7
 10
67.221000000000004
 20
219.33500000000001
 30
0.0
 11
66.382900000000006
 21
220.17299999999989
 31
0.0
  0
LINE
  5
E2
  8
0
 62
     7
 10
61.618000000000002
 20
213.73299999999989
 30
0.0
 11
62.762999999999998
 21
215.71599999999989
 31
0.0
  0
LINE
  5
E3
  8
0
 62
     7
 10
62.762999999999998
 20
215.71599999999989
 30
0.0
 11
60.780000000000001
 21
214.571
 31
0.0
  0
LINE
  5
E4
  8
0
 62
     7
 10
60.780000000000001
 20
214.571
 30
0.0
 11
61.618000000000002
 21
213.73299999999989
 31
0.0
  0
LINE
  5
E5
  8
0
 62
     7
 10
59.476999999999997
 20
212.43000000000001
 30
0.0
 11
72.0381
 21
224.9909999999999
 31
0.0
  0
LINE
  5
E6
  8
0
  6
AIGENLINE001
 62
     7
 10
68.110500000000002
 20
216.95299999999989
 30
0.0
 11
60.500900000000001
 21
216.95299999999989
 31
0.0
  0
ARC
  5
E7
  8
0
 62
     7
 10
64.000460000000004
 20
216.95333099999991
 30
0.0
 40
1.7501199999999999
 50
0.00001
 51
89.999980000000008
  0
ARC
  5
E8
  8
0
 62
     7
 10
64.068080000000009
 20
216.8857109999999
 30
0.0
 40
1.818997
 50
92.130417000000008
 51
177.86955399999999
  0
ARC
  5
E9
  8
0
 62
     7
 10
64.067692000000008
 20
217.02056400000001
 30
0.0
 40
1.818595
 50
182.1186899999999
 51
267.88133999999991
  0
ARC
  5
EA
  8
0
 62
     7
 10
63.932850000000002
 20
217.02094099999999
 30
0.0
 40
1.8189859999999991
 50
272.13012400000002
 51
357.86988500000001
  0
LINE
  5
EB
  8
0
 62
     7
 10
70.905199999999994
 20
200.858
 30
0.0
 11
64.3887
 21
200.858
 31
0.0
  0
LINE
  5
EC
  8
0
 62
     7
 10
61.229399999999991
 20
190.34399999999999
 30
0.0
 11
62.374400000000001
 21
192.327
 31
0.0
  0
LINE
  5
ED
  8
0
 62
     7
 10
62.374400000000001
 20
192.327
 30
0.0
 11
60.39139999999999
 21
191.18199999999999
 31
0.0
  0
LINE
  5
EE
  8
0
 62
     7
 10
60.39139999999999
 20
191.18199999999999
 30
0.0
 11
61.229399999999991
 21
190.34399999999999
 31
0.0
  0
LINE
  5
EF
  8
0
 62
     7
 10
66.772099999999995
 20
197.56200000000001
 30
0.0
 11
65.627099999999999
 21
195.58000000000001
 31
0.0
  0
LINE
  5
F0
  8
0
 62
     7
 10
65.627099999999999
 20
195.58000000000001
 30
0.0
 11
67.610100000000003
 21
196.72399999999999
 31
0.0
  0
LINE
  5
F1
  8
0
 62
     7
 10
67.610100000000003
 20
196.72399999999999
 30
0.0
 11
66.772099999999995
 21
197.56200000000001
 31
0.0
  0
LINE
  5
F2
  8
0
 62
     7
 10
70.905199999999994
 20
200.858
 30
0.0
 11
56.982100000000003
 21
186.935
 31
0.0
  0
ARC
  5
F3
  8
0
 62
     7
 10
64.06840600000001
 20
193.85505099999989
 30
0.0
 40
3.5938370000000002
 50
1.567904
 51
79.255657999999997
  0
ARC
  5
F4
  8
0
 62
     7
 10
64.003230000000002
 20
193.62529499999999
 30
0.0
 40
3.8317739999999989
 50
78.938641000000004
 51
90.036248000000001
  0
ARC
  5
F5
  8
0
 62
     7
 10
64.085759999999993
 20
193.651419
 30
0.0
 40
3.806597
 50
91.278813999999997
 51
164.64305400000001
  0
ARC
  5
F6
  8
0
 62
     7
 10
63.715471999999998
 20
193.95496299999991
 30
0.0
 40
3.3747599999999989
 50
167.94946999999999
 51
180.026836
  0
ARC
  5
F7
  8
0
 62
     7
 10
63.933613000000001
 20
194.05171100000001
 30
0.0
 40
3.5942460000000001
 50
181.56764899999999
 51
259.25027599999987
  0
ARC
  5
F8
  8
0
 62
     7
 10
63.998741000000003
 20
194.2848689999999
 30
0.0
 40
3.835515
 50
258.94409000000002
 51
270.03083900000001
  0
ARC
  5
F9
  8
0
 62
     7
 10
63.915830999999997
 20
194.25491099999999
 30
0.0
 40
3.806505
 50
271.27914199999992
 51
344.64918199999988
  0
ARC
  5
FA
  8
0
 62
     7
 10
64.287058999999999
 20
193.951686
 30
0.0
 40
3.3738389999999989
 50
347.947834
 51
0.028836
  0
ARC
  5
FB
  8
0
 62
     7
 10
64.000804000000002
 20
193.95338399999989
 30
0.0
 40
2.2999610000000001
 50
0.00001
 51
89.999980000000008
  0
ARC
  5
FC
  8
0
 62
     7
 10
64.000805
 20
193.95338399999989
 30
0.0
 40
2.2999610000000001
 50
90.0
 51
179.99996999999991
  0
ARC
  5
FD
  8
0
 62
     7
 10
64.000977000000006
 20
193.95321100000001
 30
0.0
 40
2.3001320000000001
 50
179.99567899999991
 51
269.99572899999993
  0
ARC
  5
FE
  8
0
 62
     7
 10
64.000631999999996
 20
193.95321200000001
 30
0.0
 40
2.3001330000000002
 50
270.00431099999992
 51
0.004281
  0
LINE
  5
FF
  8
0
  6
AIGENLINE001
 62
     7
 10
64.000500000000002
 20
213.453
 30
0.0
 11
64.000500000000002
 21
220.45400000000001
 31
0.0
  0
LINE
  5
100
  8
0
  6
AIGENLINE001
 62
     7
 10
64.000799999999984
 20
189.07900000000001
 30
0.0
 11
64.000799999999984
 21
198.82799999999989
 31
0.0
  0
LINE
  5
101
  8
0
  6
AIGENLINE001
 62
     7
 10
69.321299999999994
 20
193.95299999999989
 30
0.0
 11
59.1267
 21
193.95299999999989
 31
0.0
  0
ARC
  5
102
  8
0
  6
AIGENLINE002
 62
     7
 10
137.40639299999989
 20
138.0314699999999
 30
0.0
 40
18.939325
 50
262.7120109999999
 51
268.61175400000008
  0
ARC
  5
103
  8
0
  6
AIGENLINE002
 62
     7
 10
136.99236499999989
 20
118.285162
 30
0.0
 40
0.8137770000000001
 50
50.266573999999999
 51
93.157228000000003
  0
ARC
  5
104
  8
0
  6
AIGENLINE002
 62
     7
 10
137.72087400000001
 20
117.6809189999999
 30
0.0
 40
0.8089739999999999
 50
1.572605
 51
49.683498
  0
ARC
  5
105
  8
0
  6
AIGENLINE002
 62
     7
 10
123.587829
 20
128.60952399999991
 30
0.0
 40
0.489175
 50
41.909321999999989
 51
87.388380999999995
  0
ARC
  5
106
  8
0
  6
AIGENLINE002
 62
     7
 10
123.264565
 20
128.25890399999989
 30
0.0
 40
0.964996
 50
23.071179000000001
 51
44.582545000000003
  0
ARC
  5
107
  8
0
  6
AIGENLINE002
 62
     7
 10
158.1946419999999
 20
128.22511399999991
 30
0.0
 40
0.603361
 50
92.456718000000009
 51
160.32189099999999
  0
ARC
  5
109
  8
0
  6
AIGENLINE002
 62
     7
 10
144.01035999999999
 20
117.679986
 30
0.0
 40
0.810945
 50
130.37863100000001
 51
178.36522600000001
  0
ARC
  5
10A
  8
0
  6
AIGENLINE002
 62
     7
 10
144.7325449999999
 20
118.294724
 30
0.0
 40
0.80363
 50
95.786828999999997
 51
129.929158
  0
LINE
  5
10B
  8
0
  6
AIGENLINE002
 62
     7
 10
64.002200000000002
 20
119.0949999999999
 30
0.0
 11
60.163299999999992
 21
119.0949999999999
 31
0.0
  0
LINE
  5
10C
  8
0
  6
AIGENLINE002
 62
     7
 10
63.999099999999999
 20
119.0949999999999
 30
0.0
 11
67.838000000000008
 21
119.0949999999999
 31
0.0
  0
LINE
  5
10D
  8
0
 62
     7
 10
36.5901
 20
126.8669999999999
 30
0.0
 11
35.997500000000002
 21
129.07900000000001
 31
0.0
  0
LINE
  5
10E
  8
0
 62
     7
 10
35.997500000000002
 20
129.07900000000001
 30
0.0
 11
35.405000000000001
 21
126.8669999999999
 31
0.0
  0
LINE
  5
10F
  8
0
 62
     7
 10
35.405000000000001
 20
126.8669999999999
 30
0.0
 11
36.5901
 21
126.8669999999999
 31
0.0
  0
LINE
  5
110
  8
0
 62
     7
 10
35.419400000000003
 20
122.29000000000001
 30
0.0
 11
36.012
 21
120.07899999999999
 31
0.0
  0
LINE
  5
111
  8
0
 62
     7
 10
36.012
 20
120.07899999999999
 30
0.0
 11
36.604500000000002
 21
122.29000000000001
 31
0.0
  0
LINE
  5
112
  8
0
 62
     7
 10
36.604500000000002
 20
122.29000000000001
 30
0.0
 11
35.419400000000003
 21
122.29000000000001
 31
0.0
  0
LINE
  5
113
  8
0
 62
     7
 10
35.997500000000002
 20
129.07900000000001
 30
0.0
 11
35.997500000000002
 21
120.07899999999999
 31
0.0
  0
LINE
  5
114
  8
0
 62
     7
 10
35.297499999999992
 20
129.07900000000001
 30
0.0
 11
42.70859999999999
 21
129.07900000000001
 31
0.0
  0
LINE
  5
115
  8
0
 62
     7
 10
101.93899999999999
 20
126.8669999999999
 30
0.0
 11
101.346
 21
129.07900000000001
 31
0.0
  0
LINE
  5
116
  8
0
 62
     7
 10
101.346
 20
129.07900000000001
 30
0.0
 11
100.75399999999991
 21
126.8669999999999
 31
0.0
  0
LINE
  5
117
  8
0
 62
     7
 10
100.75399999999991
 20
126.8669999999999
 30
0.0
 11
101.93899999999999
 21
126.8669999999999
 31
0.0
  0
LINE
  5
118
  8
0
 62
     7
 10
100.7679999999999
 20
125.79000000000001
 30
0.0
 11
101.361
 21
123.5779999999999
 31
0.0
  0
LINE
  5
119
  8
0
 62
     7
 10
101.361
 20
123.5779999999999
 30
0.0
 11
101.9529999999999
 21
125.79000000000001
 31
0.0
  0
LINE
  5
11A
  8
0
 62
     7
 10
101.9529999999999
 20
125.79000000000001
 30
0.0
 11
100.7679999999999
 21
125.79000000000001
 31
0.0
  0
LINE
  5
11B
  8
0
 62
     7
 10
101.346
 20
129.07900000000001
 30
0.0
 11
101.346
 21
123.5779999999999
 31
0.0
  0
LINE
  5
11C
  8
0
 62
     7
 10
102.04600000000001
 20
129.07900000000001
 30
0.0
 11
94.105599999999995
 21
129.07900000000001
 31
0.0
  0
LINE
  5
11D
  8
0
 62
     7
 10
102.04600000000001
 20
123.5779999999999
 30
0.0
 11
83.121200000000002
 21
123.5779999999999
 31
0.0
  0
LINE
  5
11E
  8
0
 62
     7
 10
61.788200000000003
 20
134.7299999999999
 30
0.0
 11
63.9998
 21
135.32299999999989
 31
0.0
  0
LINE
  5
11F
  8
0
 62
     7
 10
63.9998
 20
135.32299999999989
 30
0.0
 11
61.788200000000003
 21
135.91499999999991
 31
0.0
  0
LINE
  5
120
  8
0
 62
     7
 10
61.788200000000003
 20
135.91499999999991
 30
0.0
 11
61.788200000000003
 21
134.7299999999999
 31
0.0
  0
LINE
  5
121
  8
0
 62
     7
 10
59.712200000000003
 20
135.90100000000001
 30
0.0
 11
57.500599999999999
 21
135.30799999999999
 31
0.0
  0
LINE
  5
122
  8
0
 62
     7
 10
57.500599999999999
 20
135.30799999999999
 30
0.0
 11
59.712200000000003
 21
134.71600000000001
 31
0.0
  0
LINE
  5
123
  8
0
 62
     7
 10
59.712200000000003
 20
134.71600000000001
 30
0.0
 11
59.712200000000003
 21
135.90100000000001
 31
0.0
  0
LINE
  5
124
  8
0
 62
     7
 10
63.9998
 20
135.30799999999999
 30
0.0
 11
57.500599999999999
 21
135.30799999999999
 31
0.0
  0
LINE
  5
125
  8
0
 62
     7
 10
63.9998
 20
136.0079999999999
 30
0.0
 11
63.9998
 21
131.3189999999999
 31
0.0
  0
LINE
  5
126
  8
0
 62
     7
 10
77.289100000000005
 20
142.58199999999991
 30
0.0
 11
79.500699999999995
 21
143.17500000000001
 31
0.0
  0
LINE
  5
127
  8
0
 62
     7
 10
79.500699999999995
 20
143.17500000000001
 30
0.0
 11
77.289100000000005
 21
143.76699999999991
 31
0.0
  0
LINE
  5
128
  8
0
 62
     7
 10
77.289100000000005
 20
143.76699999999991
 30
0.0
 11
77.289100000000005
 21
142.58199999999991
 31
0.0
  0
LINE
  5
129
  8
0
 62
     7
 10
59.712200000000003
 20
143.7529999999999
 30
0.0
 11
57.500599999999999
 21
143.15999999999991
 31
0.0
  0
LINE
  5
12A
  8
0
 62
     7
 10
57.500599999999999
 20
143.15999999999991
 30
0.0
 11
59.712200000000003
 21
142.5679999999999
 31
0.0
  0
LINE
  5
12B
  8
0
 62
     7
 10
59.712200000000003
 20
142.5679999999999
 30
0.0
 11
59.712200000000003
 21
143.7529999999999
 31
0.0
  0
LINE
  5
12C
  8
0
 62
     7
 10
79.500699999999995
 20
143.15999999999991
 30
0.0
 11
57.500599999999999
 21
143.15999999999991
 31
0.0
  0
LINE
  5
12D
  8
0
 62
     7
 10
79.500699999999995
 20
143.86000000000001
 30
0.0
 11
79.500699999999995
 21
126.65600000000001
 31
0.0
  0
LINE
  5
12E
  8
0
 62
     7
 10
57.500599999999999
 20
143.86000000000001
 30
0.0
 11
57.500599999999999
 21
126.65600000000001
 31
0.0
  0
ARC
  5
12F
  8
0
  6
AIGENLINE002
 62
     7
 10
79.042396999999994
 20
123.536884
 30
0.0
 40
1.1426780000000001
 50
92.101227000000009
 51
177.916685
  0
ARC
  5
130
  8
0
  6
AIGENLINE002
 62
     7
 10
79.04242099999999
 20
123.62070199999999
 30
0.0
 40
1.1427290000000001
 50
182.12031399999989
 51
267.89766200000003
  0
ARC
  5
131
  8
0
  6
AIGENLINE002
 62
     7
 10
79.958775000000003
 20
123.62062400000001
 30
0.0
 40
1.142649
 50
272.09862700000002
 51
357.8834359999999
  0
ARC
  5
132
  8
0
  6
AIGENLINE002
 62
     7
 10
79.958010000000002
 20
123.53617300000001
 30
0.0
 40
1.1434150000000001
 50
2.117627999999999
 51
87.864419999999996
  0
LINE
  5
133
  8
0
  6
AIGENLINE001
 62
     7
 10
79.500699999999995
 20
220.8239999999999
 30
0.0
 11
79.500699999999995
 21
226.018
 31
0.0
  0
LINE
  5
134
  8
0
  6
AIGENLINE001
 62
     7
 10
57.500599999999999
 20
220.84
 30
0.0
 11
57.500599999999999
 21
226.0329999999999
 31
0.0
  0
LINE
  5
135
  8
0
  6
AIGENLINE001
 62
     7
 10
79.500699999999995
 20
120.747
 30
0.0
 11
79.500699999999995
 21
125.94
 31
0.0
  0
LINE
  5
136
  8
0
  6
AIGENLINE001
 62
     7
 10
165.69799999999989
 20
123.5779999999999
 30
0.0
 11
171.45099999999991
 21
123.5779999999999
 31
0.0
  0
LINE
  5
137
  8
0
  6
AIGENLINE001
 62
     7
 10
76.668499999999995
 20
123.5779999999999
 30
0.0
 11
82.421199999999985
 21
123.5779999999999
 31
0.0
  0
LINE
  5
138
  8
0
  6
AIGENLINE002
 62
     7
 10
80.000600000000006
 20
124.679
 30
0.0
 11
79.000500000000002
 21
124.679
 31
0.0
  0
LINE
  5
139
  8
0
  6
AIGENLINE002
 62
     7
 10
80.000600000000006
 20
122.479
 30
0.0
 11
79.000500000000002
 21
122.479
 31
0.0
  0
ARC
  5
13A
  8
0
  6
AIGENLINE002
 62
     7
 10
57.042563000000001
 20
123.5368889999999
 30
0.0
 40
1.142673
 50
92.100989999999996
 51
177.91692199999989
  0
ARC
  5
13B
  8
0
  6
AIGENLINE002
 62
     7
 10
57.042591999999999
 20
123.62070199999999
 30
0.0
 40
1.1427290000000001
 50
182.12031399999989
 51
267.89766200000003
  0
ARC
  5
13C
  8
0
  6
AIGENLINE002
 62
     7
 10
57.958601000000002
 20
123.62062400000001
 30
0.0
 40
1.142649
 50
272.09862700000002
 51
357.8834359999999
  0
ARC
  5
13D
  8
0
  6
AIGENLINE002
 62
     7
 10
57.957836
 20
123.53617300000001
 30
0.0
 40
1.1434150000000001
 50
2.117627999999999
 51
87.864419999999996
  0
LINE
  5
13E
  8
0
  6
AIGENLINE001
 62
     7
 10
66.828599999999994
 20
126.5449999999999
 30
0.0
 11
61.385599999999997
 21
126.5449999999999
 31
0.0
  0
ARC
  5
13F
  8
0
  6
AIGENLINE002
 62
     7
 10
63.957103000000011
 20
126.5007889999999
 30
0.0
 40
1.1944879999999991
 50
2.105283
 51
87.903289999999984
  0
ARC
  5
140
  8
0
  6
AIGENLINE002
 62
     7
 10
64.045059999999992
 20
126.500235
 30
0.0
 40
1.1950620000000001
 50
92.122260999999995
 51
177.86912599999999
  0
ARC
  5
141
  8
0
  6
AIGENLINE002
 62
     7
 10
64.04468
 20
126.588545
 30
0.0
 40
1.1946619999999999
 50
182.10476
 51
267.89526999999998
  0
ARC
  5
142
  8
0
  6
AIGENLINE002
 62
     7
 10
63.956527000000001
 20
126.58894699999991
 30
0.0
 40
1.1950789999999989
 50
272.12332400000003
 51
357.87668599999989
  0
ARC
  5
143
  8
0
 62
     7
 10
85.366101999999998
 20
115.65588200000001
 30
0.0
 40
0.8269989999999999
 50
271.59536299999991
 51
349.8370109999999
  0
ARC
  5
144
  8
0
 62
     7
 10
35.970117000000002
 20
122.5055899999999
 30
0.0
 40
50.695006999999997
 50
352.06818900000002
 51
357.11280199999987
  0
ARC
  5
145
  8
0
 62
     7
 10
82.408224000000004
 20
114.1129999999999
 30
0.0
 40
1.1158539999999999
 50
46.743372999999998
 51
89.689687000000006
  0
ARC
  5
146
  8
0
 62
     7
 10
83.415824999999984
 20
115.18520700000001
 30
0.0
 40
0.356006
 50
226.96760599999999
 51
269.76820900000001
  0
LINE
  5
147
  8
0
 62
     7
 10
80.369200000000006
 20
115.27799999999991
 30
0.0
 11
82.414299999999983
 21
115.229
 31
0.0
  0
LINE
  5
148
  8
0
 62
     7
 10
83.414400000000001
 20
114.82899999999999
 30
0.0
 11
85.389099999999985
 21
114.82899999999999
 31
0.0
  0
ARC
  5
149
  8
0
 62
     7
 10
79.564245999999997
 20
116.38789199999989
 30
0.0
 40
0.809124
 50
186.3151639999999
 51
232.54255800000001
  0
LINE
  5
14A
  8
0
 62
     7
 10
78.676999999999992
 20
117.086
 30
0.0
 11
78.760000000000005
 21
116.29899999999989
 31
0.0
  0
ARC
  5
14B
  8
0
 62
     7
 10
77.790693000000005
 20
116.960179
 30
0.0
 40
0.8949189999999999
 50
8.1109910000000003
 51
93.605127999999993
  0
ARC
  5
14C
  8
0
 62
     7
 10
68.341025999999999
 20
289.19515000000001
 30
0.0
 40
171.59909500000001
 50
270.10110099999991
 51
273.137854
  0
ARC
  5
14D
  8
0
 62
     7
 10
80.374107999999993
 20
117.29337099999989
 30
0.0
 40
2.0149300000000001
 50
231.396784
 51
269.86174299999999
  0
ARC
  5
14E
  8
0
 62
     7
 10
164.93953400000001
 20
92.508320999999995
 30
0.0
 40
4.2197409999999991
 50
268.87169299999999
 51
287.27267999999992
  0
ARC
  5
14F
  8
0
 62
     7
 10
165.182219
 20
91.648181999999991
 30
0.0
 40
3.326419
 50
287.68005799999997
 51
348.58224899999999
  0
ARC
  5
150
  8
0
 62
     7
 10
158.4466009999999
 20
92.512240999999989
 30
0.0
 40
4.2236500000000001
 50
252.73592799999989
 51
271.11973799999998
  0
ARC
  5
151
  8
0
 62
     7
 10
158.1275149999999
 20
91.580205000000007
 30
0.0
 40
3.239028999999999
 50
190.504661
 51
253.23307199999999
  0
LINE
  5
152
  8
0
 62
     7
 10
161.74299999999991
 20
88.289400000000015
 30
0.0
 11
158.529
 21
88.289400000000015
 31
0.0
  0
LINE
  5
153
  8
0
 62
     7
 10
161.74299999999991
 20
88.289400000000015
 30
0.0
 11
164.85599999999991
 21
88.289400000000015
 31
0.0
  0
LINE
  5
154
  8
0
 62
     7
 10
154.9429999999999
 20
90.989699999999985
 30
0.0
 11
168.4429999999999
 21
90.989699999999985
 31
0.0
  0
ARC
  5
155
  8
0
 62
     7
 10
130.60204999999999
 20
92.508320999999995
 30
0.0
 40
4.2197409999999991
 50
268.87169299999999
 51
287.27267999999992
  0
ARC
  5
156
  8
0
 62
     7
 10
130.84473499999999
 20
91.648181999999991
 30
0.0
 40
3.326419
 50
287.68005799999997
 51
348.58224899999999
  0
ARC
  5
157
  8
0
 62
     7
 10
124.11023
 20
92.520089999999996
 30
0.0
 40
4.2314759999999989
 50
252.753075
 51
271.10259100000002
  0
ARC
  5
158
  8
0
 62
     7
 10
123.790031
 20
91.580205000000007
 30
0.0
 40
3.239028999999999
 50
190.504661
 51
253.23307199999999
  0
LINE
  5
159
  8
0
 62
     7
 10
127.405
 20
88.289400000000015
 30
0.0
 11
124.19199999999999
 21
88.289400000000015
 31
0.0
  0
LINE
  5
15A
  8
0
 62
     7
 10
127.405
 20
88.289400000000015
 30
0.0
 11
130.51900000000001
 21
88.289400000000015
 31
0.0
  0
LINE
  5
15B
  8
0
 62
     7
 10
120.605
 20
90.989699999999985
 30
0.0
 11
134.1049999999999
 21
90.989699999999985
 31
0.0
  0
ARC
  5
15C
  8
0
 62
     7
 10
131.301219
 20
76.009180000000001
 30
0.0
 40
2.8060249999999991
 50
2.1198669999999988
 51
87.865500999999995
  0
ARC
  5
15D
  8
0
 62
     7
 10
131.405385
 20
68.013160999999997
 30
0.0
 40
2.6999390000000001
 50
270.00733100000002
 51
0.007301
  0
LINE
  5
15E
  8
0
 62
     7
 10
134.1049999999999
 20
76.112999999999985
 30
0.0
 11
134.1049999999999
 21
68.013499999999993
 31
0.0
  0
ARC
  5
15F
  8
0
 62
     7
 10
123.409036
 20
76.009508999999994
 30
0.0
 40
2.8056580000000002
 50
92.113408999999976
 51
177.88656199999991
  0
ARC
  5
160
  8
0
 62
     7
 10
123.3055699999999
 20
68.013505000000009
 30
0.0
 40
2.7002820000000001
 50
179.99996999999991
 51
270.00002000000001
  0
LINE
  5
161
  8
0
 62
     7
 10
120.605
 20
76.112999999999985
 30
0.0
 11
120.605
 21
68.013499999999993
 31
0.0
  0
LINE
  5
162
  8
0
 62
     7
 10
123.306
 20
65.313199999999995
 30
0.0
 11
131.40600000000001
 21
65.313199999999995
 31
0.0
  0
LINE
  5
163
  8
0
 62
     7
 10
123.306
 20
78.813299999999998
 30
0.0
 11
131.40600000000001
 21
78.813299999999998
 31
0.0
  0
ARC
  5
164
  8
0
 62
     7
 10
59.111775999999999
 20
116.982231
 30
0.0
 40
0.8942899999999999
 50
86.329442
 51
171.8834719999999
  0
ARC
  5
165
  8
0
 62
     7
 10
75.694772999999984
 20
212.40630400000001
 30
0.0
 40
0.997395
 50
287.20613900000001
 51
358.74257399999999
  0
ARC
  5
166
  8
0
 62
     7
 10
83.580449000000016
 20
311.713661
 30
0.0
 40
105.747011
 50
269.57142299999992
 51
272.23063300000001
  0
ARC
  5
167
  8
0
 62
     7
 10
87.216075000000004
 20
209.22350700000001
 30
0.0
 40
3.212874999999999
 50
278.60274900000002
 51
355.04222199999998
  0
ARC
  5
168
  8
0
 62
     7
 10
-36.090232
 20
213.12360699999991
 30
0.0
 40
126.5739979999999
 50
358.08589999999992
 51
359.99834399999992
  0
ARC
  5
169
  8
0
 62
     7
 10
-34.873719000000001
 20
213.13491999999999
 30
0.0
 40
125.357485
 50
359.99315799999988
 51
1.7514959999999991
  0
ARC
  5
16A
  8
0
 62
     7
 10
87.200712999999993
 20
216.66747499999991
 30
0.0
 40
3.2304240000000002
 50
5.3098339999999986
 51
87.215126999999995
  0
ARC
  5
16B
  8
0
 62
     7
 10
83.574736999999985
 20
99.913218999999998
 30
0.0
 40
120.03296899999999
 50
88.086695999999989
 51
92.018740000000008
  0
ARC
  5
16C
  8
0
 62
     7
 10
79.966678999999999
 20
216.70635200000001
 30
0.0
 40
3.225541999999999
 50
101.087335
 51
176.4305709999999
  0
ARC
  5
16D
  8
0
 62
     7
 10
207.544982
 20
213.04136800000001
 30
0.0
 40
130.85470299999989
 50
178.307063
 51
180.28767199999999
  0
LINE
  5
16E
  8
0
 62
     7
 10
82.000500000000002
 20
183.45299999999989
 30
0.0
 11
82.005300000000005
 21
205.0079999999999
 31
0.0
  0
ARC
  5
16F
  8
0
 62
     7
 10
66.314789000000005
 20
195.67524800000001
 30
0.0
 40
78.128093000000007
 50
264.75177599999989
 51
271.41051900000002
  0
ARC
  5
170
  8
0
 62
     7
 10
102.78058
 20
122.6985269999999
 30
0.0
 40
52.548577000000002
 50
182.971856
 51
187.83838399999999
  0
ARC
  5
171
  8
0
 62
     7
 10
92.736069999999998
 20
120.54885299999999
 30
0.0
 40
0.46999
 50
269.6357779999999
 51
351.81634100000002
  0
ARC
  5
172
  8
0
 62
     7
 10
-54.816928000000011
 20
128.26977600000001
 30
0.0
 40
148.22264599999991
 50
356.99034699999999
 51
0.080849
  0
ARC
  5
173
  8
0
 62
     7
 10
44.121809999999989
 20
120.59437800000001
 30
0.0
 40
0.5156900000000001
 50
190.01582799999991
 51
268.46647599999989
  0
ARC
  5
174
  8
0
 62
     7
 10
121.969582
 20
120.618227
 30
0.0
 40
0.526593
 50
188.410235
 51
258.448555
  0
ARC
  5
175
  8
0
 62
     7
 10
359.73875699999991
 20
142.49141
 30
0.0
 40
239.29463999999999
 50
183.3428209999999
 51
185.2625919999999
  0
ARC
  5
176
  8
0
 62
     7
 10
121.368453
 20
128.5790979999999
 30
0.0
 40
0.5196130000000001
 50
92.097764999999995
 51
177.86273199999999
  0
LINE
  5
177
  8
0
 62
     7
 10
120.8489999999999
 20
128.5979999999999
 30
0.0
 11
120.8489999999999
 21
128.58000000000001
 31
0.0
  0
LINE
  5
178
  8
0
 62
     7
 10
169.863
 20
129.095
 30
0.0
 11
121.3489999999999
 21
129.0979999999999
 31
0.0
  0
LINE
  5
179
  8
0
 62
     7
 10
169.863
 20
114.8449999999999
 30
0.0
 11
169.863
 21
129.095
 31
0.0
  0
LINE
  5
17B
  8
0
 62
     7
 10
144.2879999999999
 20
114.66
 30
0.0
 11
144.3334148254317
 21
115.8457700152365
 31
0.0
  0
ARC
  5
17C
  8
0
 62
     7
 10
143.66867899999991
 20
114.7158899999999
 30
0.0
 40
0.621516
 50
271.86912599999988
 51
354.87708700000002
  0
LINE
  5
17D
  8
0
 62
     7
 10
138.03999999999991
 20
114.0949999999999
 30
0.0
 11
143.68899999999999
 21
114.0949999999999
 31
0.0
  0
LINE
  5
17E
  8
0
 62
     7
 10
134.79699999999991
 20
116.90599999999991
 30
0.0
 11
137.37200000000001
 21
116.51000000000001
 31
0.0
  0
ARC
  5
17F
  8
0
 62
     7
 10
138.061431
 20
114.7175159999999
 30
0.0
 40
0.6231680000000001
 50
185.25942000000001
 51
268.06019300000003
  0
LINE
  5
180
  8
0
 62
     7
 10
137.441
 20
114.66
 30
0.0
 11
137.37200000000129
 21
116.50999999999981
 31
0.0
  0
ARC
  5
182
  8
0
  6
AIGENLINE002
 62
     7
 10
136.327653
 20
116.81797299999999
 30
0.0
 40
1.0337849999999991
 50
1.743179
 51
81.966897000000017
  0
ARC
  5
186
  8
0
 62
     7
 10
158.088855
 20
256.64351199999987
 30
0.0
 40
141.666932
 50
258.89164699999998
 51
260.51800099999991
  0
ARC
  5
187
  8
0
 62
     7
 10
131.00544999999991
 20
118.41541100000001
 30
0.0
 40
0.810974
 50
218.81638199999989
 51
254.9780979999999
  0
ARC
  5
188
  8
0
 62
     7
 10
143.8650879999999
 20
128.67403300000001
 30
0.0
 40
17.261182999999988
 50
210.34016099999999
 51
218.59178199999991
  0
LINE
  5
189
  8
0
 62
     7
 10
121.95
 20
120.0949999999999
 30
0.0
 11
169.863
 21
120.0949999999999
 31
0.0
  0
ARC
  5
18A
  8
0
  6
AIGENLINE002
 62
     7
 10
145.404405
 20
116.845693
 30
0.0
 40
1.035655999999999
 50
100.181293
 51
182.4629039999999
  0
ARC
  5
18B
  8
0
 62
     7
 10
168.48109419348981
 20
405.73521567663721
 30
0.0
 40
290.89345321738801
 50
263.86086233418189
 51
270.27244634625089
  0
ARC
  5
18C
  8
0
 62
     7
 10
92.782596999999996
 20
128.45610999999991
 30
0.0
 40
0.623391
 50
2.0978870000000001
 51
87.869202999999999
  0
LINE
  5
18D
  8
0
 62
     7
 10
92.805800000000005
 20
129.07900000000001
 30
0.0
 11
92.800299999999993
 21
129.07900000000001
 31
0.0
  0
ARC
  5
18E
  8
0
 62
     7
 10
87.726108999999994
 20
119.88752099999989
 30
0.0
 40
1.127224999999999
 50
170.226404
 51
176.6809759999999
  0
ARC
  5
18F
  8
0
 62
     7
 10
85.726324000000005
 20
119.6023399999999
 30
0.0
 40
0.8296269999999999
 50
271.90927900000003
 51
354.548317
  0
ARC
  5
190
  8
0
 62
     7
 10
68.723989000000003
 20
116.460128
 30
0.0
 40
1.138997
 50
94.020290000000003
 51
176.18480700000001
  0
LINE
  5
191
  8
0
 62
     7
 10
67.587500000000006
 20
116.5359999999999
 30
0.0
 11
67.546899999999994
 21
114.6729999999999
 31
0.0
  0
ARC
  5
192
  8
0
 62
     7
 10
66.926497999999995
 20
114.71618700000001
 30
0.0
 40
0.621834
 50
271.92756600000001
 51
356.06227299999989
  0
LINE
  5
193
  8
0
 62
     7
 10
64.052800000000005
 20
114.0949999999999
 30
0.0
 11
61.157899999999998
 21
114.0949999999999
 31
0.0
  0
ARC
  5
194
  8
0
 62
     7
 10
59.380442000000002
 20
116.459254
 30
0.0
 40
1.139929999999999
 50
3.8560509999999999
 51
85.938811999999999
  0
LINE
  5
195
  8
0
 62
     7
 10
60.517800000000001
 20
116.5359999999999
 30
0.0
 11
60.558399999999992
 21
114.6729999999999
 31
0.0
  0
LINE
  5
196
  8
0
 62
     7
 10
58.226399999999991
 20
117.1079999999999
 30
0.0
 11
58.1434
 21
116.321
 31
0.0
  0
LINE
  5
197
  8
0
 62
     7
 10
59.461199999999998
 20
117.596
 30
0.0
 11
58.5396
 21
117.68600000000001
 31
0.0
  0
ARC
  5
198
  8
0
 62
     7
 10
56.527068999999997
 20
117.317735
 30
0.0
 40
2.0179409999999991
 50
270.2025339999999
 51
308.60495999999989
  0
ARC
  5
199
  8
0
 62
     7
 10
57.337419999999987
 20
116.4101449999999
 30
0.0
 40
0.810918
 50
307.51898599999998
 51
353.68434400000001
  0
ARC
  5
19A
  8
0
 62
     7
 10
61.178727000000002
 20
114.71610099999999
 30
0.0
 40
0.621746
 50
183.9303909999999
 51
268.07981100000001
  0
LINE
  5
19B
  8
0
 62
     7
 10
64.052800000000005
 20
114.0949999999999
 30
0.0
 11
66.947400000000002
 21
114.0949999999999
 31
0.0
  0
LINE
  5
19C
  8
0
 62
     7
 10
92.800299999999993
 20
129.07900000000001
 30
0.0
 11
64.052800000000005
 21
129.07900000000001
 31
0.0
  0
LINE
  5
19D
  8
0
 62
     7
 10
92.733099999999993
 20
120.07899999999999
 30
0.0
 11
64.052800000000005
 21
120.07899999999999
 31
0.0
  0
LINE
  5
19E
  8
0
 62
     7
 10
85.754000000000005
 20
118.7729999999999
 30
0.0
 11
63.989800000000002
 21
118.7729999999999
 31
0.0
  0
ARC
  5
19F
  8
0
 62
     7
 10
44.029454999999999
 20
128.45715799999999
 30
0.0
 40
0.6222780000000001
 50
91.96661899999998
 51
176.057254
  0
ARC
  5
1A0
  8
0
 62
     7
 10
53.487664999999993
 20
115.204605
 30
0.0
 40
0.354045
 50
270.226294
 51
313.32015999999999
  0
ARC
  5
1A1
  8
0
 62
     7
 10
54.493831000000007
 20
114.140368
 30
0.0
 40
1.1105279999999991
 50
90.239919000000015
 51
133.41669999999991
  0
ARC
  5
1A2
  8
0
 62
     7
 10
51.537433999999998
 20
115.67760799999991
 30
0.0
 40
0.827368
 50
190.13573700000001
 51
268.39928199999991
  0
ARC
  5
1A3
  8
0
 62
     7
 10
51.15945700000001
 20
119.6026159999999
 30
0.0
 40
0.8298989999999999
 50
185.4690159999999
 51
268.09810299999992
  0
LINE
  5
1A4
  8
0
 62
     7
 10
53.489100000000001
 20
114.8509999999999
 30
0.0
 11
51.514299999999999
 21
114.8509999999999
 31
0.0
  0
LINE
  5
1A5
  8
0
 62
     7
 10
44.107999999999997
 20
120.07899999999999
 30
0.0
 11
44.330199999999991
 21
120.07899999999999
 31
0.0
  0
LINE
  5
1A6
  8
0
 62
     7
 10
44.330199999999991
 20
120.07899999999999
 30
0.0
 11
63.959099999999999
 21
120.07899999999999
 31
0.0
  0
LINE
  5
1A7
  8
0
 62
     7
 10
51.131900000000002
 20
118.7729999999999
 30
0.0
 11
63.989800000000002
 21
118.7729999999999
 31
0.0
  0
LINE
  5
1A8
  8
0
 62
     7
 10
44.008099999999992
 20
129.07900000000001
 30
0.0
 11
64.052800000000005
 21
129.07900000000001
 31
0.0
  0
LINE
  5
1A9
  8
0
 62
     7
 10
56.534199999999998
 20
115.3
 30
0.0
 11
54.489199999999997
 21
115.251
 31
0.0
  0
LINE
  5
1AA
  8
0
 62
     7
 10
93.500699999999995
 20
193.10299999999989
 30
0.0
 11
93.500699999999995
 21
175.2529999999999
 31
0.0
  0
ARC
  5
1AB
  8
0
 62
     7
 10
92.670112000000003
 20
175.283874
 30
0.0
 40
0.8311049999999999
 50
272.10907500000002
 51
357.8909339999999
  0
LINE
  5
1AC
  8
0
 62
     7
 10
93.500699999999995
 20
222.953
 30
0.0
 11
93.500699999999995
 21
193.10299999999989
 31
0.0
  0
LINE
  5
1AD
  8
0
 62
     7
 10
43.500300000000003
 20
175.2529999999999
 30
0.0
 11
43.500300000000003
 21
193.10299999999989
 31
0.0
  0
ARC
  5
1AE
  8
0
 62
     7
 10
44.330832000000001
 20
175.283873
 30
0.0
 40
0.8311049999999999
 50
182.10906799999989
 51
267.890962
  0
LINE
  5
1AF
  8
0
 62
     7
 10
63.650399999999998
 20
174.453
 30
0.0
 11
44.30019999999999
 21
174.453
 31
0.0
  0
LINE
  5
1B0
  8
0
 62
     7
 10
43.500300000000003
 20
193.10299999999989
 30
0.0
 11
43.500300000000003
 21
222.953
 31
0.0
  0
LINE
  5
1B1
  8
0
 62
     7
 10
92.700699999999998
 20
174.453
 30
0.0
 11
63.650399999999998
 21
174.453
 31
0.0
  0
LINE
  5
1B2
  8
0
 62
     7
 10
93.500699999999995
 20
222.953
 30
0.0
 11
43.500300000000003
 21
222.953
 31
0.0
  0
LINE
  5
1B3
  8
0
  6
AIGENLINE001
 62
     7
 10
57.500599999999999
 20
120.762
 30
0.0
 11
57.500599999999999
 21
125.956
 31
0.0
  0
LINE
  5
1B4
  8
0
  6
AIGENLINE001
 62
     7
 10
54.668300000000002
 20
123.5779999999999
 30
0.0
 11
60.421000000000006
 21
123.5779999999999
 31
0.0
  0
LINE
  5
1B5
  8
0
  6
AIGENLINE001
 62
     7
 10
163.613
 20
131.40600000000001
 30
0.0
 11
163.613
 21
124.6279999999999
 31
0.0
  0
LINE
  5
1B6
  8
0
  6
AIGENLINE001
 62
     7
 10
140.863
 20
122.6369999999999
 30
0.0
 11
140.863
 21
111.47799999999989
 31
0.0
  0
LINE
  5
1B7
  8
0
  6
AIGENLINE002
 62
     7
 10
143.16499999999991
 20
118.02799999999991
 30
0.0
 11
138.565
 21
118.02799999999991
 31
0.0
  0
LINE
  5
1B8
  8
0
  6
AIGENLINE002
 62
     7
 10
144.65199999999999
 20
119.09399999999989
 30
0.0
 11
137.078
 21
119.09399999999989
 31
0.0
  0
ARC
  5
1B9
  8
0
  6
AIGENLINE002
 62
     7
 10
140.43247500000001
 20
134.15758400000001
 30
0.0
 40
17.190626999999999
 50
198.73163500000001
 51
213.23720899999989
  0
ARC
  5
1BA
  8
0
  6
AIGENLINE002
 62
     7
 10
136.4273509999999
 20
131.48675199999991
 30
0.0
 40
12.375736
 50
213.73406800000001
 51
238.90585299999989
  0
ARC
  5
1BB
  8
0
  6
AIGENLINE002
 62
     7
 10
136.49628000000001
 20
132.08301900000001
 30
0.0
 40
12.92432599999999
 50
240.00940299999991
 51
263.36883899999998
  0
LINE
  5
1BC
  8
0
  6
AIGENLINE002
 62
     7
 10
138.244
 20
118.2979999999999
 30
0.0
 11
137.51300000000001
 21
118.91200000000001
 31
0.0
  0
LINE
  5
1BD
  8
0
  6
AIGENLINE002
 62
     7
 10
138.52999999999989
 20
117.703
 30
0.0
 11
138.61199999999999
 21
114.0949999999999
 31
0.0
  0
LINE
  5
1BE
  8
0
  6
AIGENLINE002
 62
     7
 10
143.1999999999999
 20
117.703
 30
0.0
 11
143.11699999999999
 21
114.0949999999999
 31
0.0
  0
LINE
  5
1BF
  8
0
  6
AIGENLINE002
 62
     7
 10
144.21700000000001
 20
118.91200000000001
 30
0.0
 11
143.48500000000001
 21
118.2979999999999
 31
0.0
  0
ARC
  5
1C0
  8
0
  6
AIGENLINE002
 62
     7
 10
144.25273300000001
 20
138.90326899999999
 30
0.0
 40
19.813023999999992
 50
271.153301
 51
277.16944599999988
  0
ARC
  5
1C1
  8
0
  6
AIGENLINE002
 62
     7
 10
145.46397799999991
 20
131.46802600000001
 30
0.0
 40
12.287796999999999
 50
275.89253400000001
 51
318.24002400000001
  0
ARC
  5
1C2
  8
0
  6
AIGENLINE002
 62
     7
 10
142.5095179999999
 20
133.794173
 30
0.0
 40
16.041084999999988
 50
319.069186
 51
340.45732599999991
  0
LINE
  5
1C3
  8
0
  6
AIGENLINE002
 62
     7
 10
169.863
 20
129.095
 30
0.0
 11
158.1689999999999
 21
128.828
 31
0.0
  0
ARC
  5
1C4
  8
0
  6
AIGENLINE002
 62
     7
 10
60.417625999999998
 20
135.02069299999991
 30
0.0
 40
15.92586
 50
254.41184100000001
 51
267.79171400000001
  0
ARC
  5
1C5
  8
0
  6
AIGENLINE002
 62
     7
 10
59.008667000000003
 20
130.93178299999991
 30
0.0
 40
11.611605000000001
 50
223.91302200000001
 51
255.68677799999989
  0
ARC
  5
1C6
  8
0
  6
AIGENLINE002
 62
     7
 10
71.431130999999993
 20
139.9476709999999
 30
0.0
 40
26.900196999999999
 50
206.31795600000001
 51
219.24943099999999
  0
LINE
  5
1C7
  8
0
  6
AIGENLINE001
 62
     7
 10
63.9998
 20
112.69499999999989
 30
0.0
 11
63.9998
 21
130.61899999999989
 31
0.0
  0
ARC
  5
1C8
  8
0
  6
AIGENLINE002
 62
     7
 10
67.585591000000008
 20
135.007859
 30
0.0
 40
15.912972999999999
 50
272.20430299999998
 51
285.59382799999992
  0
ARC
  5
1C9
  8
0
  6
AIGENLINE002
 62
     7
 10
69.000292999999985
 20
130.91856100000001
 30
0.0
 40
11.596892
 50
284.292553
 51
316.107687
  0
ARC
  5
1CA
  8
0
  6
AIGENLINE002
 62
     7
 10
56.607944000000003
 20
139.92362800000001
 30
0.0
 40
26.855803000000002
 50
320.74134099999998
 51
333.693262
  0
LINE
  5
1CB
  8
0
  6
AIGENLINE002
 62
     7
 10
58.000399999999999
 20
124.679
 30
0.0
 11
57.000700000000002
 21
124.679
 31
0.0
  0
LINE
  5
1CC
  8
0
  6
AIGENLINE002
 62
     7
 10
58.000399999999999
 20
122.479
 30
0.0
 11
57.000700000000002
 21
122.479
 31
0.0
  0
LINE
  5
1CD
  8
0
 62
     7
 10
160.25899999999999
 20
225.95400000000001
 30
0.0
 11
158.52699999999999
 21
222.95400000000001
 31
0.0
  0
LINE
  5
1CE
  8
0
 62
     7
 10
158.52699999999999
 20
222.95400000000001
 30
0.0
 11
156.7949999999999
 21
225.95400000000001
 31
0.0
  0
LINE
  5
1CF
  8
0
 62
     7
 10
156.7949999999999
 20
225.95400000000001
 30
0.0
 11
160.25899999999999
 21
225.95400000000001
 31
0.0
  0
LINE
  5
1D0
  8
0
 62
     7
 10
150.34999999999999
 20
193.95299999999989
 30
0.0
 11
144.745
 21
193.95299999999989
 31
0.0
  0
LINE
  5
1D1
  8
0
 62
     7
 10
149.072
 20
196.16499999999991
 30
0.0
 11
149.66499999999991
 21
193.95299999999989
 31
0.0
  0
LINE
  5
1D2
  8
0
 62
     7
 10
149.66499999999991
 20
193.95299999999989
 30
0.0
 11
150.25700000000001
 21
196.16499999999991
 31
0.0
  0
LINE
  5
1D3
  8
0
 62
     7
 10
150.25700000000001
 20
196.16499999999991
 30
0.0
 11
149.072
 21
196.16499999999991
 31
0.0
  0
LINE
  5
1D4
  8
0
 62
     7
 10
150.24299999999991
 20
220.74199999999999
 30
0.0
 11
149.65000000000001
 21
222.95400000000001
 31
0.0
  0
LINE
  5
1D5
  8
0
 62
     7
 10
149.65000000000001
 20
222.95400000000001
 30
0.0
 11
149.05799999999999
 21
220.74199999999999
 31
0.0
  0
LINE
  5
1D6
  8
0
 62
     7
 10
149.05799999999999
 20
220.74199999999999
 30
0.0
 11
150.24299999999991
 21
220.74199999999999
 31
0.0
  0
LINE
  5
1D7
  8
0
 62
     7
 10
149.65000000000001
 20
193.95299999999989
 30
0.0
 11
149.65000000000001
 21
222.95400000000001
 31
0.0
  0
LINE
  5
1D8
  8
0
 62
     7
 10
136.363
 20
227.35099999999991
 30
0.0
 11
136.363
 21
234.739
 31
0.0
  0
LINE
  5
1D9
  8
0
 62
     7
 10
122.075
 20
234.61699999999999
 30
0.0
 11
119.863
 21
234.024
 31
0.0
  0
LINE
  5
1DA
  8
0
 62
     7
 10
119.863
 20
234.024
 30
0.0
 11
122.075
 21
233.4309999999999
 31
0.0
  0
LINE
  5
1DB
  8
0
 62
     7
 10
122.075
 20
233.4309999999999
 30
0.0
 11
122.075
 21
234.61699999999999
 31
0.0
  0
LINE
  5
1DC
  8
0
 62
     7
 10
138.5749999999999
 20
234.61699999999999
 30
0.0
 11
136.363
 21
234.024
 31
0.0
  0
LINE
  5
1DD
  8
0
 62
     7
 10
136.363
 20
234.024
 30
0.0
 11
138.5749999999999
 21
233.4309999999999
 31
0.0
  0
LINE
  5
1DE
  8
0
 62
     7
 10
138.5749999999999
 20
233.4309999999999
 30
0.0
 11
138.5749999999999
 21
234.61699999999999
 31
0.0
  0
LINE
  5
1DF
  8
0
 62
     7
 10
159.65199999999999
 20
233.44599999999991
 30
0.0
 11
161.863
 21
234.03899999999999
 31
0.0
  0
LINE
  5
1E0
  8
0
 62
     7
 10
161.863
 20
234.03899999999999
 30
0.0
 11
159.65199999999999
 21
234.63099999999989
 31
0.0
  0
LINE
  5
1E1
  8
0
 62
     7
 10
159.65199999999999
 20
234.63099999999989
 30
0.0
 11
159.65199999999999
 21
233.44599999999991
 31
0.0
  0
LINE
  5
1E2
  8
0
 62
     7
 10
119.863
 20
234.024
 30
0.0
 11
161.863
 21
234.024
 31
0.0
  0
LINE
  5
1E3
  8
0
 62
     7
 10
161.863
 20
224.0079999999999
 30
0.0
 11
161.863
 21
240.86199999999991
 31
0.0
  0
LINE
  5
1E4
  8
0
 62
     7
 10
119.863
 20
224.0079999999999
 30
0.0
 11
119.863
 21
240.86199999999991
 31
0.0
  0
LINE
  5
1E5
  8
0
 62
     7
 10
168.101
 20
182.16499999999991
 30
0.0
 11
168.69399999999999
 21
179.953
 31
0.0
  0
LINE
  5
1E6
  8
0
 62
     7
 10
168.69399999999999
 20
179.953
 30
0.0
 11
169.28700000000001
 21
182.16499999999991
 31
0.0
  0
LINE
  5
1E7
  8
0
 62
     7
 10
169.28700000000001
 20
182.16499999999991
 30
0.0
 11
168.101
 21
182.16499999999991
 31
0.0
  0
LINE
  5
1E8
  8
0
 62
     7
 10
169.27199999999999
 20
220.74199999999999
 30
0.0
 11
168.679
 21
222.95400000000001
 31
0.0
  0
LINE
  5
1E9
  8
0
 62
     7
 10
168.679
 20
222.95400000000001
 30
0.0
 11
168.08699999999999
 21
220.74199999999999
 31
0.0
  0
LINE
  5
1EA
  8
0
 62
     7
 10
168.08699999999999
 20
220.74199999999999
 30
0.0
 11
169.27199999999999
 21
220.74199999999999
 31
0.0
  0
LINE
  5
1EB
  8
0
 62
     7
 10
168.679
 20
179.953
 30
0.0
 11
168.679
 21
222.95400000000001
 31
0.0
  0
LINE
  5
1EC
  8
0
 62
     7
 10
119.863
 20
222.95400000000001
 30
0.0
 11
109.29600000000001
 21
222.95400000000001
 31
0.0
  0
LINE
  5
1ED
  8
0
 62
     7
 10
172.43000000000001
 20
222.95400000000001
 30
0.0
 11
161.863
 21
222.95400000000001
 31
0.0
  0
ARC
  5
1EE
  8
0
 62
     7
 10
160.82459399999991
 20
180.99220199999991
 30
0.0
 40
1.039458999999999
 50
272.12874399999993
 51
357.85152499999992
  0
ARC
  5
1EF
  8
0
 62
     7
 10
120.901937
 20
180.99220199999991
 30
0.0
 40
1.039458999999999
 50
182.148495
 51
267.87127500000003
  0
LINE
  5
1F0
  8
0
 62
     7
 10
130.34200000000001
 20
185.125
 30
0.0
 11
125.036
 21
185.125
 31
0.0
  0
LINE
  5
1F1
  8
0
 62
     7
 10
121.301
 20
182.22900000000001
 30
0.0
 11
120.15600000000001
 21
180.2459999999999
 31
0.0
  0
LINE
  5
1F2
  8
0
 62
     7
 10
120.15600000000001
 20
180.2459999999999
 30
0.0
 11
122.1389999999999
 21
181.39099999999991
 31
0.0
  0
LINE
  5
1F3
  8
0
 62
     7
 10
122.1389999999999
 20
181.39099999999991
 30
0.0
 11
121.301
 21
182.22900000000001
 31
0.0
  0
LINE
  5
1F4
  8
0
 62
     7
 10
125.036
 20
185.125
 30
0.0
 11
120.15600000000001
 21
180.2459999999999
 31
0.0
  0
LINE
  5
1F5
  8
0
  6
AIGENLINE001
 62
     7
 10
136.363
 20
226.6509999999999
 30
0.0
 11
136.363
 21
177.0079999999999
 31
0.0
  0
ARC
  5
1F6
  8
0
  6
AIGENLINE002
 62
     7
 10
136.45179999999991
 20
193.86483799999999
 30
0.0
 40
2.3901469999999998
 50
92.123069000000015
 51
177.87690099999989
  0
ARC
  5
1F7
  8
0
  6
AIGENLINE002
 62
     7
 10
136.45135300000001
 20
194.04112599999991
 30
0.0
 40
2.389670999999999
 50
182.10423499999999
 51
267.88721299999992
  0
ARC
  5
1F8
  8
0
  6
AIGENLINE002
 62
     7
 10
136.27468300000001
 20
194.041597
 30
0.0
 40
2.3901590000000001
 50
272.12366299999991
 51
357.88492899999989
  0
ARC
  5
1F9
  8
0
  6
AIGENLINE002
 62
     7
 10
136.2755019999999
 20
193.86563199999989
 30
0.0
 40
2.3893239999999998
 50
2.1047569999999989
 51
87.89523299999999
  0
LINE
  5
1FA
  8
0
  6
AIGENLINE001
 62
     7
 10
129.428
 20
193.95299999999989
 30
0.0
 11
143.345
 21
193.95299999999989
 31
0.0
  0
LINE
  5
1FB
  8
0
 62
     7
 10
120.863
 20
179.953
 30
0.0
 11
160.86299999999989
 21
179.953
 31
0.0
  0
LINE
  5
1FC
  8
0
 62
     7
 10
122.075
 20
240.7399999999999
 30
0.0
 11
119.863
 21
240.14799999999991
 31
0.0
  0
LINE
  5
1FD
  8
0
 62
     7
 10
119.863
 20
240.14799999999991
 30
0.0
 11
122.075
 21
239.55500000000001
 31
0.0
  0
LINE
  5
1FE
  8
0
 62
     7
 10
122.075
 20
239.55500000000001
 30
0.0
 11
122.075
 21
240.7399999999999
 31
0.0
  0
LINE
  5
1FF
  8
0
 62
     7
 10
134.15199999999999
 20
233.4309999999999
 30
0.0
 11
136.363
 21
234.024
 31
0.0
  0
LINE
  5
200
  8
0
 62
     7
 10
136.363
 20
234.024
 30
0.0
 11
134.15199999999999
 21
234.61699999999999
 31
0.0
  0
LINE
  5
201
  8
0
 62
     7
 10
134.15199999999999
 20
234.61699999999999
 30
0.0
 11
134.15199999999999
 21
233.4309999999999
 31
0.0
  0
LINE
  5
202
  8
0
 62
     7
 10
159.65199999999999
 20
239.56899999999999
 30
0.0
 11
161.863
 21
240.16200000000001
 31
0.0
  0
LINE
  5
203
  8
0
 62
     7
 10
161.863
 20
240.16200000000001
 30
0.0
 11
159.65199999999999
 21
240.755
 31
0.0
  0
LINE
  5
204
  8
0
 62
     7
 10
159.65199999999999
 20
240.755
 30
0.0
 11
159.65199999999999
 21
239.56899999999999
 31
0.0
  0
LINE
  5
205
  8
0
 62
     7
 10
162.3839999999999
 20
179.953
 30
0.0
 11
169.39400000000001
 21
179.953
 31
0.0
  0
LINE
  5
206
  8
0
 62
     7
 10
119.863
 20
240.14799999999991
 30
0.0
 11
161.863
 21
240.14799999999991
 31
0.0
  0
LINE
  5
207
  8
0
  6
AIGENLINE003
 62
     7
 10
119.863
 20
222.95400000000001
 30
0.0
 11
161.863
 21
222.95400000000001
 31
0.0
  0
LINE
  5
208
  8
0
 62
     7
 10
161.863
 20
180.953
 30
0.0
 11
161.863
 21
222.95400000000001
 31
0.0
  0
LINE
  5
209
  8
0
 62
     7
 10
119.863
 20
180.953
 30
0.0
 11
119.863
 21
222.95400000000001
 31
0.0
  0
TEXT
  5
20A
  8
_________2
 62
     7
 10
90.092336166666669
 20
13.218199999999991
 30
0.0
 40
3.6545800000000002
  1
1 ： 10
 41
0.5
 72
     1
 11
93.960099999999997
 21
13.218199999999991
 31
0.0
  0
LINE
  5
20B
  8
_________2
 62
     7
 10
205.30099999999999
 20
127.41200000000001
 30
0.0
 11
183.55000000000001
 21
127.41200000000001
 31
0.0
  0
LINE
  5
20C
  8
_________2
 62
     7
 10
100.2999999999999
 20
-4.0903900000000002
 30
0.0
 11
100.2999999999999
 21
-21.070699999999992
 31
0.0
  0
LINE
  5
20D
  8
_________2
 62
     7
 10
100.2999999999999
 20
275.93099999999993
 30
0.0
 11
100.2999999999999
 21
258.911
 31
0.0
  0
LINE
  5
20E
  8
_________2
 62
     7
 10
17.049499999999998
 20
127.41200000000001
 30
0.0
 11
-4.70052
 21
127.41200000000001
 31
0.0
  0
LINE
  5
20F
  8
_________2
 62
     7
 10
76.741399999999999
 20
29.805099999999999
 30
0.0
 11
74.554699999999997
 21
29.805099999999999
 31
0.0
  0
LINE
  5
210
  8
_________2
 62
     7
 10
77.233999999999995
 20
29.805099999999999
 30
0.0
 11
76.981800000000007
 21
29.805099999999999
 31
0.0
  0
LINE
  5
211
  8
_________2
 62
     7
 10
77.726299999999995
 20
29.805099999999999
 30
0.0
 11
80.651600000000002
 21
29.805099999999999
 31
0.0
  0
LINE
  5
212
  8
_________2
 62
     7
 10
77.233999999999995
 20
29.805099999999999
 30
0.0
 11
77.485900000000001
 21
29.805099999999999
 31
0.0
  0
LINE
  5
213
  8
_________2
 62
     7
 10
70.837500000000006
 20
29.805099999999999
 30
0.0
 11
68.650499999999994
 21
29.805099999999999
 31
0.0
  0
LINE
  5
214
  8
_________2
 62
     7
 10
71.329800000000006
 20
29.805099999999999
 30
0.0
 11
71.0779
 21
29.805099999999999
 31
0.0
  0
LINE
  5
215
  8
_________2
 62
     7
 10
71.329800000000006
 20
30.2974
 30
0.0
 11
71.329800000000006
 21
32.484400000000001
 31
0.0
  0
LINE
  5
216
  8
_________2
 62
     7
 10
71.329800000000006
 20
29.805099999999999
 30
0.0
 11
71.329800000000006
 21
30.057600000000001
 31
0.0
  0
LINE
  5
217
  8
_________2
 62
     7
 10
71.822400000000002
 20
29.805099999999999
 30
0.0
 11
74.009
 21
29.805099999999999
 31
0.0
  0
LINE
  5
218
  8
_________2
 62
     7
 10
71.329800000000006
 20
29.805099999999999
 30
0.0
 11
71.581999999999994
 21
29.805099999999999
 31
0.0
  0
LINE
  5
219
  8
_________2
 62
     7
 10
71.329800000000006
 20
29.312799999999999
 30
0.0
 11
71.329800000000006
 21
27.126200000000001
 31
0.0
  0
LINE
  5
21A
  8
_________2
 62
     7
 10
71.329800000000006
 20
29.805099999999999
 30
0.0
 11
71.329800000000006
 21
29.5532
 31
0.0
  0
LINE
  5
21B
  8
_________2
 62
     7
 10
75.040899999999993
 20
28.585899999999992
 30
0.0
 11
80.218500000000006
 21
27.720400000000001
 31
0.0
  0
LINE
  5
21C
  8
_________2
 62
     7
 10
75.040899999999993
 20
31.024699999999999
 30
0.0
 11
80.218500000000006
 21
31.8901
 31
0.0
  0
LINE
  5
21D
  8
_________2
 62
     7
 10
80.218500000000006
 20
27.720400000000001
 30
0.0
 11
80.218500000000006
 21
31.8901
 31
0.0
  0
LINE
  5
21E
  8
_________2
 62
     7
 10
75.040899999999993
 20
28.585899999999992
 30
0.0
 11
75.040899999999993
 21
31.024699999999999
 31
0.0
  0
ARC
  5
21F
  8
_________2
 62
     7
 10
71.283201000000005
 20
29.758156
 30
0.0
 40
1.2673589999999999
 50
2.122214
 51
87.893958999999995
  0
ARC
  5
220
  8
_________2
 62
     7
 10
71.376300000000001
 20
29.758562000000001
 30
0.0
 40
1.2669509999999991
 50
92.104485999999994
 51
177.89548500000001
  0
ARC
  5
221
  8
_________2
 62
     7
 10
71.376343999999989
 20
29.852014
 30
0.0
 40
1.2670099999999991
 50
182.1225849999999
 51
267.89363300000002
  0
ARC
  5
222
  8
_________2
 62
     7
 10
71.282900999999995
 20
29.852677
 30
0.0
 40
1.267684
 50
272.11907200000002
 51
357.848567
  0
ARC
  5
223
  8
_________2
 62
     7
 10
71.249426999999997
 20
29.725096999999991
 30
0.0
 40
2.1664659999999989
 50
2.1159629999999998
 51
87.874558999999991
  0
ARC
  5
224
  8
_________2
 62
     7
 10
71.409410999999992
 20
29.725809000000002
 30
0.0
 40
2.1657280000000001
 50
92.107296999999988
 51
177.902142
  0
ARC
  5
225
  8
_________2
 62
     7
 10
71.409789000000004
 20
29.885100999999999
 30
0.0
 40
2.1661329999999999
 50
182.116929
 51
267.88310000000001
  0
ARC
  5
226
  8
_________2
 62
     7
 10
71.249769999999998
 20
29.88509199999999
 30
0.0
 40
2.1661229999999989
 50
272.11667999999992
 51
357.88332999999989
  0
TEXT
  5
227
  8
_________2
 62
     7
 10
104.605
 20
1.6794899999999999
 30
0.0
 40
3.0923400000000001
  1
図番
 41
0.5
  0
LINE
  5
228
  8
_________2
 62
     7
 10
103.55
 20
5.9087199999999989
 30
0.0
 11
183.55099999999999
 21
5.9087199999999989
 31
0.0
  0
TEXT
  5
229
  8
_________2
 62
     7
 10
104.605
 20
11.679600000000001
 30
0.0
 40
3.0923400000000001
  1
品番
 41
0.5
  0
TEXT
  5
22A
  8
_________2
 62
     7
 10
104.605
 20
31.8184
 30
0.0
 40
3.0923400000000001
  1
名称
 41
0.5
  0
TEXT
  5
22B
  8
_________2
 62
     7
 10
91.84545833333334
 20
26.822299999999998
 30
0.0
 40
3.6545800000000002
  1
mm
 41
0.5
 72
     1
 11
93.368200000000016
 21
26.822299999999998
 31
0.0
  0
TEXT
  5
22C
  8
_________2
 62
     7
 10
85.643199999999993
 20
31.8184
 30
0.0
 40
3.0923400000000001
  1
単位
 41
0.5
  0
TEXT
  5
22D
  8
_________2
 62
     7
 10
85.643199999999993
 20
19.411200000000001
 30
0.0
 40
3.0923400000000001
  1
尺度
 41
0.5
  0
TEXT
  5
22E
  8
_________2
 62
     7
 10
136.66252499999999
 20
9.1082000000000001
 30
0.0
 40
3.9357000000000002
  1
KE124050
 41
0.5
 72
     1
 11
143.55000000000001
 21
9.1082000000000001
 31
0.0
  0
TEXT
  5
22F
  8
_________2
 62
     7
 10
136.66252499999999
 20
-0.8919409999999999
 30
0.0
 40
3.9357000000000002
  1
KE124050
 41
0.5
 72
     1
 11
143.55000000000001
 21
-0.8919409999999999
 31
0.0
  0
TEXT
  5
230
  8
_________2
 62
     7
 10
24.587099999999989
 20
0.707627
 30
0.0
 40
3.9357000000000002
  1
実容量：3.5L、重量：15.0kg、オーバーフロー付
 41
0.5
  0
TEXT
  5
231
  8
_________2
 62
     7
 10
109.179
 20
24.226400000000002
 30
0.0
 40
3.9357000000000002
  1
洗面器
 41
0.5
  0
TEXT
  5
232
  8
_________2
 62
     7
 10
39.303480999999991
 20
13.603400000000001
 30
0.0
 40
3.6545800000000002
  1
田尻
 41
0.5
 72
     1
 11
41.313499999999998
 21
13.603400000000001
 31
0.0
  0
TEXT
  5
233
  8
_________2
 62
     7
 10
20.79039066666666
 20
13.603400000000001
 30
0.0
 40
3.6545800000000002
  1
石原
 41
0.5
 72
     1
 11
22.7395
 21
13.603400000000001
 31
0.0
  0
TEXT
  5
234
  8
_________2
 62
     7
 10
67.785799999999995
 20
13.218199999999991
 30
0.0
 40
3.6545800000000002
  1
10.06.24
 41
0.5
  0
TEXT
  5
235
  8
_________2
 62
     7
 10
66.593100000000007
 20
19.411200000000001
 30
0.0
 40
3.0923400000000001
  1
日付
 41
0.5
  0
TEXT
  5
236
  8
_________2
 62
     7
 10
29.639399999999998
 20
19.411200000000001
 30
0.0
 40
3.0923400000000001
  1
検図
 41
0.5
  0
TEXT
  5
237
  8
_________2
 62
     7
 10
18.021399999999989
 20
5.2117699999999987
 30
0.0
 40
3.0923400000000001
  1
備考
 41
0.5
  0
TEXT
  5
238
  8
_________2
 62
     7
 10
18.021399999999989
 20
19.411200000000001
 30
0.0
 40
3.0923400000000001
  1
製図
 41
0.5
  0
TEXT
  5
239
  8
_________2
 62
     7
 10
23.78886533333333
 20
27.936800000000002
 30
0.0
 40
4.4979399999999989
  1
セラトレーディング株式会社
 41
0.5
 72
     1
 11
41.180900000000001
 21
27.936800000000002
 31
0.0
  0
LINE
  5
23A
  8
_________2
 62
     7
 10
183.55099999999999
 20
-4.0910799999999998
 30
0.0
 11
17.049499999999998
 21
-4.0910799999999998
 31
0.0
  0
LINE
  5
23B
  8
_________2
 62
     7
 10
17.049499999999998
 20
-4.0910799999999998
 30
0.0
 11
17.049499999999998
 21
258.911
 31
0.0
  0
LINE
  5
23C
  8
_________2
 62
     7
 10
17.049499999999998
 20
258.911
 30
0.0
 11
183.55099999999999
 21
258.911
 31
0.0
  0
LINE
  5
23D
  8
_________2
 62
     7
 10
183.55099999999999
 20
258.911
 30
0.0
 11
183.55099999999999
 21
-4.0910799999999998
 31
0.0
  0
LINE
  5
23E
  8
_________2
 62
     7
 10
65.549899999999994
 20
9.4096499999999992
 30
0.0
 11
65.549899999999994
 21
35.909500000000001
 31
0.0
  0
LINE
  5
23F
  8
_________2
 62
     7
 10
84.550099999999986
 20
9.4096499999999992
 30
0.0
 11
84.550099999999986
 21
35.909500000000001
 31
0.0
  0
LINE
  5
240
  8
_________2
 62
     7
 10
103.55
 20
-4.0910799999999998
 30
0.0
 11
103.55
 21
35.909500000000001
 31
0.0
  0
LINE
  5
241
  8
_________2
 62
     7
 10
28.549700000000001
 20
9.4096499999999992
 30
0.0
 11
28.549700000000001
 21
23.409199999999998
 31
0.0
  0
LINE
  5
242
  8
_________2
 62
     7
 10
17.049499999999998
 20
9.4096499999999992
 30
0.0
 11
103.55
 21
9.4096499999999992
 31
0.0
  0
LINE
  5
243
  8
_________2
 62
     7
 10
17.049499999999998
 20
23.409199999999998
 30
0.0
 11
103.55
 21
23.409199999999998
 31
0.0
  0
LINE
  5
244
  8
_________2
 62
     7
 10
103.55
 20
15.9092
 30
0.0
 11
183.55099999999999
 21
15.9092
 31
0.0
  0
LINE
  5
245
  8
_________2
 62
     7
 10
17.049499999999998
 20
35.909500000000001
 30
0.0
 11
183.55099999999999
 21
35.909500000000001
 31
0.0
  0
LINE
  5
25D
  8
0
  6
AIGENLINE002
 62
     7
 10
137.37199999999979
 20
116.51000000000001
 30
0.0
 11
137.36095921468501
 21
116.84942049118401
 31
0.0
  0
LINE
  5
25F
  8
0
  6
AIGENLINE002
 62
     7
 10
144.3334148254317
 20
115.8457700152365
 30
0.0
 11
144.36970568366559
 21
116.80118822370331
 31
0.0
  0
TEXT
  5
26F
  8
0
 62
     7
 10
31.212667284476542
 20
39.12480113147479
 30
0.0
 40
3.9357000000000002
  1
※排水栓を閉めた状態で、毎分7L以上吐水させないでください。
 41
0.5
  0
ENDSEC
  0
EOF
