  0
SECTION
  2
HEADER
  9
$ACADVER
  1
AC1009
  9
$INSBASE
 10
0.0
 20
0.0
 30
0.0
  9
$EXTMIN
 10
-4.70052
 20
-21.070699999999992
 30
0.0
  9
$EXTMAX
 10
205.30099999999999
 20
275.93099999999993
 30
0.0
  9
$LIMMIN
 10
0.0
 20
0.0
  9
$LIMMAX
 10
12.0
 20
9.0
  9
$ORTHOMODE
 70
     0
  9
$REGENMODE
 70
     1
  9
$FILLMODE
 70
     1
  9
$QTEXTMODE
 70
     0
  9
$MIRRTEXT
 70
     1
  9
$DRAGMODE
 70
     2
  9
$LTSCALE
 40
1.0
  9
$OSMODE
 70
    37
  9
$ATTMODE
 70
     1
  9
$TEXTSIZE
 40
0.0
  9
$TRACEWID
 40
0.05
  9
$TEXTSTYLE
  7
STANDARD
  9
$CLAYER
  8
0
  9
$CELTYPE
  6
CONTINUOUS
  9
$CECOLOR
 62
   256
  9
$DIMSCALE
 40
1.0
  9
$DIMASZ
 40
0.18
  9
$DIMEXO
 40
0.0625
  9
$DIMDLI
 40
0.38
  9
$DIMRND
 40
0.0
  9
$DIMDLE
 40
0.0
  9
$DIMEXE
 40
0.18
  9
$DIMTP
 40
0.0
  9
$DIMTM
 40
0.0
  9
$DIMTXT
 40
0.18
  9
$DIMCEN
 40
0.09
  9
$DIMTSZ
 40
0.0
  9
$DIMTOL
 70
     0
  9
$DIMLIM
 70
     0
  9
$DIMTIH
 70
     1
  9
$DIMTOH
 70
     1
  9
$DIMSE1
 70
     0
  9
$DIMSE2
 70
     0
  9
$DIMTAD
 70
     0
  9
$DIMZIN
 70
     0
  9
$DIMBLK
  1

  9
$DIMASO
 70
     1
  9
$DIMSHO
 70
     1
  9
$DIMPOST
  1

  9
$DIMAPOST
  1

  9
$DIMALT
 70
     0
  9
$DIMALTD
 70
     2
  9
$DIMALTF
 40
25.399999999999999
  9
$DIMLFAC
 40
1.0
  9
$DIMTOFL
 70
     0
  9
$DIMTVP
 40
0.0
  9
$DIMTIX
 70
     0
  9
$DIMSOXD
 70
     0
  9
$DIMSAH
 70
     0
  9
$DIMBLK1
  1

  9
$DIMBLK2
  1

  9
$DIMSTYLE
  2
STANDARD
  9
$DIMCLRD
 70
     0
  9
$DIMCLRE
 70
     0
  9
$DIMCLRT
 70
     0
  9
$DIMTFAC
 40
1.0
  9
$DIMGAP
 40
0.09
  9
$LUNITS
 70
     2
  9
$LUPREC
 70
     4
  9
$SKETCHINC
 40
0.1
  9
$FILLETRAD
 40
0.0
  9
$AUNITS
 70
     0
  9
$AUPREC
 70
     0
  9
$MENU
  1
.
  9
$ELEVATION
 40
0.0
  9
$PELEVATION
 40
0.0
  9
$THICKNESS
 40
0.0
  9
$LIMCHECK
 70
     0
  9
$BLIPMODE
 70
     0
  9
$CHAMFERA
 40
0.0
  9
$CHAMFERB
 40
0.0
  9
$SKPOLY
 70
     0
  9
$TDCREATE
 40
2444972.375
  9
$TDUPDATE
 40
2455387.4012395018
  9
$TDINDWG
 40
0.0092305208
  9
$TDUSRTIMER
 40
0.0092305208
  9
$USRTIMER
 70
     1
  9
$ANGBASE
 50
0.0
  9
$ANGDIR
 70
     0
  9
$PDMODE
 70
     0
  9
$PDSIZE
 40
0.0
  9
$PLINEWID
 40
0.0
  9
$COORDS
 70
     1
  9
$SPLFRAME
 70
     0
  9
$SPLINETYPE
 70
     6
  9
$SPLINESEGS
 70
     8
  9
$ATTDIA
 70
     0
  9
$ATTREQ
 70
     1
  9
$HANDLING
 70
     1
  9
$HANDSEED
  5
25A
  9
$SURFTAB1
 70
     6
  9
$SURFTAB2
 70
     6
  9
$SURFTYPE
 70
     6
  9
$SURFU
 70
     6
  9
$SURFV
 70
     6
  9
$UCSNAME
  2

  9
$UCSORG
 10
0.0
 20
0.0
 30
0.0
  9
$UCSXDIR
 10
1.0
 20
0.0
 30
0.0
  9
$UCSYDIR
 10
0.0
 20
1.0
 30
0.0
  9
$PUCSNAME
  2

  9
$PUCSORG
 10
0.0
 20
0.0
 30
0.0
  9
$PUCSXDIR
 10
1.0
 20
0.0
 30
0.0
  9
$PUCSYDIR
 10
0.0
 20
1.0
 30
0.0
  9
$USERI1
 70
     0
  9
$USERI2
 70
     0
  9
$USERI3
 70
     0
  9
$USERI4
 70
     0
  9
$USERI5
 70
     0
  9
$USERR1
 40
0.0
  9
$USERR2
 40
0.0
  9
$USERR3
 40
0.0
  9
$USERR4
 40
0.0
  9
$USERR5
 40
0.0
  9
$WORLDVIEW
 70
     1
  9
$SHADEDGE
 70
     3
  9
$SHADEDIF
 70
    70
  9
$TILEMODE
 70
     1
  9
$MAXACTVP
 70
    48
  9
$PLIMCHECK
 70
     0
  9
$PEXTMIN
 10
1.0000000000000000E+020
 20
1.0000000000000000E+020
 30
1.0000000000000000E+020
  9
$PEXTMAX
 10
-1.0000000000000000E+020
 20
-1.0000000000000000E+020
 30
-1.0000000000000000E+020
  9
$PLIMMIN
 10
0.0
 20
0.0
  9
$PLIMMAX
 10
12.0
 20
9.0
  9
$UNITMODE
 70
     0
  9
$VISRETAIN
 70
     1
  9
$PLINEGEN
 70
     0
  9
$PSLTSCALE
 70
     1
  0
ENDSEC
  0
SECTION
  2
TABLES
  0
TABLE
  2
VPORT
 70
     2
  0
VPORT
  2
*ACTIVE
 70
     0
 10
0.0
 20
0.0
 11
1.0
 21
1.0
 12
239.69039950382711
 22
129.80873086580289
 13
0.0
 23
0.0
 14
1.0
 24
1.0
 15
0.0
 25
0.0
 16
0.0
 26
0.0
 36
1.0
 17
0.0
 27
0.0
 37
0.0
 40
285.60120629240379
 41
2.2894736842105261
 42
50.0
 43
0.0
 44
0.0
 50
0.0
 51
0.0
 71
     0
 72
   100
 73
     1
 74
     1
 75
     0
 76
     0
 77
     0
 78
     0
  0
ENDTAB
  0
TABLE
  2
LTYPE
 70
     4
  0
LTYPE
  2
CONTINUOUS
 70
     0
  3
Solid line
 72
    65
 73
     0
 40
0.0
  0
LTYPE
  2
AIGENLINE001
 70
     0
  3
generate AI->DXF Converter
 72
    65
 73
     4
 40
5.8561449999999988
 49
3.5278
 49
-0.776115
 49
0.776115
 49
-0.776115
  0
LTYPE
  2
AIGENLINE002
 70
     0
  3
generate AI->DXF Converter
 72
    65
 73
     2
 40
1.5522299999999991
 49
0.776115
 49
-0.776115
  0
LTYPE
  2
AIGENLINE003
 70
     0
  3
generate AI->DXF Converter
 72
    65
 73
     6
 40
7.4083750000000004
 49
3.5278
 49
-0.776115
 49
0.776115
 49
-0.776115
 49
0.776115
 49
-0.776115
  0
ENDTAB
  0
TABLE
  2
LAYER
 70
     2
  0
LAYER
  2
0
 70
     0
 62
     7
  6
CONTINUOUS
  0
LAYER
  2
_________2
 70
     0
 62
     7
  6
CONTINUOUS
  0
ENDTAB
  0
TABLE
  2
STYLE
 70
     1
  0
STYLE
  2
STANDARD
 70
     0
 40
0.0
 41
0.0
 50
0.0
 71
     0
 42
0.0
  3
TXT
  4
EXTFONT.SHX
  0
ENDTAB
  0
TABLE
  2
VIEW
 70
     0
  0
ENDTAB
  0
TABLE
  2
UCS
 70
     0
  0
ENDTAB
  0
TABLE
  2
APPID
 70
     1
  0
APPID
  2
ACAD
 70
     0
  0
ENDTAB
  0
TABLE
  2
DIMSTYLE
 70
     1
  0
DIMSTYLE
  2
STANDARD
 70
     0
  3

  4

  5

  6

  7

 40
1.0
 41
0.18
 42
0.0625
 43
0.38
 44
0.18
 45
0.0
 46
0.0
 47
0.0
 48
0.0
140
0.18
141
0.09
142
0.0
143
25.399999999999999
144
1.0
145
0.0
146
1.0
147
0.09
 71
     0
 72
     0
 73
     1
 74
     1
 75
     0
 76
     0
 77
     0
 78
     0
170
     0
171
     2
172
     0
173
     0
174
     0
175
     0
176
     0
177
     0
178
     0
  0
ENDTAB
  0
ENDSEC
  0
SECTION
  2
BLOCKS
  0
BLOCK
  8
0
  2
$MODEL_SPACE
 70
     0
 10
0.0
 20
0.0
 30
0.0
  3
$MODEL_SPACE
  1

  0
ENDBLK
  5
1A
  8
0
  0
BLOCK
 67
     1
  8
0
  2
$PAPER_SPACE
 70
     0
 10
0.0
 20
0.0
 30
0.0
  3
$PAPER_SPACE
  1

  0
ENDBLK
  5
17
 67
     1
  8
0
  0
ENDSEC
  0
SECTION
  2
ENTITIES
  0
TEXT
  5
24
  8
0
 62
     7
 10
111.482
 20
194.61699999999999
 30
0.0
 40
3.0923400000000001
  1
※カウンターを設ける場合も
 50
90.0
 41
0.5
  0
TEXT
  5
25
  8
0
 62
     7
 10
115.348
 20
194.61699999999999
 30
0.0
 40
3.0923400000000001
  1
　洗面器の壁固定が必要です。
 50
90.0
 41
0.5
  0
TEXT
  5
26
  8
0
 62
     7
 10
105.485
 20
194.61699999999999
 30
0.0
 40
3.0923400000000001
  1
カウンター切込寸法
 50
90.0
 41
0.5
  0
TEXT
  5
27
  8
0
 62
     7
 10
170.25190520768831
 20
95.861276832003384
 30
0.0
 40
3.9357000000000002
  1
※壁取付部には厚さ30mm以上の補強材を入れてください。
 50
90.0
 41
0.5
  0
TEXT
  5
28
  8
0
 62
     7
 10
76.598200000000006
 20
226.07129199999989
 30
0.0
 40
3.0923400000000001
  1
排水口位置
 50
90.0
 41
0.5
 72
     2
 11
76.598200000000006
 21
234.93599999999989
 31
0.0
  0
TEXT
  5
29
  8
0
 62
     7
 10
56.497340000000001
 20
144.46000000000001
 30
0.0
 40
3.0923400000000001
  1
235
 41
0.5
 72
     1
 11
58.558900000000001
 21
144.46000000000001
 31
0.0
  0
TEXT
  5
2A
  8
0
 62
     7
 10
48.74497250000001
 20
120.179
 30
0.0
 40
3.0923400000000001
  1
60
 41
0.5
 72
     1
 11
49.904600000000002
 21
120.179
 31
0.0
  0
TEXT
  5
2B
  8
0
 62
     7
 10
68.997439999999997
 20
151.70599999999999
 30
0.0
 40
3.0923400000000001
  1
485
 41
0.5
 72
     1
 11
71.058999999999997
 21
151.70599999999999
 31
0.0
  0
TEXT
  5
2C
  8
0
 62
     7
 10
41.078000000000003
 20
105.79600000000001
 30
0.0
 40
3.0923400000000001
  1
%%c35
 41
0.5
  0
TEXT
  5
2D
  8
0
 62
     7
 10
78.92268
 20
93.668899999999994
 30
0.0
 40
3.0923400000000001
  1
%%c46
 41
0.5
 72
     2
 11
83.045799999999986
 21
93.668899999999994
 31
0.0
  0
TEXT
  5
2E
  8
0
 62
     7
 10
91.149572500000005
 20
54.972700000000003
 30
0.0
 40
3.0923400000000001
  1
60
 41
0.5
 72
     1
 11
92.309200000000004
 21
54.972700000000003
 31
0.0
  0
TEXT
  5
2F
  8
0
 62
     7
 10
51.012729999999998
 20
54.796999999999997
 30
0.0
 40
3.0923400000000001
  1
115
 41
0.5
 72
     1
 11
52.558900000000001
 21
54.796999999999997
 31
0.0
  0
TEXT
  5
30
  8
0
 62
     7
 10
72.134082500000005
 20
54.796999999999997
 30
0.0
 40
3.0923400000000001
  1
310
 41
0.5
 72
     1
 11
73.809100000000001
 21
54.796999999999997
 31
0.0
  0
TEXT
  5
31
  8
0
 62
     7
 10
138.9653725
 20
55.066400000000002
 30
0.0
 40
3.0923400000000001
  1
90
 41
0.5
 72
     1
 11
140.125
 21
55.066400000000002
 31
0.0
  0
TEXT
  5
32
  8
0
 62
     7
 10
141.571135
 20
239.85799999999989
 30
0.0
 40
3.0923400000000001
  1
155
 41
0.5
 72
     1
 11
143.375
 21
239.85799999999989
 31
0.0
  0
TEXT
  5
33
  8
0
 62
     7
 10
139.23298249999999
 20
177.52199999999999
 30
0.0
 40
3.0923400000000001
  1
105
 41
0.5
 72
     1
 11
140.9079999999999
 21
177.52199999999999
 31
0.0
  0
TEXT
  5
34
  8
0
 62
     7
 10
159.02099999999999
 20
219.32744
 30
0.0
 40
3.0923400000000001
  1
235
 50
90.0
 41
0.5
 72
     1
 11
159.02099999999999
 21
221.38900000000001
 31
0.0
  0
TEXT
  5
35
  8
0
 62
     7
 10
137.08652499999999
 20
145.2519999999999
 30
0.0
 40
3.0923400000000001
  1
55
 41
0.5
 72
     1
 11
138.375
 21
145.2519999999999
 31
0.0
  0
TEXT
  5
36
  8
0
 62
     7
 10
66.3761875
 20
250.20199999999991
 30
0.0
 40
3.0923400000000001
  1
430
 41
0.5
 72
     1
 11
68.308899999999994
 21
250.20199999999991
 31
0.0
  0
TEXT
  5
37
  8
0
 62
     7
 10
56.497340000000001
 20
225.21299999999999
 30
0.0
 40
3.0923400000000001
  1
235
 41
0.5
 72
     1
 11
58.558900000000001
 21
225.21299999999999
 31
0.0
  0
TEXT
  5
38
  8
0
 62
     7
 10
42.677300000000002
 20
230.08445399999991
 30
0.0
 40
3.0923400000000001
  1
壁
 50
90.0
 41
0.5
 72
     1
 11
42.677300000000002
 21
230.8059999999999
 31
0.0
  0
TEXT
  5
39
  8
0
 62
     7
 10
97.455500000000015
 20
207.7052875
 30
0.0
 40
3.0923400000000001
  1
650
 50
90.0
 41
0.5
 72
     1
 11
97.455500000000015
 21
209.63799999999989
 31
0.0
  0
TEXT
  5
3A
  8
0
 62
     7
 10
78.295599999999993
 20
184.04599999999999
 30
0.0
 40
3.0923400000000001
  1
R10
 41
0.5
  0
TEXT
  5
3B
  8
0
 62
     7
 10
106.41200000000001
 20
56.805500000000002
 30
0.0
 40
3.0923400000000001
  1
30
 50
90.0
 41
0.5
  0
TEXT
  5
3C
  8
0
 62
     7
 10
106.41200000000001
 20
141.28874500000001
 30
0.0
 40
3.0923400000000001
  1
30
 50
90.0
 41
0.5
 72
     2
 11
106.41200000000001
 21
143.608
 31
0.0
  0
TEXT
  5
3D
  8
0
 62
     7
 10
128.1339999999999
 20
98.142287500000009
 30
0.0
 40
3.0923400000000001
  1
280
 50
90.0
 41
0.5
 72
     1
 11
128.1339999999999
 21
100.075
 31
0.0
  0
TEXT
  5
3E
  8
0
 62
     7
 10
106.41200000000001
 20
98.142287500000009
 30
0.0
 40
3.0923400000000001
  1
690
 50
90.0
 41
0.5
 72
     1
 11
106.41200000000001
 21
100.075
 31
0.0
  0
TEXT
  5
3F
  8
0
 62
     7
 10
36.9754
 20
93.530429999999996
 30
0.0
 40
3.0923400000000001
  1
100
 50
90.0
 41
0.5
 72
     1
 11
36.9754
 21
95.076599999999985
 31
0.0
  0
TEXT
  5
40
  8
0
 62
     7
 10
36.9754
 20
103.52983
 30
0.0
 40
3.0923400000000001
  1
100
 50
90.0
 41
0.5
 72
     1
 11
36.9754
 21
105.07599999999999
 31
0.0
  0
TEXT
  5
41
  8
0
 62
     7
 10
30.182500000000001
 20
98.142287500000009
 30
0.0
 40
3.0923400000000001
  1
750
 50
90.0
 41
0.5
 72
     1
 11
30.182500000000001
 21
100.075
 31
0.0
  0
LINE
  5
42
  8
0
 62
     7
 10
37.675499999999992
 20
90.075699999999983
 30
0.0
 11
37.675499999999992
 21
110.07599999999999
 31
0.0
  0
LINE
  5
43
  8
0
 62
     7
 10
89.808999999999997
 20
243.24199999999999
 30
0.0
 11
89.808999999999997
 21
250.21599999999989
 31
0.0
  0
LINE
  5
44
  8
0
 62
     7
 10
46.808799999999998
 20
246.85299999999989
 30
0.0
 11
46.808799999999998
 21
250.20199999999991
 31
0.0
  0
LINE
  5
45
  8
0
 62
     7
 10
72.756399999999999
 20
213.47499999999991
 30
0.0
 11
71.782099999999986
 21
211.404
 31
0.0
  0
LINE
  5
46
  8
0
 62
     7
 10
71.782099999999986
 20
211.404
 30
0.0
 11
73.661799999999985
 21
212.71100000000001
 31
0.0
  0
LINE
  5
47
  8
0
 62
     7
 10
73.661799999999985
 20
212.71100000000001
 30
0.0
 11
72.756399999999999
 21
213.47499999999991
 31
0.0
  0
LINE
  5
48
  8
0
 62
     7
 10
71.771100000000004
 20
211.4129999999999
 30
0.0
 11
77.752899999999997
 21
218.495
 31
0.0
  0
LINE
  5
49
  8
0
 62
     7
 10
77.752899999999997
 20
234.93599999999989
 30
0.0
 11
77.752899999999997
 21
218.495
 31
0.0
  0
LINE
  5
4A
  8
0
  6
AIGENLINE001
 62
     7
 10
138.17500000000001
 20
102.9739999999999
 30
0.0
 11
138.17500000000001
 21
96.950800000000001
 31
0.0
  0
ARC
  5
4B
  8
0
  6
AIGENLINE002
 62
     7
 10
138.218974
 20
100.031211
 30
0.0
 40
1.1950789999999989
 50
92.123304000000005
 51
177.876666
  0
ARC
  5
4C
  8
0
  6
AIGENLINE002
 62
     7
 10
138.21896399999989
 20
100.11975699999989
 30
0.0
 40
1.195068
 50
182.12286399999991
 51
267.87716499999988
  0
ARC
  5
4D
  8
0
  6
AIGENLINE002
 62
     7
 10
138.130437
 20
100.12010600000001
 30
0.0
 40
1.195416
 50
272.12180499999999
 51
357.86104299999988
  0
ARC
  5
4E
  8
0
  6
AIGENLINE002
 62
     7
 10
138.130762
 20
100.03119699999991
 30
0.0
 40
1.195079999999999
 50
2.1239910000000002
 51
87.893160999999978
  0
LINE
  5
4F
  8
0
 62
     7
 10
129.42699999999999
 20
111.8649999999999
 30
0.0
 11
128.834
 21
114.07599999999989
 31
0.0
  0
LINE
  5
50
  8
0
 62
     7
 10
128.834
 20
114.07599999999989
 30
0.0
 11
128.24199999999999
 21
111.8649999999999
 31
0.0
  0
LINE
  5
51
  8
0
 62
     7
 10
128.24199999999999
 20
111.8649999999999
 30
0.0
 11
129.42699999999999
 21
111.8649999999999
 31
0.0
  0
LINE
  5
52
  8
0
 62
     7
 10
128.25599999999989
 20
88.287000000000006
 30
0.0
 11
128.8489999999999
 21
86.075199999999995
 31
0.0
  0
LINE
  5
53
  8
0
 62
     7
 10
128.8489999999999
 20
86.075199999999995
 30
0.0
 11
129.441
 21
88.287000000000006
 31
0.0
  0
LINE
  5
54
  8
0
 62
     7
 10
129.441
 20
88.287000000000006
 30
0.0
 11
128.25599999999989
 21
88.287000000000006
 31
0.0
  0
LINE
  5
55
  8
0
 62
     7
 10
128.834
 20
114.07599999999989
 30
0.0
 11
128.834
 21
86.075199999999995
 31
0.0
  0
LINE
  5
56
  8
0
 62
     7
 10
137.5929999999999
 20
86.075199999999995
 30
0.0
 11
128.1339999999999
 21
86.075199999999995
 31
0.0
  0
ARC
  5
57
  8
0
  6
AIGENLINE002
 62
     7
 10
141.1250939999999
 20
85.575678999999994
 30
0.0
 40
1.1003700000000001
 50
179.99996999999991
 51
270.00002000000001
  0
ARC
  5
58
  8
0
  6
AIGENLINE002
 62
     7
 10
141.12474999999989
 20
85.575334999999995
 30
0.0
 40
1.1000259999999991
 50
270.01796399999989
 51
0.017934
  0
ARC
  5
59
  8
0
  6
AIGENLINE002
 62
     7
 10
141.12474999999989
 20
86.575796999999994
 30
0.0
 40
1.1000259999999991
 50
359.98206599999997
 51
89.982035999999994
  0
ARC
  5
5A
  8
0
  6
AIGENLINE002
 62
     7
 10
141.1250949999999
 20
86.575451999999984
 30
0.0
 40
1.1003709999999991
 50
90.0
 51
179.99996999999991
  0
LINE
  5
5B
  8
0
  6
AIGENLINE001
 62
     7
 10
43.634099999999997
 20
86.075199999999995
 30
0.0
 11
49.171799999999998
 21
86.075199999999995
 31
0.0
  0
LINE
  5
5C
  8
0
  6
AIGENLINE001
 62
     7
 10
43.634099999999997
 20
114.07599999999989
 30
0.0
 11
49.171799999999998
 21
114.07599999999989
 31
0.0
  0
LINE
  5
5D
  8
0
  6
AIGENLINE001
 62
     7
 10
138.29299999999989
 20
86.075199999999995
 30
0.0
 11
143.83099999999999
 21
86.075199999999995
 31
0.0
  0
LINE
  5
5E
  8
0
  6
AIGENLINE001
 62
     7
 10
141.125
 20
83.205399999999983
 30
0.0
 11
141.125
 21
88.907799999999995
 31
0.0
  0
LINE
  5
5F
  8
0
  6
AIGENLINE002
 62
     7
 10
140.02499999999989
 20
86.575500000000005
 30
0.0
 11
140.02499999999989
 21
85.575699999999998
 31
0.0
  0
LINE
  5
60
  8
0
  6
AIGENLINE002
 62
     7
 10
142.22499999999999
 20
86.575500000000005
 30
0.0
 11
142.22499999999999
 21
85.575699999999998
 31
0.0
  0
LINE
  5
61
  8
0
 62
     7
 10
137.5929999999999
 20
114.07599999999989
 30
0.0
 11
128.1339999999999
 21
114.07599999999989
 31
0.0
  0
ARC
  5
62
  8
0
  6
AIGENLINE002
 62
     7
 10
141.16629
 20
113.617436
 30
0.0
 40
1.1423350000000001
 50
182.1025929999999
 51
267.93332500000002
  0
ARC
  5
63
  8
0
  6
AIGENLINE002
 62
     7
 10
141.08323200000001
 20
113.61738799999991
 30
0.0
 40
1.1423110000000001
 50
272.10019999999992
 51
357.89981
  0
ARC
  5
64
  8
0
  6
AIGENLINE002
 62
     7
 10
141.08323200000001
 20
114.5341249999999
 30
0.0
 40
1.1423110000000001
 50
2.10019
 51
87.899799999999985
  0
ARC
  5
65
  8
0
  6
AIGENLINE002
 62
     7
 10
141.16692900000001
 20
114.5334379999999
 30
0.0
 40
1.142997
 50
92.09751
 51
177.86657199999999
  0
ARC
  5
66
  8
0
 62
     7
 10
-377.66911099999987
 20
96.376014000000012
 30
0.0
 40
524.83622400000002
 50
0.9047190000000001
 51
2.557925
  0
ARC
  5
67
  8
0
 62
     7
 10
147.560508
 20
119.779509
 30
0.0
 40
0.9165449999999999
 50
107.089584
 51
178.773368
  0
ARC
  5
68
  8
0
 62
     7
 10
147.56006199999999
 20
80.371139999999997
 30
0.0
 40
0.9164299999999999
 50
181.184729
 51
252.93733800000001
  0
ARC
  5
69
  8
0
 62
     7
 10
-389.343391
 20
104.14215299999999
 30
0.0
 40
536.51492099999984
 50
357.45857699999999
 51
359.07546400000001
  0
ARC
  5
6A
  8
0
 62
     7
 10
144.12760900000001
 20
136.914762
 30
0.0
 40
0.487783
 50
6.8617749999999988
 51
88.189802999999984
  0
ARC
  5
6B
  8
0
 62
     7
 10
135.75545500000001
 20
-66.085276000000007
 30
0.0
 40
203.66036699999989
 50
87.639650000000003
 51
89.868735999999998
  0
ARC
  5
6C
  8
0
 62
     7
 10
141.8565679999999
 20
76.144615000000002
 30
0.0
 40
54.658118999999992
 50
82.291480000000007
 51
86.489427000000006
  0
ARC
  5
6D
  8
0
 62
     7
 10
-18.921488
 20
138.837614
 30
0.0
 40
168.8657179999999
 50
354.13367
 51
355.47927599999991
  0
ARC
  5
6E
  8
0
 62
     7
 10
-8.8491949999999981
 20
62.229838000000001
 30
0.0
 40
158.75333699999999
 50
4.4778650000000004
 51
5.9091889999999987
  0
ARC
  5
6F
  8
0
 62
     7
 10
141.819198
 20
124.3682519999999
 30
0.0
 40
55.021318000000001
 50
273.52707700000002
 51
277.69587300000001
  0
ARC
  5
70
  8
0
 62
     7
 10
144.12998099999999
 20
63.236227999999997
 30
0.0
 40
0.4874410000000001
 50
271.775643
 51
353.17277899999999
  0
ARC
  5
71
  8
0
 62
     7
 10
136.072586
 20
250.9919919999999
 30
0.0
 40
188.41597899999999
 50
270.047123
 51
272.45554299999998
  0
ARC
  5
72
  8
0
 62
     7
 10
150.9112439999999
 20
206.410245
 30
0.0
 40
0.213843
 50
277.41876500000001
 51
357.55154099999999
  0
ARC
  5
73
  8
0
 62
     7
 10
15.62087578915094
 20
220.1841192652858
 30
0.0
 40
133.9803612157036
 50
350.54219980198758
 51
358.18795166403112
  0
ARC
  5
74
  8
0
 62
     7
 10
136.3161399999999
 20
207.30724699999999
 30
0.0
 40
16.844328000000001
 50
299.80410999999998
 51
308.36826200000002
  0
ARC
  5
75
  8
0
 62
     7
 10
146.30874700000001
 20
194.80644399999991
 30
0.0
 40
0.8440369999999999
 50
303.25932999999992
 51
348.13700999999998
  0
ARC
  5
76
  8
0
 62
     7
 10
6.1686326216099809
 20
222.19107388521809
 30
0.0
 40
143.6345372471493
 50
348.93861990161543
 51
350.37208056657209
  0
ARC
  5
7E
  8
0
  6
AIGENLINE002
 62
     7
 10
104.224054
 20
207.935033
 30
0.0
 40
43.098731999999998
 50
350.83007599999991
 51
356.34983799999992
  0
ARC
  5
7F
  8
0
  6
AIGENLINE002
 62
     7
 10
148.35583299999999
 20
204.9743389999999
 30
0.0
 40
1.138225
 50
93.581145999999976
 51
169.0173409999999
  0
LINE
  5
80
  8
0
 62
     7
 10
148.86195870158801
 20
206.1288349988078
 30
0.0
 11
150.93199999999999
 21
206.1999999999999
 31
0.0
  0
ARC
  5
81
  8
0
 62
     7
 10
150.91777500000001
 20
206.40785699999989
 30
0.0
 40
0.207051
 50
273.92992500000003
 51
355.55437499999999
  0
LINE
  5
82
  8
0
 62
     7
 10
151.12499999999989
 20
212.8779999999999
 30
0.0
 11
151.12499999999989
 21
206.4009999999999
 31
0.0
  0
ARC
  5
83
  8
0
 62
     7
 10
150.911564
 20
212.86943299999999
 30
0.0
 40
0.213511
 50
2.373410999999999
 51
82.656283000000016
  0
ARC
  5
84
  8
0
 62
     7
 10
151.26384999999991
 20
214.19742799999989
 30
0.0
 40
1.1625859999999999
 50
240.15568500000001
 51
253.76698399999989
  0
ARC
  5
85
  8
0
 62
     7
 10
151.254456
 20
214.16100099999991
 30
0.0
 40
1.1270610000000001
 50
199.48660000000001
 51
241.657938
  0
LINE
  5
86
  8
0
 62
     7
 10
150.041
 20
214.399
 30
0.0
 11
150.19499999999991
 21
213.78599999999989
 31
0.0
  0
ARC
  5
87
  8
0
  6
AIGENLINE002
 62
     7
 10
139.74503264948061
 20
212.01400148707961
 30
0.0
 40
10.54351514574233
 50
21.811793704969091
 51
35.116240964270837
  0
ARC
  5
89
  8
0
 62
     7
 10
-321.66290099999992
 20
233.86759699999999
 30
0.0
 40
471.53777400000001
 50
357.82107400000001
 51
359.91176300000001
  0
LINE
  5
8A
  8
0
 62
     7
 10
144.65600000000001
 20
185.67199999999991
 30
0.0
 11
144.65600000000001
 21
233.1399999999999
 31
0.0
  0
ARC
  5
8B
  8
0
 62
     7
 10
144.1467759999999
 20
185.7499939999999
 30
0.0
 40
0.5147890000000001
 50
277.38588900000002
 51
351.30636399999997
  0
ARC
  5
8C
  8
0
 62
     7
 10
120.64693799999991
 20
445.49172099999993
 30
0.0
 40
261.316869
 50
273.41668799999991
 51
275.1745279999999
  0
ARC
  5
8D
  8
0
 62
     7
 10
136.25588699999989
 20
185.26088200000001
 30
0.0
 40
0.6225830000000001
 50
189.11018100000001
 51
266.68971699999992
  0
ARC
  5
8E
  8
0
 62
     7
 10
204.980684
 20
187.83588800000001
 30
0.0
 40
69.391037999999995
 50
178.04264699999999
 51
182.20784299999991
  0
LINE
  5
8F
  8
0
 62
     7
 10
135.62499999999989
 20
233.1399999999999
 30
0.0
 11
135.63
 21
190.2059999999999
 31
0.0
  0
LINE
  5
90
  8
0
 62
     7
 10
149.87399999999991
 20
233.1399999999999
 30
0.0
 11
135.62499999999989
 21
233.1399999999999
 31
0.0
  0
LINE
  5
91
  8
0
 62
     7
 10
63.30919999999999
 20
134.57599999999999
 30
0.0
 11
84.309299999999993
 21
134.57599999999999
 31
0.0
  0
ARC
  5
92
  8
0
 62
     7
 10
63.308853999999997
 20
129.57637199999991
 30
0.0
 40
4.9999000000000002
 50
89.996052000000006
 51
179.99602200000001
  0
ARC
  5
93
  8
0
 62
     7
 10
94.478624999999994
 20
136.74537799999999
 30
0.0
 40
0.8311069999999999
 50
2.110053999999999
 51
87.914605000000009
  0
ARC
  5
94
  8
0
 62
     7
 10
84.308908999999986
 20
129.57637199999991
 30
0.0
 40
4.9999000000000002
 50
359.99606199999999
 51
89.996032000000014
  0
LINE
  5
95
  8
0
 62
     7
 10
46.808799999999998
 20
137.57599999999991
 30
0.0
 11
94.508899999999997
 21
137.57599999999991
 31
0.0
  0
ARC
  5
96
  8
0
 62
     7
 10
146.576549
 20
153.12140999999991
 30
0.0
 40
22.463248
 50
265.00187699999992
 51
266.49547200000001
  0
ARC
  5
97
  8
0
 62
     7
 10
136.22476
 20
136.97510600000001
 30
0.0
 40
0.6001400000000001
 50
90.0
 51
179.99996999999991
  0
LINE
  5
98
  8
0
 62
     7
 10
135.62499999999989
 20
136.97499999999999
 30
0.0
 11
135.62499999999989
 21
136.96999999999991
 31
0.0
  0
ARC
  5
99
  8
0
 62
     7
 10
149.0425229999999
 20
129.494765
 30
0.0
 40
0.826945
 50
1.5965919999999989
 51
79.864428000000004
  0
ARC
  5
9A
  8
0
 62
     7
 10
150.5857739999999
 20
126.5369409999999
 30
0.0
 40
1.1166240000000001
 50
136.75890299999989
 51
179.674137
  0
ARC
  5
9B
  8
0
 62
     7
 10
149.516378
 20
127.54466599999991
 30
0.0
 40
0.3527719999999999
 50
316.51624199999998
 51
359.73989099999989
  0
LINE
  5
9C
  8
0
 62
     7
 10
149.41999999999999
 20
125.526
 30
0.0
 11
149.46899999999999
 21
126.54300000000001
 31
0.0
  0
ARC
  5
9D
  8
0
 62
     7
 10
146.46772999999999
 20
122.8078549999999
 30
0.0
 40
2.870544999999999
 50
322.83750900000001
 51
334.589924
  0
LINE
  5
9E
  8
0
 62
     7
 10
147.29099999999991
 20
120.65600000000001
 30
0.0
 11
148.202
 21
120.762
 31
0.0
  0
ARC
  5
9F
  8
0
 62
     7
 10
148.11409399999991
 20
121.564161
 30
0.0
 40
0.807235
 50
276.23104899999998
 51
322.59613300000001
  0
LINE
  5
A0
  8
0
 62
     7
 10
149.869
 20
127.54299999999991
 30
0.0
 11
149.869
 21
129.518
 31
0.0
  0
ARC
  5
A1
  8
0
 62
     7
 10
145.09531100000001
 20
129.8760419999999
 30
0.0
 40
0.8299799999999999
 50
1.9068290000000001
 51
84.526070999999988
  0
LINE
  5
A2
  8
0
 62
     7
 10
84.309299999999993
 20
65.576099999999997
 30
0.0
 11
63.30919999999999
 21
65.576099999999997
 31
0.0
  0
ARC
  5
A3
  8
0
 62
     7
 10
63.308852000000002
 20
70.575981999999996
 30
0.0
 40
4.9998979999999991
 50
180.00395800000001
 51
270.00396799999999
  0
ARC
  5
A4
  8
0
 62
     7
 10
94.478301000000002
 20
63.406269000000002
 30
0.0
 40
0.8314429999999999
 50
272.10690599999998
 51
357.86843399999992
  0
ARC
  5
A5
  8
0
 62
     7
 10
84.308908999999986
 20
70.575294999999997
 30
0.0
 40
4.9999000000000002
 50
270.00396799999999
 51
0.003938
  0
LINE
  5
A6
  8
0
 62
     7
 10
94.508899999999997
 20
62.575400000000002
 30
0.0
 11
46.808799999999998
 21
62.575400000000002
 31
0.0
  0
LINE
  5
A7
  8
0
 62
     7
 10
148.16200000000001
 20
103.61
 30
0.0
 11
150.92599999999999
 21
103.5139999999999
 31
0.0
  0
LINE
  5
A8
  8
0
 62
     7
 10
148.16200000000001
 20
96.540800000000004
 30
0.0
 11
150.92599999999999
 21
96.63730000000001
 31
0.0
  0
LINE
  5
A9
  8
0
 62
     7
 10
151.119
 20
100.075
 30
0.0
 11
151.119
 21
97.725200000000001
 31
0.0
  0
LINE
  5
AA
  8
0
 62
     7
 10
151.12
 20
100.075
 30
0.0
 11
151.12
 21
96.836399999999998
 31
0.0
  0
ARC
  5
AB
  8
0
 62
     7
 10
148.23955499999991
 20
95.402643999999995
 30
0.0
 40
1.140763999999999
 50
93.876327000000003
 51
175.91858300000001
  0
LINE
  5
AC
  8
0
 62
     7
 10
151.119
 20
103.31399999999989
 30
0.0
 11
151.119
 21
102.4259999999999
 31
0.0
  0
ARC
  5
AD
  8
0
 62
     7
 10
150.91265499999989
 20
96.843629000000007
 30
0.0
 40
0.206828
 50
273.82514099999997
 51
358.18504100000001
  0
LINE
  5
AE
  8
0
 62
     7
 10
151.119
 20
96.837100000000007
 30
0.0
 11
151.119
 21
97.725200000000001
 31
0.0
  0
ARC
  5
AF
  8
0
 62
     7
 10
150.91220000000001
 20
103.30690899999991
 30
0.0
 40
0.207297
 50
1.9323520000000001
 51
86.057467000000003
  0
LINE
  5
B0
  8
0
 62
     7
 10
151.12
 20
100.07599999999999
 30
0.0
 11
151.12
 21
103.315
 31
0.0
  0
LINE
  5
B1
  8
0
 62
     7
 10
151.119
 20
100.075
 30
0.0
 11
151.119
 21
102.4259999999999
 31
0.0
  0
LINE
  5
B2
  8
0
 62
     7
 10
147.102
 20
95.483799999999988
 30
0.0
 11
147.102
 21
104.6669999999999
 31
0.0
  0
ARC
  5
B3
  8
0
 62
     7
 10
148.23823100000001
 20
104.74697999999999
 30
0.0
 40
1.139348
 50
184.01826500000001
 51
266.16821299999992
  0
ARC
  5
B4
  8
0
 62
     7
 10
148.11309199999999
 20
78.585381999999996
 30
0.0
 40
0.8091120000000001
 50
37.460791999999998
 51
83.712025999999994
  0
LINE
  5
B5
  8
0
 62
     7
 10
147.29099999999991
 20
79.495000000000005
 30
0.0
 11
148.202
 21
79.389600000000002
 31
0.0
  0
LINE
  5
B6
  8
0
 62
     7
 10
149.41999999999999
 20
74.625
 30
0.0
 11
149.46899999999999
 21
73.608000000000004
 31
0.0
  0
ARC
  5
B7
  8
0
 62
     7
 10
149.51633399999989
 20
72.606639000000001
 30
0.0
 40
0.352816
 50
0.262963
 51
43.480905
  0
ARC
  5
B8
  8
0
 62
     7
 10
150.58156799999989
 20
73.612700000000004
 30
0.0
 40
1.1124099999999999
 50
180.24052
 51
223.32643999999991
  0
LINE
  5
B9
  8
0
 62
     7
 10
149.869
 20
72.6083
 30
0.0
 11
149.869
 21
70.633499999999984
 31
0.0
  0
ARC
  5
BA
  8
0
 62
     7
 10
146.46705099999991
 20
77.343055000000007
 30
0.0
 40
2.8713349999999989
 50
25.411698999999999
 51
37.160866999999989
  0
LINE
  5
BB
  8
0
 62
     7
 10
145.92500000000001
 20
70.247699999999995
 30
0.0
 11
145.92500000000001
 21
100.117
 31
0.0
  0
ARC
  5
BC
  8
0
 62
     7
 10
147.4432919999999
 20
35.244186999999997
 30
0.0
 40
34.280060999999989
 50
93.794853000000003
 51
94.725076000000001
  0
ARC
  5
BD
  8
0
 62
     7
 10
136.248301
 20
63.199328000000001
 30
0.0
 40
0.623929
 50
181.6164739999999
 51
267.33107999999987
  0
LINE
  5
BE
  8
0
 62
     7
 10
136.21899999999999
 20
62.57609999999999
 30
0.0
 11
136.226
 21
62.57609999999999
 31
0.0
  0
ARC
  5
BF
  8
0
 62
     7
 10
149.04320699999991
 20
70.655968000000001
 30
0.0
 40
0.8262450000000001
 50
280.09607999999997
 51
358.44290000000001
  0
LINE
  5
C0
  8
0
 62
     7
 10
135.62499999999989
 20
63.181699999999999
 30
0.0
 11
135.62499999999989
 21
100.075
 31
0.0
  0
ARC
  5
C1
  8
0
 62
     7
 10
145.09582800000001
 20
70.274794999999997
 30
0.0
 40
0.8294469999999998
 50
275.44158499999998
 51
358.12551400000001
  0
LINE
  5
C2
  8
0
 62
     7
 10
144.619
 20
63.1783
 30
0.0
 11
144.619
 21
100.075
 31
0.0
  0
LINE
  5
C3
  8
0
 62
     7
 10
95.309200000000004
 20
136.77600000000001
 30
0.0
 11
95.309200000000004
 21
63.375300000000003
 31
0.0
  0
LINE
  5
C4
  8
0
 62
     7
 10
89.308800000000005
 20
129.57599999999999
 30
0.0
 11
89.308800000000005
 21
70.575599999999994
 31
0.0
  0
LINE
  5
C5
  8
0
 62
     7
 10
58.30899999999999
 20
70.575599999999994
 30
0.0
 11
58.30899999999999
 21
129.577
 31
0.0
  0
LINE
  5
C6
  8
0
 62
     7
 10
46.808799999999998
 20
62.575400000000002
 30
0.0
 11
46.808799999999998
 21
137.57599999999991
 31
0.0
  0
LINE
  5
C7
  8
0
 62
     7
 10
144.619
 20
136.9729999999999
 30
0.0
 11
144.619
 21
100.075
 31
0.0
  0
LINE
  5
C8
  8
0
 62
     7
 10
135.62499999999989
 20
136.96999999999991
 30
0.0
 11
135.62499999999989
 21
100.075
 31
0.0
  0
LINE
  5
C9
  8
0
 62
     7
 10
145.92500000000001
 20
129.90399999999991
 30
0.0
 11
145.92500000000001
 21
100.03400000000001
 31
0.0
  0
LINE
  5
CA
  8
0
  6
AIGENLINE001
 62
     7
 10
133.31700000000001
 20
100.07599999999999
 30
0.0
 11
154.292
 21
100.07599999999999
 31
0.0
  0
LINE
  5
CB
  8
0
  6
AIGENLINE002
 62
     7
 10
146.12499999999989
 20
100.075
 30
0.0
 11
146.12499999999989
 21
104.428
 31
0.0
  0
ARC
  5
CC
  8
0
  6
AIGENLINE002
 62
     7
 10
106.6257649999999
 20
116.0975899999999
 30
0.0
 40
39.059319999999992
 50
3.2118910000000001
 51
12.346450000000001
  0
ARC
  5
CD
  8
0
  6
AIGENLINE002
 62
     7
 10
-32.014319
 20
107.2825429999999
 30
0.0
 40
177.978476
 50
1.7397750000000001
 51
3.54434
  0
LINE
  5
CE
  8
0
  6
AIGENLINE002
 62
     7
 10
145.88200000000001
 20
112.68600000000001
 30
0.0
 11
146.10499999999999
 21
104.767
 31
0.0
  0
ARC
  5
CF
  8
0
  6
AIGENLINE002
 62
     7
 10
131.19381599999991
 20
120.456794
 30
0.0
 40
14.385214
 50
35.45881099999999
 51
52.586326
  0
ARC
  5
D0
  8
0
  6
AIGENLINE002
 62
     7
 10
125.1591659999999
 20
112.795777
 30
0.0
 40
24.136970000000002
 50
52.257387000000001
 51
62.79748399999999
  0
ARC
  5
D1
  8
0
  6
AIGENLINE002
 62
     7
 10
132.04487700000001
 20
121.55993099999991
 30
0.0
 40
13.058325
 50
12.780548
 51
33.682281000000003
  0
LINE
  5
D2
  8
0
  6
AIGENLINE002
 62
     7
 10
146.12499999999989
 20
100.075
 30
0.0
 11
146.12499999999989
 21
95.721500000000006
 31
0.0
  0
LINE
  5
D3
  8
0
  6
AIGENLINE002
 62
     7
 10
146.10499999999999
 20
95.383200000000002
 30
0.0
 11
145.88200000000001
 21
87.464299999999994
 31
0.0
  0
ARC
  5
D4
  8
0
  6
AIGENLINE002
 62
     7
 10
-31.835315999999999
 20
92.860826000000003
 30
0.0
 40
177.79936499999991
 50
356.45443
 51
358.26047999999992
  0
ARC
  5
D5
  8
0
  6
AIGENLINE002
 62
     7
 10
106.7265389999999
 20
84.039518999999999
 30
0.0
 40
38.957985999999998
 50
347.64128899999997
 51
356.79865099999989
  0
ARC
  5
D6
  8
0
  6
AIGENLINE002
 62
     7
 10
132.05681000000001
 20
78.585580000000007
 30
0.0
 40
13.04555399999999
 50
326.30737299999993
 51
347.22979800000002
  0
ARC
  5
D7
  8
0
  6
AIGENLINE002
 62
     7
 10
131.21632099999999
 20
79.673951000000002
 30
0.0
 40
14.355745000000001
 50
307.39055699999989
 51
324.55149599999987
  0
ARC
  5
D8
  8
0
  6
AIGENLINE002
 62
     7
 10
125.1969909999999
 20
87.295419999999993
 30
0.0
 40
24.066817
 50
297.18711100000002
 51
307.75801799999988
  0
LINE
  5
D9
  8
0
  6
AIGENLINE001
 62
     7
 10
138.29299999999989
 20
114.07599999999989
 30
0.0
 11
143.83099999999999
 21
114.07599999999989
 31
0.0
  0
LINE
  5
DA
  8
0
  6
AIGENLINE001
 62
     7
 10
141.125
 20
230.071
 30
0.0
 11
141.125
 21
235.773
 31
0.0
  0
LINE
  5
DB
  8
0
  6
AIGENLINE001
 62
     7
 10
141.125
 20
111.206
 30
0.0
 11
141.125
 21
116.9079999999999
 31
0.0
  0
LINE
  5
DD
  8
0
  6
AIGENLINE001
 62
     7
 10
141.964
 20
209.63799999999989
 30
0.0
 11
153.18899999999991
 21
209.63799999999989
 31
0.0
  0
LINE
  5
DE
  8
0
  6
AIGENLINE001
 62
     7
 10
133.55600000000001
 20
226.874
 30
0.0
 11
140.334
 21
226.874
 31
0.0
  0
ARC
  5
DF
  8
0
  6
AIGENLINE002
 62
     7
 10
98.036538000000007
 20
208.6380419999999
 30
0.0
 40
48.194929999999999
 50
351.46832599999988
 51
356.135649
  0
LINE
  5
E0
  8
0
  6
AIGENLINE002
 62
     7
 10
145.69799999999989
 20
201.488
 30
0.0
 11
145.69799999999989
 21
201.488
 31
0.0
  0
ARC
  5
E1
  8
0
  6
AIGENLINE002
 62
     7
 10
128.67380800000001
 20
204.045805
 30
0.0
 40
17.215457000000001
 50
344.47704299999998
 51
351.45451700000001
  0
ARC
  5
E2
  8
0
  6
AIGENLINE002
 62
     7
 10
140.14770300000001
 20
200.68188499999999
 30
0.0
 40
5.262588
 50
341.47060299999998
 51
346.33388300000001
  0
ARC
  5
E3
  8
0
  6
AIGENLINE002
 62
     7
 10
130.74768299999991
 20
203.69358
 30
0.0
 40
15.132980999999999
 50
335.22850099999999
 51
341.96914399999991
  0
ARC
  5
E4
  8
0
  6
AIGENLINE002
 62
     7
 10
136.02596800000001
 20
201.5784009999999
 30
0.0
 40
9.4585899999999992
 50
321.59554800000001
 51
333.46517
  0
ARC
  5
E5
  8
0
  6
AIGENLINE002
 62
     7
 10
138.29463699999999
 20
199.8230189999999
 30
0.0
 40
6.5903869999999989
 50
317.01443699999999
 51
321.30238600000001
  0
ARC
  5
E6
  8
0
  6
AIGENLINE002
 62
     7
 10
129.36060699999999
 20
208.127295
 30
0.0
 40
18.787835999999999
 50
313.13480299999992
 51
317.06493399999999
  0
ARC
  5
E7
  8
0
  6
AIGENLINE002
 62
     7
 10
114.870456
 20
225.926873
 30
0.0
 40
41.71472399999999
 50
309.34335499999997
 51
310.94251099999991
  0
ARC
  5
E8
  8
0
  6
AIGENLINE002
 62
     7
 10
136.15083599999991
 20
200.23881900000001
 30
0.0
 40
8.3593210000000013
 50
299.12165099999999
 51
308.16399100000001
  0
ARC
  5
E9
  8
0
  6
AIGENLINE002
 62
     7
 10
123.9238899999999
 20
218.42590799999999
 30
0.0
 40
30.253198999999992
 50
298.05818999999991
 51
302.59011199999998
  0
ARC
  5
EA
  8
0
  6
AIGENLINE002
 62
     7
 10
113.22115700000001
 20
238.38942999999989
 30
0.0
 40
52.904667000000003
 50
295.51179699999989
 51
298.11736999999988
  0
LINE
  5
EB
  8
0
  6
AIGENLINE002
 62
     7
 10
146.499
 20
206.25499999999991
 30
0.0
 11
147.34100000000001
 21
207.18999999999991
 31
0.0
  0
LINE
  5
EC
  8
0
  6
AIGENLINE002
 62
     7
 10
151.12499999999989
 20
207.28999999999991
 30
0.0
 11
147.56399999999999
 21
207.28999999999991
 31
0.0
  0
LINE
  5
ED
  8
0
  6
AIGENLINE002
 62
     7
 10
146.17399999999989
 20
213.52000000000001
 30
0.0
 11
146.17399999999989
 21
205.95400000000001
 31
0.0
  0
LINE
  5
EE
  8
0
  6
AIGENLINE002
 62
     7
 10
147.56399999999999
 20
207.28999999999991
 30
0.0
 11
151.12499999999989
 21
207.28999999999991
 31
0.0
  0
LINE
  5
EF
  8
0
  6
AIGENLINE002
 62
     7
 10
147.56399999999999
 20
211.99000000000001
 30
0.0
 11
147.56399999999999
 21
207.28999999999991
 31
0.0
  0
LINE
  5
F0
  8
0
  6
AIGENLINE002
 62
     7
 10
151.12499999999989
 20
211.99000000000001
 30
0.0
 11
147.56399999999999
 21
211.99000000000001
 31
0.0
  0
LINE
  5
F1
  8
0
  6
AIGENLINE002
 62
     7
 10
146.499
 20
213.02500000000001
 30
0.0
 11
147.34100000000001
 21
212.089
 31
0.0
  0
ARC
  5
F2
  8
0
  6
AIGENLINE002
 62
     7
 10
136.29719199999991
 20
190.09538199999989
 30
0.0
 40
0.619868
 50
117.911317
 51
151.767236
  0
ARC
  5
F3
  8
0
  6
AIGENLINE002
 62
     7
 10
136.63964299999989
 20
189.87170599999999
 30
0.0
 40
1.027989
 50
149.812297
 51
169.11997
  0
ARC
  5
F4
  8
0
  6
AIGENLINE002
 62
     7
 10
136.514489
 20
221.99634900000001
 30
0.0
 40
0.624212
 50
183.75495799999999
 51
249.011292
  0
ARC
  5
F5
  8
0
  6
AIGENLINE002
 62
     7
 10
147.99891
 20
214.36568700000001
 30
0.0
 40
2.0125000000000002
 50
206.3569699999999
 51
222.9127279999999
  0
ARC
  5
F6
  8
0
  6
AIGENLINE002
 62
     7
 10
151.88041200000001
 20
215.66640399999989
 30
0.0
 40
6.0950100000000003
 50
188.264275
 51
200.8607659999999
  0
ARC
  5
F7
  8
0
  6
AIGENLINE002
 62
     7
 10
141.2333909999999
 20
213.70076700000001
 30
0.0
 40
4.741943
 50
12.544587
 51
58.656791000000013
  0
ARC
  5
F8
  8
0
  6
AIGENLINE002
 62
     7
 10
123.42583399999999
 20
186.06767400000001
 30
0.0
 40
37.614375000000003
 50
57.385038999999992
 51
69.999672000000004
  0
LINE
  5
F9
  8
0
  6
AIGENLINE002
 62
     7
 10
135.62499999999989
 20
233.1399999999999
 30
0.0
 11
135.89199999999991
 21
221.95500000000001
 31
0.0
  0
LINE
  5
FA
  8
0
  6
AIGENLINE002
 62
     7
 10
140.02499999999989
 20
114.57599999999999
 30
0.0
 11
140.02499999999989
 21
113.57599999999999
 31
0.0
  0
LINE
  5
FB
  8
0
  6
AIGENLINE002
 62
     7
 10
142.22499999999999
 20
114.57599999999999
 30
0.0
 11
142.22499999999999
 21
113.57599999999999
 31
0.0
  0
LINE
  5
FC
  8
0
 62
     7
 10
43.808799999999998
 20
232.53899999999999
 30
0.0
 11
46.808799999999998
 21
230.8059999999999
 31
0.0
  0
LINE
  5
FD
  8
0
 62
     7
 10
46.808799999999998
 20
230.8059999999999
 30
0.0
 11
43.808799999999998
 21
229.0739999999999
 31
0.0
  0
LINE
  5
FE
  8
0
 62
     7
 10
43.808799999999998
 20
229.0739999999999
 30
0.0
 11
43.808799999999998
 21
232.53899999999999
 31
0.0
  0
LINE
  5
FF
  8
0
 62
     7
 10
70.308999999999983
 20
225.21299999999999
 30
0.0
 11
70.308999999999983
 21
218.02000000000001
 31
0.0
  0
LINE
  5
100
  8
0
 62
     7
 10
68.097399999999993
 20
223.93499999999989
 30
0.0
 11
70.308999999999983
 21
224.52699999999999
 31
0.0
  0
LINE
  5
101
  8
0
 62
     7
 10
70.308999999999983
 20
224.52699999999999
 30
0.0
 11
68.097399999999993
 21
225.12
 31
0.0
  0
LINE
  5
102
  8
0
 62
     7
 10
68.097399999999993
 20
225.12
 30
0.0
 11
68.097399999999993
 21
223.93499999999989
 31
0.0
  0
LINE
  5
103
  8
0
 62
     7
 10
49.020400000000002
 20
225.1049999999999
 30
0.0
 11
46.808799999999998
 21
224.51300000000001
 31
0.0
  0
LINE
  5
104
  8
0
 62
     7
 10
46.808799999999998
 20
224.51300000000001
 30
0.0
 11
49.020400000000002
 21
223.9199999999999
 31
0.0
  0
LINE
  5
105
  8
0
 62
     7
 10
49.020400000000002
 20
223.9199999999999
 30
0.0
 11
49.020400000000002
 21
225.1049999999999
 31
0.0
  0
LINE
  5
106
  8
0
 62
     7
 10
70.308999999999983
 20
224.51300000000001
 30
0.0
 11
46.808799999999998
 21
224.51300000000001
 31
0.0
  0
LINE
  5
107
  8
0
 62
     7
 10
98.855599999999995
 20
242.13800000000001
 30
0.0
 11
90.559200000000004
 21
242.13800000000001
 31
0.0
  0
LINE
  5
108
  8
0
 62
     7
 10
98.855599999999995
 20
177.13800000000001
 30
0.0
 11
90.559200000000004
 21
177.13800000000001
 31
0.0
  0
LINE
  5
109
  8
0
 62
     7
 10
87.597399999999979
 20
248.92400000000001
 30
0.0
 11
89.808999999999997
 21
249.51599999999991
 31
0.0
  0
LINE
  5
10A
  8
0
 62
     7
 10
89.808999999999997
 20
249.51599999999991
 30
0.0
 11
87.597399999999979
 21
250.10900000000001
 31
0.0
  0
LINE
  5
10B
  8
0
 62
     7
 10
87.597399999999979
 20
250.10900000000001
 30
0.0
 11
87.597399999999979
 21
248.92400000000001
 31
0.0
  0
LINE
  5
10C
  8
0
 62
     7
 10
49.020400000000002
 20
250.09399999999999
 30
0.0
 11
46.808799999999998
 21
249.50200000000001
 31
0.0
  0
LINE
  5
10D
  8
0
 62
     7
 10
46.808799999999998
 20
249.50200000000001
 30
0.0
 11
49.020400000000002
 21
248.90899999999999
 31
0.0
  0
LINE
  5
10E
  8
0
 62
     7
 10
49.020400000000002
 20
248.90899999999999
 30
0.0
 11
49.020400000000002
 21
250.09399999999999
 31
0.0
  0
LINE
  5
10F
  8
0
 62
     7
 10
89.808999999999997
 20
249.50200000000001
 30
0.0
 11
46.808799999999998
 21
249.50200000000001
 31
0.0
  0
LINE
  5
110
  8
0
 62
     7
 10
46.808799999999998
 20
177.13800000000001
 30
0.0
 11
46.808799999999998
 21
173.12299999999999
 31
0.0
  0
LINE
  5
111
  8
0
 62
     7
 10
46.808799999999998
 20
246.15299999999991
 30
0.0
 11
46.808799999999998
 21
242.13800000000001
 31
0.0
  0
ARC
  5
112
  8
0
 62
     7
 10
88.809093999999973
 20
241.13839899999999
 30
0.0
 40
0.9999450000000001
 50
0.00001
 51
89.999980000000008
  0
ARC
  5
113
  8
0
 62
     7
 10
88.770685
 20
178.176287
 30
0.0
 40
1.039058
 50
272.11847299999999
 51
357.89140600000002
  0
LINE
  5
114
  8
0
 62
     7
 10
83.601500000000001
 20
183.34599999999989
 30
0.0
 11
78.295599999999993
 21
183.34599999999989
 31
0.0
  0
LINE
  5
115
  8
0
 62
     7
 10
87.533500000000004
 20
178.57599999999991
 30
0.0
 11
89.516199999999998
 21
177.4309999999999
 31
0.0
  0
LINE
  5
116
  8
0
 62
     7
 10
89.516199999999998
 20
177.4309999999999
 30
0.0
 11
88.371600000000001
 21
179.41399999999999
 31
0.0
  0
LINE
  5
117
  8
0
 62
     7
 10
88.371600000000001
 20
179.41399999999999
 30
0.0
 11
87.533500000000004
 21
178.57599999999991
 31
0.0
  0
LINE
  5
118
  8
0
 62
     7
 10
83.601500000000001
 20
183.34599999999989
 30
0.0
 11
89.516199999999998
 21
177.4309999999999
 31
0.0
  0
LINE
  5
119
  8
0
  6
AIGENLINE001
 62
     7
 10
43.1113
 20
209.63799999999989
 30
0.0
 11
92.754799999999989
 21
209.63799999999989
 31
0.0
  0
ARC
  5
11A
  8
0
  6
AIGENLINE002
 62
     7
 10
70.397130000000004
 20
209.72628499999999
 30
0.0
 40
2.3897289999999991
 50
182.11380299999999
 51
267.88622700000002
  0
ARC
  5
11B
  8
0
  6
AIGENLINE002
 62
     7
 10
70.308986000000004
 20
209.6381419999999
 30
0.0
 40
2.2999610000000001
 50
270.00002000000001
 51
359.99998999999991
  0
ARC
  5
11C
  8
0
  6
AIGENLINE002
 62
     7
 10
70.308986000000004
 20
209.63814099999991
 30
0.0
 40
2.2999610000000001
 50
0.00001
 51
89.999980000000008
  0
ARC
  5
11D
  8
0
  6
AIGENLINE002
 62
     7
 10
70.397521999999995
 20
209.54960600000001
 30
0.0
 40
2.390136
 50
92.122834999999995
 51
177.87713600000001
  0
LINE
  5
11E
  8
0
  6
AIGENLINE001
 62
     7
 10
70.308999999999983
 20
202.70299999999989
 30
0.0
 11
70.308999999999983
 21
216.61999999999989
 31
0.0
  0
LINE
  5
11F
  8
0
 62
     7
 10
89.808999999999997
 20
178.13800000000001
 30
0.0
 11
89.808999999999997
 21
241.13800000000001
 31
0.0
  0
LINE
  5
120
  8
0
 62
     7
 10
97.562999999999988
 20
179.34899999999999
 30
0.0
 11
98.155500000000004
 21
177.13800000000001
 31
0.0
  0
LINE
  5
121
  8
0
 62
     7
 10
98.155500000000004
 20
177.13800000000001
 30
0.0
 11
98.748099999999994
 21
179.34899999999999
 31
0.0
  0
LINE
  5
122
  8
0
 62
     7
 10
98.748099999999994
 20
179.34899999999999
 30
0.0
 11
97.562999999999988
 21
179.34899999999999
 31
0.0
  0
LINE
  5
123
  8
0
 62
     7
 10
98.733599999999996
 20
239.92699999999999
 30
0.0
 11
98.141099999999994
 21
242.13800000000001
 31
0.0
  0
LINE
  5
124
  8
0
 62
     7
 10
98.141099999999994
 20
242.13800000000001
 30
0.0
 11
97.548500000000004
 21
239.92699999999999
 31
0.0
  0
LINE
  5
125
  8
0
 62
     7
 10
97.548500000000004
 20
239.92699999999999
 30
0.0
 11
98.733599999999996
 21
239.92699999999999
 31
0.0
  0
LINE
  5
126
  8
0
 62
     7
 10
98.155500000000004
 20
177.13800000000001
 30
0.0
 11
98.155500000000004
 21
242.13800000000001
 31
0.0
  0
LINE
  5
127
  8
0
  6
AIGENLINE003
 62
     7
 10
46.808799999999998
 20
177.13800000000001
 30
0.0
 11
46.808799999999998
 21
242.13800000000001
 31
0.0
  0
LINE
  5
128
  8
0
 62
     7
 10
88.809100000000001
 20
242.13800000000001
 30
0.0
 11
46.808799999999998
 21
242.13800000000001
 31
0.0
  0
LINE
  5
129
  8
0
 62
     7
 10
88.809100000000001
 20
177.13800000000001
 30
0.0
 11
46.808799999999998
 21
177.13800000000001
 31
0.0
  0
LINE
  5
12A
  8
0
 62
     7
 10
135.64199999999991
 20
184.46199999999999
 30
0.0
 11
135.64199999999991
 21
175.989
 31
0.0
  0
LINE
  5
12B
  8
0
 62
     7
 10
143.96299999999999
 20
176.1109999999999
 30
0.0
 11
146.17500000000001
 21
176.70400000000001
 31
0.0
  0
LINE
  5
12C
  8
0
 62
     7
 10
146.17500000000001
 20
176.70400000000001
 30
0.0
 11
143.96299999999999
 21
177.29599999999991
 31
0.0
  0
LINE
  5
12D
  8
0
 62
     7
 10
143.96299999999999
 20
177.29599999999991
 30
0.0
 11
143.96299999999999
 21
176.1109999999999
 31
0.0
  0
LINE
  5
12E
  8
0
 62
     7
 10
137.85299999999989
 20
177.28200000000001
 30
0.0
 11
135.64199999999991
 21
176.68899999999999
 31
0.0
  0
LINE
  5
12F
  8
0
 62
     7
 10
135.64199999999991
 20
176.68899999999999
 30
0.0
 11
137.85299999999989
 21
176.09700000000001
 31
0.0
  0
LINE
  5
130
  8
0
 62
     7
 10
137.85299999999989
 20
176.09700000000001
 30
0.0
 11
137.85299999999989
 21
177.28200000000001
 31
0.0
  0
LINE
  5
131
  8
0
 62
     7
 10
146.17500000000001
 20
176.68899999999999
 30
0.0
 11
135.64199999999991
 21
176.68899999999999
 31
0.0
  0
LINE
  5
132
  8
0
 62
     7
 10
148.9139999999999
 20
238.58000000000001
 30
0.0
 11
151.126
 21
239.17299999999989
 31
0.0
  0
LINE
  5
133
  8
0
 62
     7
 10
151.126
 20
239.17299999999989
 30
0.0
 11
148.9139999999999
 21
239.76499999999999
 31
0.0
  0
LINE
  5
134
  8
0
 62
     7
 10
148.9139999999999
 20
239.76499999999999
 30
0.0
 11
148.9139999999999
 21
238.58000000000001
 31
0.0
  0
LINE
  5
135
  8
0
 62
     7
 10
137.83699999999999
 20
239.751
 30
0.0
 11
135.62499999999989
 21
239.1579999999999
 31
0.0
  0
LINE
  5
136
  8
0
 62
     7
 10
135.62499999999989
 20
239.1579999999999
 30
0.0
 11
137.83699999999999
 21
238.56599999999989
 31
0.0
  0
LINE
  5
137
  8
0
 62
     7
 10
137.83699999999999
 20
238.56599999999989
 30
0.0
 11
137.83699999999999
 21
239.751
 31
0.0
  0
LINE
  5
138
  8
0
 62
     7
 10
151.126
 20
239.1579999999999
 30
0.0
 11
135.62499999999989
 21
239.1579999999999
 31
0.0
  0
LINE
  5
139
  8
0
 62
     7
 10
135.62499999999989
 20
233.84
 30
0.0
 11
135.62499999999989
 21
239.85799999999989
 31
0.0
  0
LINE
  5
13A
  8
0
 62
     7
 10
159.143
 20
211.84999999999999
 30
0.0
 11
159.73500000000001
 21
209.63799999999989
 31
0.0
  0
LINE
  5
13B
  8
0
 62
     7
 10
159.73500000000001
 20
209.63799999999989
 30
0.0
 11
160.32799999999989
 21
211.84999999999999
 31
0.0
  0
LINE
  5
13C
  8
0
 62
     7
 10
160.32799999999989
 20
211.84999999999999
 30
0.0
 11
159.143
 21
211.84999999999999
 31
0.0
  0
LINE
  5
13D
  8
0
 62
     7
 10
160.3129999999999
 20
230.928
 30
0.0
 11
159.721
 21
233.13900000000001
 31
0.0
  0
LINE
  5
13E
  8
0
 62
     7
 10
159.721
 20
233.13900000000001
 30
0.0
 11
159.1279999999999
 21
230.928
 31
0.0
  0
LINE
  5
13F
  8
0
 62
     7
 10
159.1279999999999
 20
230.928
 30
0.0
 11
160.3129999999999
 21
230.928
 31
0.0
  0
LINE
  5
140
  8
0
 62
     7
 10
159.721
 20
209.63799999999989
 30
0.0
 11
159.721
 21
233.13900000000001
 31
0.0
  0
LINE
  5
141
  8
0
 62
     7
 10
160.42099999999991
 20
209.63799999999989
 30
0.0
 11
154.0389999999999
 21
209.63799999999989
 31
0.0
  0
LINE
  5
142
  8
0
 62
     7
 10
150.5749999999999
 20
233.1399999999999
 30
0.0
 11
160.42099999999991
 21
233.1399999999999
 31
0.0
  0
LINE
  5
143
  8
0
 62
     7
 10
151.126
 20
213.578
 30
0.0
 11
151.126
 21
239.85799999999989
 31
0.0
  0
LINE
  5
144
  8
0
 62
     7
 10
146.17500000000001
 20
202.15899999999999
 30
0.0
 11
146.17500000000001
 21
175.989
 31
0.0
  0
LINE
  5
145
  8
0
 62
     7
 10
106.51899999999991
 20
139.78700000000001
 30
0.0
 11
107.11199999999999
 21
137.57599999999991
 31
0.0
  0
LINE
  5
146
  8
0
 62
     7
 10
107.11199999999999
 20
137.57599999999991
 30
0.0
 11
107.70399999999989
 21
139.78700000000001
 31
0.0
  0
LINE
  5
147
  8
0
 62
     7
 10
107.70399999999989
 20
139.78700000000001
 30
0.0
 11
106.51899999999991
 21
139.78700000000001
 31
0.0
  0
LINE
  5
148
  8
0
 62
     7
 10
106.51899999999991
 20
67.787199999999984
 30
0.0
 11
107.11199999999999
 21
65.575400000000002
 31
0.0
  0
LINE
  5
149
  8
0
 62
     7
 10
107.11199999999999
 20
65.575400000000002
 30
0.0
 11
107.70399999999989
 21
67.787199999999984
 31
0.0
  0
LINE
  5
14A
  8
0
 62
     7
 10
107.70399999999989
 20
67.787199999999984
 30
0.0
 11
106.51899999999991
 21
67.787199999999984
 31
0.0
  0
LINE
  5
14B
  8
0
 62
     7
 10
107.70399999999989
 20
60.363599999999998
 30
0.0
 11
107.11199999999999
 21
62.575400000000002
 31
0.0
  0
LINE
  5
14C
  8
0
 62
     7
 10
107.11199999999999
 20
62.575400000000002
 30
0.0
 11
106.51899999999991
 21
60.363599999999998
 31
0.0
  0
LINE
  5
14D
  8
0
 62
     7
 10
106.51899999999991
 20
60.363599999999998
 30
0.0
 11
107.70399999999989
 21
60.363599999999998
 31
0.0
  0
LINE
  5
14E
  8
0
 62
     7
 10
107.70399999999989
 20
132.364
 30
0.0
 11
107.11199999999999
 21
134.57599999999999
 31
0.0
  0
LINE
  5
14F
  8
0
 62
     7
 10
107.11199999999999
 20
134.57599999999999
 30
0.0
 11
106.51899999999991
 21
132.364
 31
0.0
  0
LINE
  5
150
  8
0
 62
     7
 10
106.51899999999991
 20
132.364
 30
0.0
 11
107.70399999999989
 21
132.364
 31
0.0
  0
LINE
  5
151
  8
0
 62
     7
 10
107.11199999999999
 20
56.805500000000002
 30
0.0
 11
107.11199999999999
 21
143.608
 31
0.0
  0
LINE
  5
152
  8
0
 62
     7
 10
87.473399999999984
 20
134.57599999999999
 30
0.0
 11
107.812
 21
134.57599999999999
 31
0.0
  0
LINE
  5
153
  8
0
 62
     7
 10
95.694500000000005
 20
137.57599999999991
 30
0.0
 11
107.812
 21
137.57599999999991
 31
0.0
  0
LINE
  5
154
  8
0
 62
     7
 10
87.267399999999995
 20
65.575400000000002
 30
0.0
 11
107.812
 21
65.575400000000002
 31
0.0
  0
LINE
  5
155
  8
0
 62
     7
 10
95.694500000000005
 20
62.575400000000002
 30
0.0
 11
107.812
 21
62.575400000000002
 31
0.0
  0
LINE
  5
156
  8
0
 62
     7
 10
95.309200000000004
 20
62.325299999999999
 30
0.0
 11
95.309200000000004
 21
53.396900000000002
 31
0.0
  0
LINE
  5
157
  8
0
 62
     7
 10
87.097600000000014
 20
53.50439999999999
 30
0.0
 11
89.309200000000004
 21
54.097000000000001
 31
0.0
  0
LINE
  5
158
  8
0
 62
     7
 10
89.309200000000004
 20
54.097000000000001
 30
0.0
 11
87.097600000000014
 21
54.689500000000002
 31
0.0
  0
LINE
  5
159
  8
0
 62
     7
 10
87.097600000000014
 20
54.689500000000002
 30
0.0
 11
87.097600000000014
 21
53.50439999999999
 31
0.0
  0
LINE
  5
15A
  8
0
 62
     7
 10
91.520700000000005
 20
54.689500000000002
 30
0.0
 11
89.309200000000004
 21
54.097000000000001
 31
0.0
  0
LINE
  5
15B
  8
0
 62
     7
 10
89.309200000000004
 20
54.097000000000001
 30
0.0
 11
91.520700000000005
 21
53.50439999999999
 31
0.0
  0
LINE
  5
15C
  8
0
 62
     7
 10
91.520700000000005
 20
53.50439999999999
 30
0.0
 11
91.520700000000005
 21
54.689500000000002
 31
0.0
  0
LINE
  5
15D
  8
0
 62
     7
 10
56.0974
 20
53.50439999999999
 30
0.0
 11
58.30899999999999
 21
54.097000000000001
 31
0.0
  0
LINE
  5
15E
  8
0
 62
     7
 10
58.30899999999999
 20
54.097000000000001
 30
0.0
 11
56.0974
 21
54.689500000000002
 31
0.0
  0
LINE
  5
15F
  8
0
 62
     7
 10
56.0974
 20
54.689500000000002
 30
0.0
 11
56.0974
 21
53.50439999999999
 31
0.0
  0
LINE
  5
160
  8
0
 62
     7
 10
93.0976
 20
53.518900000000002
 30
0.0
 11
95.309200000000004
 21
54.111400000000003
 31
0.0
  0
LINE
  5
161
  8
0
 62
     7
 10
95.309200000000004
 20
54.111400000000003
 30
0.0
 11
93.0976
 21
54.703999999999994
 31
0.0
  0
LINE
  5
162
  8
0
 62
     7
 10
93.0976
 20
54.703999999999994
 30
0.0
 11
93.0976
 21
53.518900000000002
 31
0.0
  0
LINE
  5
163
  8
0
 62
     7
 10
60.520499999999998
 20
54.689500000000002
 30
0.0
 11
58.30899999999999
 21
54.097000000000001
 31
0.0
  0
LINE
  5
164
  8
0
 62
     7
 10
58.30899999999999
 20
54.097000000000001
 30
0.0
 11
60.520499999999998
 21
53.50439999999999
 31
0.0
  0
LINE
  5
165
  8
0
 62
     7
 10
60.520499999999998
 20
53.50439999999999
 30
0.0
 11
60.520499999999998
 21
54.689500000000002
 31
0.0
  0
LINE
  5
166
  8
0
 62
     7
 10
49.020400000000002
 20
54.689500000000002
 30
0.0
 11
46.808799999999998
 21
54.097000000000001
 31
0.0
  0
LINE
  5
167
  8
0
 62
     7
 10
46.808799999999998
 20
54.097000000000001
 30
0.0
 11
49.020400000000002
 21
53.50439999999999
 31
0.0
  0
LINE
  5
168
  8
0
 62
     7
 10
49.020400000000002
 20
53.50439999999999
 30
0.0
 11
49.020400000000002
 21
54.689500000000002
 31
0.0
  0
LINE
  5
169
  8
0
 62
     7
 10
95.309200000000004
 20
54.097000000000001
 30
0.0
 11
46.808799999999998
 21
54.097000000000001
 31
0.0
  0
LINE
  5
16A
  8
0
 62
     7
 10
46.808799999999998
 20
61.875300000000003
 30
0.0
 11
46.808799999999998
 21
53.396900000000002
 31
0.0
  0
LINE
  5
16B
  8
0
 62
     7
 10
89.309200000000004
 20
67.787800000000004
 30
0.0
 11
89.309200000000004
 21
53.396900000000002
 31
0.0
  0
LINE
  5
16C
  8
0
 62
     7
 10
58.30899999999999
 20
67.876000000000005
 30
0.0
 11
58.30899999999999
 21
53.396900000000002
 31
0.0
  0
LINE
  5
16D
  8
0
 62
     7
 10
47.789999999999992
 20
105.096
 30
0.0
 11
41.078000000000003
 21
105.096
 31
0.0
  0
LINE
  5
16E
  8
0
 62
     7
 10
56.0291
 20
97.694199999999995
 30
0.0
 11
54.046500000000002
 21
98.838700000000017
 31
0.0
  0
LINE
  5
16F
  8
0
 62
     7
 10
54.046500000000002
 20
98.838700000000017
 30
0.0
 11
55.191099999999999
 21
96.855699999999999
 31
0.0
  0
LINE
  5
170
  8
0
 62
     7
 10
55.191099999999999
 20
96.855699999999999
 30
0.0
 11
56.0291
 21
97.694199999999995
 31
0.0
  0
LINE
  5
171
  8
0
 62
     7
 10
49.545299999999997
 20
102.502
 30
0.0
 11
51.527900000000002
 21
101.3579999999999
 31
0.0
  0
LINE
  5
172
  8
0
 62
     7
 10
51.527900000000002
 20
101.3579999999999
 30
0.0
 11
50.383299999999998
 21
103.34099999999999
 31
0.0
  0
LINE
  5
173
  8
0
 62
     7
 10
50.383299999999998
 20
103.34099999999999
 30
0.0
 11
49.545299999999997
 21
102.502
 31
0.0
  0
LINE
  5
174
  8
0
 62
     7
 10
47.789999999999992
 20
105.096
 30
0.0
 11
56.979300000000002
 21
95.906199999999984
 31
0.0
  0
LINE
  5
175
  8
0
  6
AIGENLINE001
 62
     7
 10
52.80899999999999
 20
93.576300000000003
 30
0.0
 11
52.80899999999999
 21
86.578599999999994
 31
0.0
  0
LINE
  5
176
  8
0
  6
AIGENLINE001
 62
     7
 10
49.162500000000001
 20
90.076000000000008
 30
0.0
 11
56.349699999999999
 21
90.076000000000008
 31
0.0
  0
ARC
  5
177
  8
0
  6
AIGENLINE002
 62
     7
 10
52.808996999999991
 20
90.076036000000016
 30
0.0
 40
1.7501199999999999
 50
90.0
 51
179.99996999999991
  0
ARC
  5
178
  8
0
  6
AIGENLINE002
 62
     7
 10
52.876229000000002
 20
90.143268000000006
 30
0.0
 40
1.818595
 50
182.1186899999999
 51
267.88133999999991
  0
ARC
  5
179
  8
0
  6
AIGENLINE002
 62
     7
 10
52.741769999999988
 20
90.143084000000002
 30
0.0
 40
1.818411
 50
272.11873600000001
 51
357.88691399999999
  0
ARC
  5
17A
  8
0
  6
AIGENLINE002
 62
     7
 10
52.808909999999997
 20
90.076121999999998
 30
0.0
 40
1.7500340000000001
 50
359.99718999999988
 51
89.997159999999994
  0
LINE
  5
17B
  8
0
  6
AIGENLINE001
 62
     7
 10
52.80899999999999
 20
113.577
 30
0.0
 11
52.80899999999999
 21
106.57899999999999
 31
0.0
  0
LINE
  5
17C
  8
0
  6
AIGENLINE001
 62
     7
 10
49.162500000000001
 20
110.07599999999999
 30
0.0
 11
56.349699999999999
 21
110.07599999999999
 31
0.0
  0
ARC
  5
17D
  8
0
  6
AIGENLINE002
 62
     7
 10
52.808996999999991
 20
110.076319
 30
0.0
 40
1.7501199999999999
 50
90.0
 51
179.99996999999991
  0
ARC
  5
17E
  8
0
  6
AIGENLINE002
 62
     7
 10
52.876229000000002
 20
110.143552
 30
0.0
 40
1.818595
 50
182.1186899999999
 51
267.88133999999991
  0
ARC
  5
17F
  8
0
  6
AIGENLINE002
 62
     7
 10
52.742162
 20
110.142976
 30
0.0
 40
1.818004999999999
 50
272.10684700000002
 51
357.89880199999999
  0
ARC
  5
180
  8
0
  6
AIGENLINE002
 62
     7
 10
52.808909999999997
 20
110.07640600000001
 30
0.0
 40
1.7500340000000001
 50
359.99718999999988
 51
89.997159999999994
  0
LINE
  5
181
  8
0
  6
AIGENLINE001
 62
     7
 10
52.80899999999999
 20
103.57599999999999
 30
0.0
 11
52.80899999999999
 21
96.578699999999998
 31
0.0
  0
ARC
  5
182
  8
0
 62
     7
 10
70.308987000000002
 20
100.0761769999999
 30
0.0
 40
3.6600929999999989
 50
90.0
 51
179.99996999999991
  0
ARC
  5
183
  8
0
 62
     7
 10
70.44939699999999
 20
100.2165879999999
 30
0.0
 40
3.803096
 50
182.1158649999999
 51
267.88416499999988
  0
ARC
  5
184
  8
0
 62
     7
 10
70.168584999999993
 20
100.21657999999989
 30
0.0
 40
3.8030870000000001
 50
272.11572699999988
 51
357.88428299999993
  0
ARC
  5
185
  8
0
 62
     7
 10
70.308986000000004
 20
100.0761769999999
 30
0.0
 40
3.6600929999999989
 50
0.00001
 51
89.999980000000008
  0
LINE
  5
186
  8
0
 62
     7
 10
83.045799999999986
 20
92.794600000000003
 30
0.0
 11
77.591099999999983
 21
92.794600000000003
 31
0.0
  0
LINE
  5
187
  8
0
 62
     7
 10
73.918300000000002
 20
97.305599999999998
 30
0.0
 11
71.935400000000001
 21
98.45010000000002
 31
0.0
  0
LINE
  5
188
  8
0
 62
     7
 10
71.935400000000001
 20
98.45010000000002
 30
0.0
 11
73.080200000000005
 21
96.467100000000002
 31
0.0
  0
LINE
  5
189
  8
0
 62
     7
 10
73.080200000000005
 20
96.467100000000002
 30
0.0
 11
73.918300000000002
 21
97.305599999999998
 31
0.0
  0
LINE
  5
18A
  8
0
 62
     7
 10
66.496300000000005
 20
103.051
 30
0.0
 11
68.478899999999996
 21
101.90600000000001
 31
0.0
  0
LINE
  5
18B
  8
0
 62
     7
 10
68.478899999999996
 20
101.90600000000001
 30
0.0
 11
67.334299999999999
 21
103.8889999999999
 31
0.0
  0
LINE
  5
18C
  8
0
 62
     7
 10
67.334299999999999
 20
103.8889999999999
 30
0.0
 11
66.496300000000005
 21
103.051
 31
0.0
  0
LINE
  5
18D
  8
0
 62
     7
 10
63.006399999999999
 20
107.379
 30
0.0
 11
77.591099999999983
 21
92.794600000000003
 31
0.0
  0
LINE
  5
18E
  8
0
  6
AIGENLINE001
 62
     7
 10
70.308999999999983
 20
106.95099999999999
 30
0.0
 11
70.308999999999983
 21
93.248599999999996
 31
0.0
  0
ARC
  5
18F
  8
0
 62
     7
 10
70.396748000000002
 20
99.988416999999984
 30
0.0
 40
2.389333999999999
 50
92.104958000000025
 51
177.89501200000001
  0
ARC
  5
190
  8
0
 62
     7
 10
70.397149999999996
 20
100.16434099999999
 30
0.0
 40
2.3897499999999989
 50
182.11426700000001
 51
267.88576299999988
  0
ARC
  5
191
  8
0
 62
     7
 10
70.221225000000004
 20
100.1639399999999
 30
0.0
 40
2.389333999999999
 50
272.10499499999997
 51
357.89501399999989
  0
ARC
  5
192
  8
0
 62
     7
 10
70.220843000000002
 20
99.988033999999985
 30
0.0
 40
2.3897300000000001
 50
2.113801
 51
87.886189000000016
  0
LINE
  5
193
  8
0
  6
AIGENLINE001
 62
     7
 10
43.15059999999999
 20
100.07599999999999
 30
0.0
 11
98.331900000000005
 21
100.07599999999999
 31
0.0
  0
LINE
  5
194
  8
0
 62
     7
 10
49.020400000000002
 20
119.73699999999999
 30
0.0
 11
46.808799999999998
 21
119.1449999999999
 31
0.0
  0
LINE
  5
195
  8
0
 62
     7
 10
46.808799999999998
 20
119.1449999999999
 30
0.0
 11
49.020400000000002
 21
118.55200000000001
 31
0.0
  0
LINE
  5
196
  8
0
 62
     7
 10
49.020400000000002
 20
118.55200000000001
 30
0.0
 11
49.020400000000002
 21
119.73699999999999
 31
0.0
  0
LINE
  5
197
  8
0
 62
     7
 10
50.5974
 20
118.55200000000001
 30
0.0
 11
52.80899999999999
 21
119.1449999999999
 31
0.0
  0
LINE
  5
198
  8
0
 62
     7
 10
52.80899999999999
 20
119.1449999999999
 30
0.0
 11
50.5974
 21
119.73699999999999
 31
0.0
  0
LINE
  5
199
  8
0
 62
     7
 10
50.5974
 20
119.73699999999999
 30
0.0
 11
50.5974
 21
118.55200000000001
 31
0.0
  0
LINE
  5
19A
  8
0
 62
     7
 10
46.808799999999998
 20
119.1449999999999
 30
0.0
 11
52.80899999999999
 21
119.1449999999999
 31
0.0
  0
LINE
  5
19B
  8
0
 62
     7
 10
52.80899999999999
 20
114.23
 30
0.0
 11
52.80899999999999
 21
119.845
 31
0.0
  0
LINE
  5
19C
  8
0
 62
     7
 10
68.097399999999993
 20
143.114
 30
0.0
 11
70.308999999999983
 21
143.70699999999999
 31
0.0
  0
LINE
  5
19D
  8
0
 62
     7
 10
70.308999999999983
 20
143.70699999999999
 30
0.0
 11
68.097399999999993
 21
144.30000000000001
 31
0.0
  0
LINE
  5
19E
  8
0
 62
     7
 10
68.097399999999993
 20
144.30000000000001
 30
0.0
 11
68.097399999999993
 21
143.114
 31
0.0
  0
LINE
  5
19F
  8
0
 62
     7
 10
49.020600000000002
 20
144.28499999999991
 30
0.0
 11
46.808999999999997
 21
143.6929999999999
 31
0.0
  0
LINE
  5
1A0
  8
0
 62
     7
 10
46.808999999999997
 20
143.6929999999999
 30
0.0
 11
49.020600000000002
 21
143.09999999999999
 31
0.0
  0
LINE
  5
1A1
  8
0
 62
     7
 10
49.020600000000002
 20
143.09999999999999
 30
0.0
 11
49.020600000000002
 21
144.28499999999991
 31
0.0
  0
LINE
  5
1A2
  8
0
 62
     7
 10
70.308999999999983
 20
143.6929999999999
 30
0.0
 11
46.808999999999997
 21
143.6929999999999
 31
0.0
  0
LINE
  5
1A3
  8
0
 62
     7
 10
70.308999999999983
 20
107.651
 30
0.0
 11
70.308999999999983
 21
144.392
 31
0.0
  0
LINE
  5
1A4
  8
0
 62
     7
 10
49.020600000000002
 20
151.5979999999999
 30
0.0
 11
46.808999999999997
 21
151.006
 31
0.0
  0
LINE
  5
1A5
  8
0
 62
     7
 10
46.808999999999997
 20
151.006
 30
0.0
 11
49.020600000000002
 21
150.4129999999999
 31
0.0
  0
LINE
  5
1A6
  8
0
 62
     7
 10
49.020600000000002
 20
150.4129999999999
 30
0.0
 11
49.020600000000002
 21
151.5979999999999
 31
0.0
  0
LINE
  5
1A7
  8
0
 62
     7
 10
93.0976
 20
150.42699999999999
 30
0.0
 11
95.309200000000004
 21
151.02000000000001
 31
0.0
  0
LINE
  5
1A8
  8
0
 62
     7
 10
95.309200000000004
 20
151.02000000000001
 30
0.0
 11
93.0976
 21
151.61299999999989
 31
0.0
  0
LINE
  5
1A9
  8
0
 62
     7
 10
93.0976
 20
151.61299999999989
 30
0.0
 11
93.0976
 21
150.42699999999999
 31
0.0
  0
LINE
  5
1AA
  8
0
 62
     7
 10
46.808999999999997
 20
151.006
 30
0.0
 11
95.309200000000004
 21
151.006
 31
0.0
  0
LINE
  5
1AB
  8
0
 62
     7
 10
95.309200000000004
 20
138.84200000000001
 30
0.0
 11
95.309200000000004
 21
151.70599999999999
 31
0.0
  0
LINE
  5
1AC
  8
0
 62
     7
 10
46.808799999999998
 20
138.27600000000001
 30
0.0
 11
46.808799999999998
 21
151.70599999999999
 31
0.0
  0
ARC
  5
1AD
  8
0
 62
     7
 10
52.808996999999991
 20
100.0761779999999
 30
0.0
 40
1.7501199999999999
 50
90.0
 51
179.99996999999991
  0
ARC
  5
1AE
  8
0
 62
     7
 10
52.876229000000002
 20
100.1434099999999
 30
0.0
 40
1.818595
 50
182.1186899999999
 51
267.88133999999991
  0
ARC
  5
1AF
  8
0
 62
     7
 10
52.742162
 20
100.14283399999989
 30
0.0
 40
1.818004999999999
 50
272.10684700000002
 51
357.89880199999999
  0
ARC
  5
1B0
  8
0
 62
     7
 10
52.808909999999997
 20
100.07626399999999
 30
0.0
 40
1.7500340000000001
 50
359.99718999999988
 51
89.997159999999994
  0
LINE
  5
1B1
  8
0
 62
     7
 10
137.83600000000001
 20
145.07499999999999
 30
0.0
 11
135.62499999999989
 21
144.48199999999991
 31
0.0
  0
LINE
  5
1B2
  8
0
 62
     7
 10
135.62499999999989
 20
144.48199999999991
 30
0.0
 11
137.83600000000001
 21
143.88900000000001
 31
0.0
  0
LINE
  5
1B3
  8
0
 62
     7
 10
137.83600000000001
 20
143.88900000000001
 30
0.0
 11
137.83600000000001
 21
145.07499999999999
 31
0.0
  0
LINE
  5
1B4
  8
0
 62
     7
 10
138.9129999999999
 20
143.904
 30
0.0
 11
141.124
 21
144.49600000000001
 31
0.0
  0
LINE
  5
1B5
  8
0
 62
     7
 10
141.124
 20
144.49600000000001
 30
0.0
 11
138.9129999999999
 21
145.089
 31
0.0
  0
LINE
  5
1B6
  8
0
 62
     7
 10
138.9129999999999
 20
145.089
 30
0.0
 11
138.9129999999999
 21
143.904
 31
0.0
  0
LINE
  5
1B7
  8
0
 62
     7
 10
135.62499999999989
 20
144.48199999999991
 30
0.0
 11
141.124
 21
144.48199999999991
 31
0.0
  0
LINE
  5
1B8
  8
0
 62
     7
 10
141.124
 20
117.4529999999999
 30
0.0
 11
141.124
 21
145.18199999999999
 31
0.0
  0
LINE
  5
1B9
  8
0
 62
     7
 10
135.62499999999989
 20
138.02499999999989
 30
0.0
 11
135.62499999999989
 21
145.18199999999999
 31
0.0
  0
LINE
  5
1BA
  8
0
 62
     7
 10
38.268000000000001
 20
97.864400000000003
 30
0.0
 11
37.675499999999992
 21
100.07599999999999
 31
0.0
  0
LINE
  5
1BB
  8
0
 62
     7
 10
37.675499999999992
 20
100.07599999999999
 30
0.0
 11
37.082900000000002
 21
97.864400000000003
 31
0.0
  0
LINE
  5
1BC
  8
0
 62
     7
 10
37.082900000000002
 20
97.864400000000003
 30
0.0
 11
38.268000000000001
 21
97.864400000000003
 31
0.0
  0
LINE
  5
1BD
  8
0
 62
     7
 10
38.268000000000001
 20
107.8639999999999
 30
0.0
 11
37.675499999999992
 21
110.07599999999999
 31
0.0
  0
LINE
  5
1BE
  8
0
 62
     7
 10
37.675499999999992
 20
110.07599999999999
 30
0.0
 11
37.082900000000002
 21
107.8639999999999
 31
0.0
  0
LINE
  5
1BF
  8
0
 62
     7
 10
37.082900000000002
 20
107.8639999999999
 30
0.0
 11
38.268000000000001
 21
107.8639999999999
 31
0.0
  0
LINE
  5
1C0
  8
0
 62
     7
 10
31.475100000000001
 20
135.364
 30
0.0
 11
30.8825
 21
137.57599999999991
 31
0.0
  0
LINE
  5
1C1
  8
0
 62
     7
 10
30.8825
 20
137.57599999999991
 30
0.0
 11
30.289999999999988
 21
135.364
 31
0.0
  0
LINE
  5
1C2
  8
0
 62
     7
 10
30.289999999999988
 20
135.364
 30
0.0
 11
31.475100000000001
 21
135.364
 31
0.0
  0
LINE
  5
1C3
  8
0
 62
     7
 10
37.082900000000002
 20
102.288
 30
0.0
 11
37.675499999999992
 21
100.07599999999999
 31
0.0
  0
LINE
  5
1C4
  8
0
 62
     7
 10
37.675499999999992
 20
100.07599999999999
 30
0.0
 11
38.268000000000001
 21
102.288
 31
0.0
  0
LINE
  5
1C5
  8
0
 62
     7
 10
38.268000000000001
 20
102.288
 30
0.0
 11
37.082900000000002
 21
102.288
 31
0.0
  0
LINE
  5
1C6
  8
0
 62
     7
 10
37.082900000000002
 20
92.287499999999994
 30
0.0
 11
37.675499999999992
 21
90.075699999999983
 31
0.0
  0
LINE
  5
1C7
  8
0
 62
     7
 10
37.675499999999992
 20
90.075699999999983
 30
0.0
 11
38.268000000000001
 21
92.287499999999994
 31
0.0
  0
LINE
  5
1C8
  8
0
 62
     7
 10
38.268000000000001
 20
92.287499999999994
 30
0.0
 11
37.082900000000002
 21
92.287499999999994
 31
0.0
  0
LINE
  5
1C9
  8
0
 62
     7
 10
30.304500000000001
 20
64.787199999999999
 30
0.0
 11
30.896999999999998
 21
62.575400000000002
 31
0.0
  0
LINE
  5
1CA
  8
0
 62
     7
 10
30.896999999999998
 20
62.575400000000002
 30
0.0
 11
31.489599999999999
 21
64.787199999999999
 31
0.0
  0
LINE
  5
1CB
  8
0
 62
     7
 10
31.489599999999999
 20
64.787199999999999
 30
0.0
 11
30.304500000000001
 21
64.787199999999999
 31
0.0
  0
LINE
  5
1CC
  8
0
 62
     7
 10
30.8825
 20
137.57599999999991
 30
0.0
 11
30.8825
 21
62.575400000000002
 31
0.0
  0
LINE
  5
1CD
  8
0
 62
     7
 10
48.338999999999992
 20
110.07599999999999
 30
0.0
 11
36.9754
 21
110.07599999999999
 31
0.0
  0
LINE
  5
1CE
  8
0
 62
     7
 10
42.444200000000002
 20
100.07599999999999
 30
0.0
 11
36.9754
 21
100.07599999999999
 31
0.0
  0
LINE
  5
1CF
  8
0
 62
     7
 10
48.068999999999988
 20
90.075699999999983
 30
0.0
 11
36.9754
 21
90.075699999999983
 31
0.0
  0
LINE
  5
1D0
  8
0
 62
     7
 10
46.028700000000001
 20
137.57599999999991
 30
0.0
 11
30.182500000000001
 21
137.57599999999991
 31
0.0
  0
LINE
  5
1D1
  8
0
 62
     7
 10
45.758699999999997
 20
62.575400000000002
 30
0.0
 11
30.182500000000001
 21
62.575400000000002
 31
0.0
  0
LINE
  5
1D2
  8
0
 62
     7
 10
137.83600000000001
 20
54.989199999999997
 30
0.0
 11
135.62499999999989
 21
54.396700000000003
 31
0.0
  0
LINE
  5
1D3
  8
0
 62
     7
 10
135.62499999999989
 20
54.396700000000003
 30
0.0
 11
137.83600000000001
 21
53.804099999999998
 31
0.0
  0
LINE
  5
1D4
  8
0
 62
     7
 10
137.83600000000001
 20
53.804099999999998
 30
0.0
 11
137.83600000000001
 21
54.989199999999997
 31
0.0
  0
LINE
  5
1D5
  8
0
 62
     7
 10
142.4139999999999
 20
53.818600000000004
 30
0.0
 11
144.625
 21
54.411099999999998
 31
0.0
  0
LINE
  5
1D6
  8
0
 62
     7
 10
144.625
 20
54.411099999999998
 30
0.0
 11
142.4139999999999
 21
55.003700000000002
 31
0.0
  0
LINE
  5
1D7
  8
0
 62
     7
 10
142.4139999999999
 20
55.003700000000002
 30
0.0
 11
142.4139999999999
 21
53.818600000000004
 31
0.0
  0
LINE
  5
1D8
  8
0
 62
     7
 10
135.62499999999989
 20
54.396700000000003
 30
0.0
 11
144.625
 21
54.396700000000003
 31
0.0
  0
LINE
  5
1D9
  8
0
 62
     7
 10
144.625
 20
62.144100000000002
 30
0.0
 11
144.625
 21
53.696599999999989
 31
0.0
  0
LINE
  5
1DA
  8
0
 62
     7
 10
135.62499999999989
 20
62.144100000000002
 30
0.0
 11
135.62499999999989
 21
53.696599999999989
 31
0.0
  0
TEXT
  5
1DB
  8
_________2
 62
     7
 10
90.092336166666669
 20
13.218199999999991
 30
0.0
 40
3.6545800000000002
  1
1 ： 10
 41
0.5
 72
     1
 11
93.960099999999997
 21
13.218199999999991
 31
0.0
  0
LINE
  5
1DC
  8
_________2
 62
     7
 10
205.30099999999999
 20
127.41200000000001
 30
0.0
 11
183.55000000000001
 21
127.41200000000001
 31
0.0
  0
LINE
  5
1DD
  8
_________2
 62
     7
 10
100.2999999999999
 20
-4.0903900000000002
 30
0.0
 11
100.2999999999999
 21
-21.070699999999992
 31
0.0
  0
LINE
  5
1DE
  8
_________2
 62
     7
 10
100.2999999999999
 20
275.93099999999993
 30
0.0
 11
100.2999999999999
 21
258.911
 31
0.0
  0
LINE
  5
1DF
  8
_________2
 62
     7
 10
17.049499999999998
 20
127.41200000000001
 30
0.0
 11
-4.70052
 21
127.41200000000001
 31
0.0
  0
LINE
  5
1E0
  8
_________2
 62
     7
 10
76.741399999999999
 20
29.805099999999999
 30
0.0
 11
74.554699999999997
 21
29.805099999999999
 31
0.0
  0
LINE
  5
1E1
  8
_________2
 62
     7
 10
77.233999999999995
 20
29.805099999999999
 30
0.0
 11
76.981800000000007
 21
29.805099999999999
 31
0.0
  0
LINE
  5
1E2
  8
_________2
 62
     7
 10
77.726299999999995
 20
29.805099999999999
 30
0.0
 11
80.651600000000002
 21
29.805099999999999
 31
0.0
  0
LINE
  5
1E3
  8
_________2
 62
     7
 10
77.233999999999995
 20
29.805099999999999
 30
0.0
 11
77.485900000000001
 21
29.805099999999999
 31
0.0
  0
LINE
  5
1E4
  8
_________2
 62
     7
 10
70.837500000000006
 20
29.805099999999999
 30
0.0
 11
68.650499999999994
 21
29.805099999999999
 31
0.0
  0
LINE
  5
1E5
  8
_________2
 62
     7
 10
71.329800000000006
 20
29.805099999999999
 30
0.0
 11
71.0779
 21
29.805099999999999
 31
0.0
  0
LINE
  5
1E6
  8
_________2
 62
     7
 10
71.329800000000006
 20
30.2974
 30
0.0
 11
71.329800000000006
 21
32.484400000000001
 31
0.0
  0
LINE
  5
1E7
  8
_________2
 62
     7
 10
71.329800000000006
 20
29.805099999999999
 30
0.0
 11
71.329800000000006
 21
30.057600000000001
 31
0.0
  0
LINE
  5
1E8
  8
_________2
 62
     7
 10
71.822400000000002
 20
29.805099999999999
 30
0.0
 11
74.009
 21
29.805099999999999
 31
0.0
  0
LINE
  5
1E9
  8
_________2
 62
     7
 10
71.329800000000006
 20
29.805099999999999
 30
0.0
 11
71.581999999999994
 21
29.805099999999999
 31
0.0
  0
LINE
  5
1EA
  8
_________2
 62
     7
 10
71.329800000000006
 20
29.312799999999999
 30
0.0
 11
71.329800000000006
 21
27.126200000000001
 31
0.0
  0
LINE
  5
1EB
  8
_________2
 62
     7
 10
71.329800000000006
 20
29.805099999999999
 30
0.0
 11
71.329800000000006
 21
29.5532
 31
0.0
  0
LINE
  5
1EC
  8
_________2
 62
     7
 10
75.040899999999993
 20
28.585899999999992
 30
0.0
 11
80.218500000000006
 21
27.720400000000001
 31
0.0
  0
LINE
  5
1ED
  8
_________2
 62
     7
 10
75.040899999999993
 20
31.024699999999999
 30
0.0
 11
80.218500000000006
 21
31.8901
 31
0.0
  0
LINE
  5
1EE
  8
_________2
 62
     7
 10
80.218500000000006
 20
27.720400000000001
 30
0.0
 11
80.218500000000006
 21
31.8901
 31
0.0
  0
LINE
  5
1EF
  8
_________2
 62
     7
 10
75.040899999999993
 20
28.585899999999992
 30
0.0
 11
75.040899999999993
 21
31.024699999999999
 31
0.0
  0
ARC
  5
1F0
  8
_________2
 62
     7
 10
71.283201000000005
 20
29.758156
 30
0.0
 40
1.2673589999999999
 50
2.122214
 51
87.893958999999995
  0
ARC
  5
1F1
  8
_________2
 62
     7
 10
71.376300000000001
 20
29.758562000000001
 30
0.0
 40
1.2669509999999991
 50
92.104485999999994
 51
177.89548500000001
  0
ARC
  5
1F2
  8
_________2
 62
     7
 10
71.376343999999989
 20
29.852014
 30
0.0
 40
1.2670099999999991
 50
182.1225849999999
 51
267.89363300000002
  0
ARC
  5
1F3
  8
_________2
 62
     7
 10
71.282900999999995
 20
29.852677
 30
0.0
 40
1.267684
 50
272.11907200000002
 51
357.848567
  0
ARC
  5
1F4
  8
_________2
 62
     7
 10
71.249426999999997
 20
29.725096999999991
 30
0.0
 40
2.1664659999999989
 50
2.1159629999999998
 51
87.874558999999991
  0
ARC
  5
1F5
  8
_________2
 62
     7
 10
71.409410999999992
 20
29.725809000000002
 30
0.0
 40
2.1657280000000001
 50
92.107296999999988
 51
177.902142
  0
ARC
  5
1F6
  8
_________2
 62
     7
 10
71.409789000000004
 20
29.885100999999999
 30
0.0
 40
2.1661329999999999
 50
182.116929
 51
267.88310000000001
  0
ARC
  5
1F7
  8
_________2
 62
     7
 10
71.249769999999998
 20
29.88509199999999
 30
0.0
 40
2.1661229999999989
 50
272.11667999999992
 51
357.88332999999989
  0
TEXT
  5
1F8
  8
_________2
 62
     7
 10
104.605
 20
1.6794899999999999
 30
0.0
 40
3.0923400000000001
  1
図番
 41
0.5
  0
LINE
  5
1F9
  8
_________2
 62
     7
 10
103.55
 20
5.9087199999999989
 30
0.0
 11
183.55099999999999
 21
5.9087199999999989
 31
0.0
  0
TEXT
  5
1FA
  8
_________2
 62
     7
 10
104.605
 20
11.679600000000001
 30
0.0
 40
3.0923400000000001
  1
品番
 41
0.5
  0
TEXT
  5
1FB
  8
_________2
 62
     7
 10
104.605
 20
31.8184
 30
0.0
 40
3.0923400000000001
  1
名称
 41
0.5
  0
TEXT
  5
1FC
  8
_________2
 62
     7
 10
91.84545833333334
 20
26.822299999999998
 30
0.0
 40
3.6545800000000002
  1
mm
 41
0.5
 72
     1
 11
93.368200000000016
 21
26.822299999999998
 31
0.0
  0
TEXT
  5
1FD
  8
_________2
 62
     7
 10
85.643199999999993
 20
31.8184
 30
0.0
 40
3.0923400000000001
  1
単位
 41
0.5
  0
TEXT
  5
1FE
  8
_________2
 62
     7
 10
85.643199999999993
 20
19.411200000000001
 30
0.0
 40
3.0923400000000001
  1
尺度
 41
0.5
  0
TEXT
  5
1FF
  8
_________2
 62
     7
 10
136.4985375
 20
9.1082000000000001
 30
0.0
 40
3.9357000000000002
  1
KE124075
 41
0.5
 72
     1
 11
143.55000000000001
 21
9.1082000000000001
 31
0.0
  0
TEXT
  5
200
  8
_________2
 62
     7
 10
136.4985375
 20
-0.8919409999999999
 30
0.0
 40
3.9357000000000002
  1
KE124075
 41
0.5
 72
     1
 11
143.55000000000001
 21
-0.8919409999999999
 31
0.0
  0
TEXT
  5
201
  8
_________2
 62
     7
 10
24.587099999999989
 20
0.707627
 30
0.0
 40
3.9357000000000002
  1
実容量：6.0L、重量：22.0kg、オーバーフロー付
 41
0.5
  0
TEXT
  5
202
  8
_________2
 62
     7
 10
109.179
 20
24.226400000000002
 30
0.0
 40
3.9357000000000002
  1
洗面器
 41
0.5
  0
TEXT
  5
203
  8
_________2
 62
     7
 10
39.303480999999991
 20
13.603400000000001
 30
0.0
 40
3.6545800000000002
  1
田尻
 41
0.5
 72
     1
 11
41.313499999999998
 21
13.603400000000001
 31
0.0
  0
TEXT
  5
204
  8
_________2
 62
     7
 10
20.79039066666666
 20
13.603400000000001
 30
0.0
 40
3.6545800000000002
  1
石原
 41
0.5
 72
     1
 11
22.7395
 21
13.603400000000001
 31
0.0
  0
TEXT
  5
205
  8
_________2
 62
     7
 10
67.785799999999995
 20
13.218199999999991
 30
0.0
 40
3.6545800000000002
  1
10.06.24
 41
0.5
  0
TEXT
  5
206
  8
_________2
 62
     7
 10
66.593100000000007
 20
19.411200000000001
 30
0.0
 40
3.0923400000000001
  1
日付
 41
0.5
  0
TEXT
  5
207
  8
_________2
 62
     7
 10
29.639399999999998
 20
19.411200000000001
 30
0.0
 40
3.0923400000000001
  1
検図
 41
0.5
  0
TEXT
  5
208
  8
_________2
 62
     7
 10
18.021399999999989
 20
5.2117699999999987
 30
0.0
 40
3.0923400000000001
  1
備考
 41
0.5
  0
TEXT
  5
209
  8
_________2
 62
     7
 10
18.021399999999989
 20
19.411200000000001
 30
0.0
 40
3.0923400000000001
  1
製図
 41
0.5
  0
TEXT
  5
20A
  8
_________2
 62
     7
 10
23.78886533333333
 20
27.936800000000002
 30
0.0
 40
4.4979399999999989
  1
セラトレーディング株式会社
 41
0.5
 72
     1
 11
41.180900000000001
 21
27.936800000000002
 31
0.0
  0
LINE
  5
20B
  8
_________2
 62
     7
 10
183.55099999999999
 20
-4.0910799999999998
 30
0.0
 11
17.049499999999998
 21
-4.0910799999999998
 31
0.0
  0
LINE
  5
20C
  8
_________2
 62
     7
 10
17.049499999999998
 20
-4.0910799999999998
 30
0.0
 11
17.049499999999998
 21
258.911
 31
0.0
  0
LINE
  5
20D
  8
_________2
 62
     7
 10
17.049499999999998
 20
258.911
 30
0.0
 11
183.55099999999999
 21
258.911
 31
0.0
  0
LINE
  5
20E
  8
_________2
 62
     7
 10
183.55099999999999
 20
258.911
 30
0.0
 11
183.55099999999999
 21
-4.0910799999999998
 31
0.0
  0
LINE
  5
20F
  8
_________2
 62
     7
 10
65.549899999999994
 20
9.4096499999999992
 30
0.0
 11
65.549899999999994
 21
35.909500000000001
 31
0.0
  0
LINE
  5
210
  8
_________2
 62
     7
 10
84.550099999999986
 20
9.4096499999999992
 30
0.0
 11
84.550099999999986
 21
35.909500000000001
 31
0.0
  0
LINE
  5
211
  8
_________2
 62
     7
 10
103.55
 20
-4.0910799999999998
 30
0.0
 11
103.55
 21
35.909500000000001
 31
0.0
  0
LINE
  5
212
  8
_________2
 62
     7
 10
28.549700000000001
 20
9.4096499999999992
 30
0.0
 11
28.549700000000001
 21
23.409199999999998
 31
0.0
  0
LINE
  5
213
  8
_________2
 62
     7
 10
17.049499999999998
 20
9.4096499999999992
 30
0.0
 11
103.55
 21
9.4096499999999992
 31
0.0
  0
LINE
  5
214
  8
_________2
 62
     7
 10
17.049499999999998
 20
23.409199999999998
 30
0.0
 11
103.55
 21
23.409199999999998
 31
0.0
  0
LINE
  5
215
  8
_________2
 62
     7
 10
103.55
 20
15.9092
 30
0.0
 11
183.55099999999999
 21
15.9092
 31
0.0
  0
LINE
  5
216
  8
_________2
 62
     7
 10
17.049499999999998
 20
35.909500000000001
 30
0.0
 11
183.55099999999999
 21
35.909500000000001
 31
0.0
  0
LINE
  5
228
  8
0
  6
AIGENLINE002
 62
     7
 10
148.28473707498469
 20
206.11034142960619
 30
0.0
 11
148.86195870158801
 21
206.1288349988078
 31
0.0
  0
ARC
  5
22A
  8
0
 62
     7
 10
135.7471438408958
 20
210.51796724071889
 30
0.0
 40
14.811371954541301
 50
15.19058526178606
 51
21.43841985564524
  0
TEXT
  5
235
  8
0
 62
     7
 10
177.87352024523571
 20
95.618729993230531
 30
0.0
 40
3.9357000000000002
  1
※排水栓を閉めた状態で、毎分7L以上吐水させないでください。
 50
90.0
 41
0.5
  0
ENDSEC
  0
EOF
