  0
SECTION
  2
HEADER
  9
$ACADVER
  1
AC1009
  9
$INSBASE
 10
0.0
 20
0.0
 30
0.0
  9
$EXTMIN
 10
-0.4207274211768209
 20
-0.011776586477481
 30
-0.0434432203259418
  9
$EXTMAX
 10
10.832312297879181
 20
4.1749523142933631
 30
0.0014480906468739
  9
$LIMMIN
 10
0.0
 20
0.0
  9
$LIMMAX
 10
420.0
 20
297.0
  9
$ORTHOMODE
 70
     0
  9
$REGENMODE
 70
     1
  9
$FILLMODE
 70
     1
  9
$QTEXTMODE
 70
     0
  9
$MIRRTEXT
 70
     1
  9
$DRAGMODE
 70
     2
  9
$LTSCALE
 40
1.0
  9
$OSMODE
 70
    37
  9
$ATTMODE
 70
     1
  9
$TEXTSIZE
 40
0.001
  9
$TRACEWID
 40
1.0
  9
$TEXTSTYLE
  7
STANDARD
  9
$CLAYER
  8
0
  9
$CELTYPE
  6
BYLAYER
  9
$CECOLOR
 62
   256
  9
$DIMSCALE
 40
1.0
  9
$DIMASZ
 40
2.5
  9
$DIMEXO
 40
0.625
  9
$DIMDLI
 40
3.75
  9
$DIMRND
 40
0.0
  9
$DIMDLE
 40
0.0
  9
$DIMEXE
 40
1.25
  9
$DIMTP
 40
0.0
  9
$DIMTM
 40
0.0
  9
$DIMTXT
 40
2.5
  9
$DIMCEN
 40
2.5
  9
$DIMTSZ
 40
0.0
  9
$DIMTOL
 70
     0
  9
$DIMLIM
 70
     0
  9
$DIMTIH
 70
     0
  9
$DIMTOH
 70
     0
  9
$DIMSE1
 70
     0
  9
$DIMSE2
 70
     0
  9
$DIMTAD
 70
     1
  9
$DIMZIN
 70
     8
  9
$DIMBLK
  1

  9
$DIMASO
 70
     1
  9
$DIMSHO
 70
     1
  9
$DIMPOST
  1

  9
$DIMAPOST
  1

  9
$DIMALT
 70
     0
  9
$DIMALTD
 70
     3
  9
$DIMALTF
 40
0.03937007874016
  9
$DIMLFAC
 40
1.0
  9
$DIMTOFL
 70
     1
  9
$DIMTVP
 40
0.0
  9
$DIMTIX
 70
     0
  9
$DIMSOXD
 70
     0
  9
$DIMSAH
 70
     0
  9
$DIMBLK1
  1

  9
$DIMBLK2
  1

  9
$DIMSTYLE
  2
ISO-25
  9
$DIMCLRD
 70
     0
  9
$DIMCLRE
 70
     0
  9
$DIMCLRT
 70
     0
  9
$DIMTFAC
 40
1.0
  9
$DIMGAP
 40
0.625
  9
$LUNITS
 70
     2
  9
$LUPREC
 70
     4
  9
$SKETCHINC
 40
1.0
  9
$FILLETRAD
 40
0.0
  9
$AUNITS
 70
     0
  9
$AUPREC
 70
     0
  9
$MENU
  1
.
  9
$ELEVATION
 40
0.0
  9
$PELEVATION
 40
0.0
  9
$THICKNESS
 40
0.0
  9
$LIMCHECK
 70
     0
  9
$BLIPMODE
 70
     0
  9
$CHAMFERA
 40
10.0
  9
$CHAMFERB
 40
10.0
  9
$SKPOLY
 70
     0
  9
$TDCREATE
 40
2453378.22126956
  9
$TDUPDATE
 40
2453411.4561149068
  9
$TDINDWG
 40
0.7447461806
  9
$TDUSRTIMER
 40
0.744724919
  9
$USRTIMER
 70
     1
  9
$ANGBASE
 50
0.0
  9
$ANGDIR
 70
     0
  9
$PDMODE
 70
     0
  9
$PDSIZE
 40
0.0
  9
$PLINEWID
 40
0.0
  9
$COORDS
 70
     1
  9
$SPLFRAME
 70
     0
  9
$SPLINETYPE
 70
     6
  9
$SPLINESEGS
 70
     8
  9
$ATTDIA
 70
     0
  9
$ATTREQ
 70
     1
  9
$HANDLING
 70
     1
  9
$HANDSEED
  5
9760A
  9
$SURFTAB1
 70
     6
  9
$SURFTAB2
 70
     6
  9
$SURFTYPE
 70
     6
  9
$SURFU
 70
     6
  9
$SURFV
 70
     6
  9
$UCSNAME
  2

  9
$UCSORG
 10
0.0
 20
0.0
 30
0.0
  9
$UCSXDIR
 10
1.0
 20
0.0
 30
0.0
  9
$UCSYDIR
 10
0.0
 20
1.0
 30
0.0
  9
$PUCSNAME
  2

  9
$PUCSORG
 10
0.0
 20
0.0
 30
0.0
  9
$PUCSXDIR
 10
1.0
 20
0.0
 30
0.0
  9
$PUCSYDIR
 10
0.0
 20
1.0
 30
0.0
  9
$USERI1
 70
     0
  9
$USERI2
 70
     0
  9
$USERI3
 70
     0
  9
$USERI4
 70
     0
  9
$USERI5
 70
     0
  9
$USERR1
 40
0.0
  9
$USERR2
 40
0.0
  9
$USERR3
 40
0.0
  9
$USERR4
 40
0.0
  9
$USERR5
 40
0.0
  9
$WORLDVIEW
 70
     1
  9
$SHADEDGE
 70
     3
  9
$SHADEDIF
 70
    70
  9
$TILEMODE
 70
     1
  9
$MAXACTVP
 70
    64
  9
$PLIMCHECK
 70
     0
  9
$PEXTMIN
 10
1.0000000000000000E+020
 20
1.0000000000000000E+020
 30
1.0000000000000000E+020
  9
$PEXTMAX
 10
-1.0000000000000000E+020
 20
-1.0000000000000000E+020
 30
-1.0000000000000000E+020
  9
$PLIMMIN
 10
0.0
 20
0.0
  9
$PLIMMAX
 10
420.0
 20
297.0
  9
$UNITMODE
 70
     0
  9
$VISRETAIN
 70
     1
  9
$PLINEGEN
 70
     0
  9
$PSLTSCALE
 70
     1
  0
ENDSEC
  0
SECTION
  2
TABLES
  0
TABLE
  2
VPORT
 70
     2
  0
VPORT
  2
*ACTIVE
 70
     0
 10
0.0
 20
0.0
 11
1.0
 21
1.0
 12
6.2560986898724869
 22
2.0950425423377279
 13
0.0
 23
0.0
 14
10.0
 24
10.0
 15
10.0
 25
10.0
 16
0.0
 26
0.0
 36
1.0
 17
0.0
 27
0.0
 37
0.0
 40
9.9623738159031756
 41
1.9608247422680409
 42
50.0
 43
0.0
 44
0.0
 50
0.0
 51
0.0
 71
     0
 72
  1000
 73
     1
 74
     3
 75
     0
 76
     0
 77
     0
 78
     0
  0
ENDTAB
  0
TABLE
  2
LTYPE
 70
     1
  0
LTYPE
  2
CONTINUOUS
 70
     0
  3
Solid line
 72
    65
 73
     0
 40
0.0
  0
ENDTAB
  0
TABLE
  2
LAYER
 70
     3
  0
LAYER
  2
0
 70
     0
 62
     7
  6
CONTINUOUS
  0
LAYER
  2
ASHADE
 70
     0
 62
     7
  6
CONTINUOUS
  0
LAYER
  2
DEFPOINTS
 70
     0
 62
     7
  6
CONTINUOUS
  0
ENDTAB
  0
TABLE
  2
STYLE
 70
     2
  0
STYLE
  2
STANDARD
 70
     0
 40
0.0
 41
1.0
 50
0.0
 71
     0
 42
0.001
  3
txt
  4

  0
STYLE
  2
ASHADE
 70
     0
 40
0.2
 41
1.0
 50
0.0
 71
     0
 42
2.5
  3
simplex.shx
  4

  0
ENDTAB
  0
TABLE
  2
VIEW
 70
     0
  0
ENDTAB
  0
TABLE
  2
UCS
 70
     0
  0
ENDTAB
  0
TABLE
  2
APPID
 70
     6
  0
APPID
  2
ACAD
 70
     0
  0
APPID
  2
AVE_RENDER
 70
     0
  0
APPID
  2
AVE_ENTITY_MATERIAL
 70
     0
  0
APPID
  2
AVE_FINISH
 70
     0
  0
APPID
  2
AVE_MATERIAL
 70
     0
  0
APPID
  2
AVE_GLOBAL
 70
     0
  0
ENDTAB
  0
TABLE
  2
DIMSTYLE
 70
     2
  0
DIMSTYLE
  2
ISO-25
 70
     0
  3

  4

  5

  6

  7

 40
1.0
 41
2.5
 42
0.625
 43
3.75
 44
1.25
 45
0.0
 46
0.0
 47
0.0
 48
0.0
140
2.5
141
2.5
142
0.0
143
0.03937007874016
144
1.0
145
0.0
146
1.0
147
0.625
 71
     0
 72
     0
 73
     0
 74
     0
 75
     0
 76
     0
 77
     1
 78
     8
170
     0
171
     3
172
     1
173
     0
174
     0
175
     0
176
     0
177
     0
178
     0
  0
DIMSTYLE
  2
STANDARD
 70
     0
  3

  4

  5

  6

  7

 40
1.0
 41
0.18
 42
0.0625
 43
0.38
 44
0.18
 45
0.0
 46
0.0
 47
0.0
 48
0.0
140
0.18
141
0.09
142
0.0
143
25.399999999999999
144
1.0
145
0.0
146
1.0
147
0.09
 71
     0
 72
     0
 73
     1
 74
     1
 75
     0
 76
     0
 77
     0
 78
     0
170
     0
171
     2
172
     0
173
     0
174
     0
175
     0
176
     0
177
     0
178
     0
  0
ENDTAB
  0
ENDSEC
  0
SECTION
  2
BLOCKS
  0
BLOCK
  8
0
  2
$MODEL_SPACE
 70
     0
 10
0.0
 20
0.0
 30
0.0
  3
$MODEL_SPACE
  1

  0
ENDBLK
  5
96F59
  8
0
  0
BLOCK
 67
     1
  8
0
  2
$PAPER_SPACE
 70
     0
 10
0.0
 20
0.0
 30
0.0
  3
$PAPER_SPACE
  1

  0
ENDBLK
  5
96F55
 67
     1
  8
0
  0
BLOCK
  8
ASHADE
  2
AVE_RENDER
 70
     0
 10
0.0
 20
0.0
 30
0.0
  3
AVE_RENDER
  1
AVE_RENDER
  0
ENDBLK
  5
31
  8
0
  0
BLOCK
  8
ASHADE
  2
AVE_GLOBAL
 70
     0
 10
0.0
 20
0.0
 30
0.0
  3
AVE_GLOBAL
  1
AVE_GLOBAL
  0
ENDBLK
  5
3F
  8
0
  0
BLOCK
  8
ASHADE
  2
RM_SDB
 70
     2
 10
0.0
 20
0.0
 30
0.0
  3
RM_SDB
  1
RM_SDB
  0
ATTDEF
  5
88486
  8
ASHADE
  6
CONTINUOUS
 62
     1
 10
0.0000000000000001
 20
-0.15
 30
0.0
 40
0.2
  1

 41
100.0
  7
ASHADE
 72
     1
 11
0.0000000000000001
 21
-0.15
 31
0.0
  3
Name
  2
NAME
 70
     0
  0
ENDBLK
  5
620
  8
0
  0
ENDSEC
  0
SECTION
  2
ENTITIES
  0
ATTDEF
  5
96948
  8
0
 10
0.0
 20
0.0
 30
0.0
 40
0.001
  1
K-13132-3B
  3

  2
MODELNUMBER
 70
     8
  0
ATTDEF
  5
96949
  8
0
 10
0.0
 20
-0.0016666666666667
 30
0.0
 40
0.001
  1
PINSTRIPE
  3

  2
TRADENAME
 70
     8
  0
ATTDEF
  5
9694A
  8
0
 10
0.0
 20
-0.0033333333333333
 30
0.0
 40
0.001
  1
FAUCETS
  3

  2
PRODUCT
 70
     8
  0
ATTDEF
  5
9694B
  8
0
 10
0.0
 20
-0.005
 30
0.0
 40
0.001
  1
BRASS
  3

  2
MATERIAL
 70
     8
  0
POLYLINE
  5
970F9
  8
ASHADE
 66
     1
 10
0.0
 20
0.0
 30
0.0009000845270055
  0
VERTEX
  5
97356
  8
ASHADE
 10
1.428345585360139
 20
3.524686206541606
 30
0.0009000845270055
  0
VERTEX
  5
97357
  8
ASHADE
 10
1.4283456973717961
 20
2.956722530533527
 30
0.0009000845270055
  0
SEQEND
  5
97358
  8
ASHADE
  0
POLYLINE
  5
970FA
  8
ASHADE
 66
     1
 10
0.0
 20
0.0
 30
-0.0425410785730499
  0
VERTEX
  5
97359
  8
ASHADE
 10
9.3806041629494263
 20
3.524686206541606
 30
-0.0425410785730499
  0
VERTEX
  5
9735A
  8
ASHADE
 10
9.3806042749610921
 20
2.956722530533527
 30
-0.0425410785730499
  0
SEQEND
  5
9735B
  8
ASHADE
  0
POLYLINE
  5
970FB
  8
0
 66
     1
 10
0.0
 20
0.0
 30
-0.0266191
 70
     1
  0
VERTEX
  5
9735C
  8
0
 10
4.7842399999999996
 20
1.988759999999999
 30
-0.0266191
  0
VERTEX
  5
9735D
  8
0
 10
4.7857900000000004
 20
1.985379999999999
 30
-0.0266191
  0
VERTEX
  5
9735E
  8
0
 10
4.7883800000000001
 20
1.982
 30
-0.0266191
  0
VERTEX
  5
9735F
  8
0
 10
4.7920199999999991
 20
1.978629999999999
 30
-0.0266191
  0
VERTEX
  5
97360
  8
0
 10
4.7966800000000003
 20
1.9753000000000001
 30
-0.0266191
  0
VERTEX
  5
97361
  8
0
 10
4.8023699999999989
 20
1.9719899999999999
 30
-0.0266191
  0
VERTEX
  5
97362
  8
0
 10
4.8090599999999988
 20
1.968729999999999
 30
-0.0266191
  0
VERTEX
  5
97363
  8
0
 10
4.8167400000000002
 20
1.965509999999999
 30
-0.0266191
  0
VERTEX
  5
97364
  8
0
 10
4.8253899999999996
 20
1.9623499999999989
 30
-0.0266191
  0
VERTEX
  5
97365
  8
0
 10
4.8349900000000003
 20
1.959249999999999
 30
-0.0266191
  0
VERTEX
  5
97366
  8
0
 10
4.8455199999999987
 20
1.956229999999999
 30
-0.0266191
  0
VERTEX
  5
97367
  8
0
 10
4.8569599999999991
 20
1.953279999999999
 30
-0.0266191
  0
VERTEX
  5
97368
  8
0
 10
4.8692599999999988
 20
1.95042
 30
-0.0266191
  0
VERTEX
  5
97369
  8
0
 10
4.8824100000000001
 20
1.9476500000000001
 30
-0.0266191
  0
VERTEX
  5
9736A
  8
0
 10
4.8963799999999997
 20
1.944979999999999
 30
-0.0266191
  0
VERTEX
  5
9736B
  8
0
 10
4.9111199999999986
 20
1.9424099999999991
 30
-0.0266191
  0
VERTEX
  5
9736C
  8
0
 10
4.9266100000000002
 20
1.939959999999999
 30
-0.0266191
  0
VERTEX
  5
9736D
  8
0
 10
4.9428000000000001
 20
1.93763
 30
-0.0266191
  0
VERTEX
  5
9736E
  8
0
 10
4.95967
 20
1.9354199999999999
 30
-0.0266191
  0
VERTEX
  5
9736F
  8
0
 10
4.9771499999999991
 20
1.9333299999999991
 30
-0.0266191
  0
VERTEX
  5
97370
  8
0
 10
4.9952300000000003
 20
1.931379999999999
 30
-0.0266191
  0
VERTEX
  5
97371
  8
0
 10
5.0138400000000001
 20
1.92957
 30
-0.0266191
  0
VERTEX
  5
97372
  8
0
 10
5.0329499999999987
 20
1.9278999999999991
 30
-0.0266191
  0
VERTEX
  5
97373
  8
0
 10
5.0525199999999986
 20
1.9263799999999991
 30
-0.0266191
  0
VERTEX
  5
97374
  8
0
 10
5.0724799999999997
 20
1.925009999999999
 30
-0.0266191
  0
VERTEX
  5
97375
  8
0
 10
5.0928000000000004
 20
1.9237899999999999
 30
-0.0266191
  0
VERTEX
  5
97376
  8
0
 10
5.1134300000000001
 20
1.9227299999999989
 30
-0.0266191
  0
VERTEX
  5
97377
  8
0
 10
5.1343100000000002
 20
1.921829999999999
 30
-0.0266191
  0
VERTEX
  5
97378
  8
0
 10
5.1554000000000002
 20
1.92109
 30
-0.0266191
  0
VERTEX
  5
97379
  8
0
 10
5.1766500000000004
 20
1.9205099999999991
 30
-0.0266191
  0
VERTEX
  5
9737A
  8
0
 10
5.197989999999999
 20
1.920099999999999
 30
-0.0266191
  0
VERTEX
  5
9737B
  8
0
 10
5.2194000000000003
 20
1.9198500000000001
 30
-0.0266191
  0
VERTEX
  5
9737C
  8
0
 10
5.2408000000000001
 20
1.9197699999999991
 30
-0.0266191
  0
VERTEX
  5
9737D
  8
0
 10
5.2621500000000001
 20
1.919859999999999
 30
-0.0266191
  0
VERTEX
  5
9737E
  8
0
 10
5.2834000000000003
 20
1.9201099999999991
 30
-0.0266191
  0
VERTEX
  5
9737F
  8
0
 10
5.3044999999999991
 20
1.920529999999999
 30
-0.0266191
  0
VERTEX
  5
97380
  8
0
 10
5.3254000000000001
 20
1.921109999999999
 30
-0.0266191
  0
VERTEX
  5
97381
  8
0
 10
5.3460400000000003
 20
1.9218500000000001
 30
-0.0266191
  0
VERTEX
  5
97382
  8
0
 10
5.366369999999999
 20
1.9227599999999989
 30
-0.0266191
  0
VERTEX
  5
97383
  8
0
 10
5.3863599999999989
 20
1.9238200000000001
 30
-0.0266191
  0
VERTEX
  5
97384
  8
0
 10
5.4059400000000002
 20
1.9250400000000001
 30
-0.0266191
  0
VERTEX
  5
97385
  8
0
 10
5.4250699999999989
 20
1.92642
 30
-0.0266191
  0
VERTEX
  5
97386
  8
0
 10
5.443719999999999
 20
1.92794
 30
-0.0266191
  0
VERTEX
  5
97387
  8
0
 10
5.4618199999999986
 20
1.9296199999999999
 30
-0.0266191
  0
VERTEX
  5
97388
  8
0
 10
5.4793399999999997
 20
1.9314299999999991
 30
-0.0266191
  0
VERTEX
  5
97389
  8
0
 10
5.4962299999999997
 20
1.933379999999999
 30
-0.0266191
  0
VERTEX
  5
9738A
  8
0
 10
5.512459999999999
 20
1.93547
 30
-0.0266191
  0
VERTEX
  5
9738B
  8
0
 10
5.5279800000000003
 20
1.937679999999999
 30
-0.0266191
  0
VERTEX
  5
9738C
  8
0
 10
5.5427599999999986
 20
1.9400200000000001
 30
-0.0266191
  0
VERTEX
  5
9738D
  8
0
 10
5.5567699999999993
 20
1.9424799999999991
 30
-0.0266191
  0
VERTEX
  5
9738E
  8
0
 10
5.56996
 20
1.9450400000000001
 30
-0.0266191
  0
VERTEX
  5
9738F
  8
0
 10
5.5823099999999988
 20
1.9477199999999999
 30
-0.0266191
  0
VERTEX
  5
97390
  8
0
 10
5.5937799999999998
 20
1.9504900000000001
 30
-0.0266191
  0
VERTEX
  5
97391
  8
0
 10
5.6043599999999989
 20
1.9533499999999999
 30
-0.0266191
  0
VERTEX
  5
97392
  8
0
 10
5.6140099999999986
 20
1.956299999999999
 30
-0.0266191
  0
VERTEX
  5
97393
  8
0
 10
5.6227099999999988
 20
1.9593299999999989
 30
-0.0266191
  0
VERTEX
  5
97394
  8
0
 10
5.6304299999999996
 20
1.962429999999999
 30
-0.0266191
  0
VERTEX
  5
97395
  8
0
 10
5.6371699999999993
 20
1.9655899999999999
 30
-0.0266191
  0
VERTEX
  5
97396
  8
0
 10
5.6429099999999988
 20
1.9688099999999991
 30
-0.0266191
  0
VERTEX
  5
97397
  8
0
 10
5.6476300000000004
 20
1.97207
 30
-0.0266191
  0
VERTEX
  5
97398
  8
0
 10
5.6513099999999987
 20
1.975379999999999
 30
-0.0266191
  0
VERTEX
  5
97399
  8
0
 10
5.6539599999999988
 20
1.97872
 30
-0.0266191
  0
VERTEX
  5
9739A
  8
0
 10
5.6555599999999986
 20
1.982079999999999
 30
-0.0266191
  0
VERTEX
  5
9739B
  8
0
 10
5.6561099999999991
 20
1.9854599999999989
 30
-0.0266191
  0
VERTEX
  5
9739C
  8
0
 10
5.6556100000000002
 20
1.98885
 30
-0.0266191
  0
VERTEX
  5
9739D
  8
0
 10
5.6540599999999994
 20
1.9922299999999991
 30
-0.0266191
  0
VERTEX
  5
9739E
  8
0
 10
5.6514699999999989
 20
1.995609999999999
 30
-0.0266191
  0
VERTEX
  5
9739F
  8
0
 10
5.647829999999999
 20
1.9989799999999991
 30
-0.0266191
  0
VERTEX
  5
973A0
  8
0
 10
5.6431699999999987
 20
2.00231
 30
-0.0266191
  0
VERTEX
  5
973A1
  8
0
 10
5.63748
 20
2.0056199999999991
 30
-0.0266191
  0
VERTEX
  5
973A2
  8
0
 10
5.6307900000000002
 20
2.0088799999999991
 30
-0.0266191
  0
VERTEX
  5
973A3
  8
0
 10
5.6231099999999987
 20
2.0121000000000002
 30
-0.0266191
  0
VERTEX
  5
973A4
  8
0
 10
5.6144600000000002
 20
2.0152600000000001
 30
-0.0266191
  0
VERTEX
  5
973A5
  8
0
 10
5.6048599999999986
 20
2.018359999999999
 30
-0.0266191
  0
VERTEX
  5
973A6
  8
0
 10
5.5943300000000002
 20
2.0213799999999988
 30
-0.0266191
  0
VERTEX
  5
973A7
  8
0
 10
5.582889999999999
 20
2.0243299999999991
 30
-0.0266191
  0
VERTEX
  5
973A8
  8
0
 10
5.5705900000000002
 20
2.02719
 30
-0.0266191
  0
VERTEX
  5
973A9
  8
0
 10
5.5574399999999988
 20
2.0299599999999991
 30
-0.0266191
  0
VERTEX
  5
973AA
  8
0
 10
5.5434700000000001
 20
2.0326299999999988
 30
-0.0266191
  0
VERTEX
  5
973AB
  8
0
 10
5.5287300000000004
 20
2.0352000000000001
 30
-0.0266191
  0
VERTEX
  5
973AC
  8
0
 10
5.5132399999999997
 20
2.0376500000000002
 30
-0.0266191
  0
VERTEX
  5
973AD
  8
0
 10
5.4970499999999989
 20
2.039979999999999
 30
-0.0266191
  0
VERTEX
  5
973AE
  8
0
 10
5.4801799999999998
 20
2.0421900000000002
 30
-0.0266191
  0
VERTEX
  5
973AF
  8
0
 10
5.462699999999999
 20
2.0442800000000001
 30
-0.0266191
  0
VERTEX
  5
973B0
  8
0
 10
5.4446199999999987
 20
2.0462299999999991
 30
-0.0266191
  0
VERTEX
  5
973B1
  8
0
 10
5.4260099999999989
 20
2.0480399999999999
 30
-0.0266191
  0
VERTEX
  5
973B2
  8
0
 10
5.4069000000000003
 20
2.0497099999999988
 30
-0.0266191
  0
VERTEX
  5
973B3
  8
0
 10
5.3873300000000004
 20
2.051229999999999
 30
-0.0266191
  0
VERTEX
  5
973B4
  8
0
 10
5.3673699999999993
 20
2.0525999999999991
 30
-0.0266191
  0
VERTEX
  5
973B5
  8
0
 10
5.3470500000000003
 20
2.0538199999999991
 30
-0.0266191
  0
VERTEX
  5
973B6
  8
0
 10
5.3264199999999988
 20
2.0548799999999989
 30
-0.0266191
  0
VERTEX
  5
973B7
  8
0
 10
5.3055399999999997
 20
2.0557799999999991
 30
-0.0266191
  0
VERTEX
  5
973B8
  8
0
 10
5.2844499999999988
 20
2.056519999999999
 30
-0.0266191
  0
VERTEX
  5
973B9
  8
0
 10
5.2632000000000003
 20
2.0571000000000002
 30
-0.0266191
  0
VERTEX
  5
973BA
  8
0
 10
5.2418599999999991
 20
2.0575099999999988
 30
-0.0266191
  0
VERTEX
  5
973BB
  8
0
 10
5.2204499999999987
 20
2.05776
 30
-0.0266191
  0
VERTEX
  5
973BC
  8
0
 10
5.1990499999999988
 20
2.0578400000000001
 30
-0.0266191
  0
VERTEX
  5
973BD
  8
0
 10
5.1776999999999989
 20
2.0577499999999991
 30
-0.0266191
  0
VERTEX
  5
973BE
  8
0
 10
5.1564500000000004
 20
2.0575000000000001
 30
-0.0266191
  0
VERTEX
  5
973BF
  8
0
 10
5.135349999999999
 20
2.05708
 30
-0.0266191
  0
VERTEX
  5
973C0
  8
0
 10
5.1144499999999988
 20
2.0565000000000002
 30
-0.0266191
  0
VERTEX
  5
973C1
  8
0
 10
5.0938099999999986
 20
2.0557599999999989
 30
-0.0266191
  0
VERTEX
  5
973C2
  8
0
 10
5.0734799999999991
 20
2.0548500000000001
 30
-0.0266191
  0
VERTEX
  5
973C3
  8
0
 10
5.05349
 20
2.0537899999999998
 30
-0.0266191
  0
VERTEX
  5
973C4
  8
0
 10
5.0339099999999988
 20
2.0525699999999998
 30
-0.0266191
  0
VERTEX
  5
973C5
  8
0
 10
5.01478
 20
2.0511900000000001
 30
-0.0266191
  0
VERTEX
  5
973C6
  8
0
 10
4.9961299999999991
 20
2.049669999999999
 30
-0.0266191
  0
VERTEX
  5
973C7
  8
0
 10
4.9780300000000004
 20
2.0479899999999991
 30
-0.0266191
  0
VERTEX
  5
973C8
  8
0
 10
4.9605100000000002
 20
2.0461800000000001
 30
-0.0266191
  0
VERTEX
  5
973C9
  8
0
 10
4.9436200000000001
 20
2.0442299999999989
 30
-0.0266191
  0
VERTEX
  5
973CA
  8
0
 10
4.927389999999999
 20
2.0421399999999998
 30
-0.0266191
  0
VERTEX
  5
973CB
  8
0
 10
4.9118699999999986
 20
2.03993
 30
-0.0266191
  0
VERTEX
  5
973CC
  8
0
 10
4.8970900000000004
 20
2.0375899999999998
 30
-0.0266191
  0
VERTEX
  5
973CD
  8
0
 10
4.8830799999999996
 20
2.0351300000000001
 30
-0.0266191
  0
VERTEX
  5
973CE
  8
0
 10
4.8698899999999989
 20
2.0325700000000002
 30
-0.0266191
  0
VERTEX
  5
973CF
  8
0
 10
4.8575400000000002
 20
2.0298899999999991
 30
-0.0266191
  0
VERTEX
  5
973D0
  8
0
 10
4.8460700000000001
 20
2.02712
 30
-0.0266191
  0
VERTEX
  5
973D1
  8
0
 10
4.8354900000000001
 20
2.0242599999999991
 30
-0.0266191
  0
VERTEX
  5
973D2
  8
0
 10
4.8258400000000004
 20
2.0213099999999988
 30
-0.0266191
  0
VERTEX
  5
973D3
  8
0
 10
4.8171400000000002
 20
2.018279999999999
 30
-0.0266191
  0
VERTEX
  5
973D4
  8
0
 10
4.8094199999999994
 20
2.0151799999999991
 30
-0.0266191
  0
VERTEX
  5
973D5
  8
0
 10
4.8026799999999996
 20
2.0120200000000001
 30
-0.0266191
  0
VERTEX
  5
973D6
  8
0
 10
4.7969400000000002
 20
2.008799999999999
 30
-0.0266191
  0
VERTEX
  5
973D7
  8
0
 10
4.7922199999999986
 20
2.0055399999999999
 30
-0.0266191
  0
VERTEX
  5
973D8
  8
0
 10
4.7885400000000002
 20
2.0022299999999991
 30
-0.0266191
  0
VERTEX
  5
973D9
  8
0
 10
4.7858900000000002
 20
1.9988900000000001
 30
-0.0266191
  0
VERTEX
  5
973DA
  8
0
 10
4.7842900000000004
 20
1.99553
 30
-0.0266191
  0
VERTEX
  5
973DB
  8
0
 10
4.783739999999999
 20
1.9921500000000001
 30
-0.0266191
  0
SEQEND
  5
973DC
  8
0
  0
POLYLINE
  5
9717B
  8
0
 66
     1
 10
0.0
 20
0.0
 30
-0.0266159
 70
     1
  0
VERTEX
  5
973DD
  8
0
 10
4.6542300000000001
 20
2.0025900000000001
 30
-0.0266159
  0
VERTEX
  5
973DE
  8
0
 10
4.6562700000000001
 20
1.996079999999999
 30
-0.0266159
  0
VERTEX
  5
973DF
  8
0
 10
4.6596699999999993
 20
1.9896
 30
-0.0266159
  0
VERTEX
  5
973E0
  8
0
 10
4.6644199999999989
 20
1.9831599999999989
 30
-0.0266159
  0
VERTEX
  5
973E1
  8
0
 10
4.6704999999999988
 20
1.97679
 30
-0.0266159
  0
VERTEX
  5
973E2
  8
0
 10
4.6779099999999989
 20
1.9704900000000001
 30
-0.0266159
  0
VERTEX
  5
973E3
  8
0
 10
4.6866300000000001
 20
1.96428
 30
-0.0266159
  0
VERTEX
  5
973E4
  8
0
 10
4.696629999999999
 20
1.9581900000000001
 30
-0.0266159
  0
VERTEX
  5
973E5
  8
0
 10
4.707889999999999
 20
1.9522099999999989
 30
-0.0266159
  0
VERTEX
  5
973E6
  8
0
 10
4.7203900000000001
 20
1.9463699999999999
 30
-0.0266159
  0
VERTEX
  5
973E7
  8
0
 10
4.7340799999999996
 20
1.94068
 30
-0.0266159
  0
VERTEX
  5
973E8
  8
0
 10
4.7489499999999989
 20
1.9351599999999991
 30
-0.0266159
  0
VERTEX
  5
973E9
  8
0
 10
4.7649599999999994
 20
1.9298099999999989
 30
-0.0266159
  0
VERTEX
  5
973EA
  8
0
 10
4.782049999999999
 20
1.9246499999999991
 30
-0.0266159
  0
VERTEX
  5
973EB
  8
0
 10
4.800209999999999
 20
1.9196899999999999
 30
-0.0266159
  0
VERTEX
  5
973EC
  8
0
 10
4.8193699999999993
 20
1.914949999999999
 30
-0.0266159
  0
VERTEX
  5
973ED
  8
0
 10
4.8395000000000001
 20
1.9104399999999999
 30
-0.0266159
  0
VERTEX
  5
973EE
  8
0
 10
4.860549999999999
 20
1.906159999999999
 30
-0.0266159
  0
VERTEX
  5
973EF
  8
0
 10
4.88246
 20
1.902129999999999
 30
-0.0266159
  0
VERTEX
  5
973F0
  8
0
 10
4.9051900000000002
 20
1.8983599999999989
 30
-0.0266159
  0
VERTEX
  5
973F1
  8
0
 10
4.9286699999999994
 20
1.894849999999999
 30
-0.0266159
  0
VERTEX
  5
973F2
  8
0
 10
4.9528499999999989
 20
1.891619999999999
 30
-0.0266159
  0
VERTEX
  5
973F3
  8
0
 10
4.9776800000000003
 20
1.8886700000000001
 30
-0.0266159
  0
VERTEX
  5
973F4
  8
0
 10
5.0030900000000003
 20
1.885999999999999
 30
-0.0266159
  0
VERTEX
  5
973F5
  8
0
 10
5.0290299999999997
 20
1.88364
 30
-0.0266159
  0
VERTEX
  5
973F6
  8
0
 10
5.0554199999999989
 20
1.8815699999999991
 30
-0.0266159
  0
VERTEX
  5
973F7
  8
0
 10
5.082209999999999
 20
1.87982
 30
-0.0266159
  0
VERTEX
  5
973F8
  8
0
 10
5.109329999999999
 20
1.8783700000000001
 30
-0.0266159
  0
VERTEX
  5
973F9
  8
0
 10
5.1367199999999986
 20
1.87724
 30
-0.0266159
  0
VERTEX
  5
973FA
  8
0
 10
5.1643099999999986
 20
1.8764199999999991
 30
-0.0266159
  0
VERTEX
  5
973FB
  8
0
 10
5.192029999999999
 20
1.8759199999999989
 30
-0.0266159
  0
VERTEX
  5
973FC
  8
0
 10
5.2198199999999986
 20
1.87575
 30
-0.0266159
  0
VERTEX
  5
973FD
  8
0
 10
5.247609999999999
 20
1.8758900000000001
 30
-0.0266159
  0
VERTEX
  5
973FE
  8
0
 10
5.2753300000000003
 20
1.87635
 30
-0.0266159
  0
VERTEX
  5
973FF
  8
0
 10
5.3029199999999994
 20
1.87714
 30
-0.0266159
  0
VERTEX
  5
97400
  8
0
 10
5.330309999999999
 20
1.878229999999999
 30
-0.0266159
  0
VERTEX
  5
97401
  8
0
 10
5.3574400000000004
 20
1.8796499999999989
 30
-0.0266159
  0
VERTEX
  5
97402
  8
0
 10
5.3842299999999996
 20
1.88137
 30
-0.0266159
  0
VERTEX
  5
97403
  8
0
 10
5.4106300000000003
 20
1.8834099999999989
 30
-0.0266159
  0
VERTEX
  5
97404
  8
0
 10
5.4365600000000001
 20
1.88574
 30
-0.0266159
  0
VERTEX
  5
97405
  8
0
 10
5.4619799999999996
 20
1.8883700000000001
 30
-0.0266159
  0
VERTEX
  5
97406
  8
0
 10
5.4868100000000002
 20
1.8912899999999999
 30
-0.0266159
  0
VERTEX
  5
97407
  8
0
 10
5.5110000000000001
 20
1.89449
 30
-0.0266159
  0
VERTEX
  5
97408
  8
0
 10
5.5344800000000003
 20
1.8979699999999999
 30
-0.0266159
  0
VERTEX
  5
97409
  8
0
 10
5.5572099999999987
 20
1.9017200000000001
 30
-0.0266159
  0
VERTEX
  5
9740A
  8
0
 10
5.5791300000000001
 20
1.9057200000000001
 30
-0.0266159
  0
VERTEX
  5
9740B
  8
0
 10
5.600179999999999
 20
1.9099699999999999
 30
-0.0266159
  0
VERTEX
  5
9740C
  8
0
 10
5.6203199999999987
 20
1.9144599999999989
 30
-0.0266159
  0
VERTEX
  5
9740D
  8
0
 10
5.6394900000000003
 20
1.919179999999999
 30
-0.0266159
  0
VERTEX
  5
9740E
  8
0
 10
5.6576500000000003
 20
1.9241099999999991
 30
-0.0266159
  0
VERTEX
  5
9740F
  8
0
 10
5.6747500000000004
 20
1.929249999999999
 30
-0.0266159
  0
VERTEX
  5
97410
  8
0
 10
5.69076
 20
1.93458
 30
-0.0266159
  0
VERTEX
  5
97411
  8
0
 10
5.7056399999999989
 20
1.9400900000000001
 30
-0.0266159
  0
VERTEX
  5
97412
  8
0
 10
5.719339999999999
 20
1.945759999999999
 30
-0.0266159
  0
VERTEX
  5
97413
  8
0
 10
5.7318499999999988
 20
1.951579999999999
 30
-0.0266159
  0
VERTEX
  5
97414
  8
0
 10
5.7431099999999988
 20
1.957549999999999
 30
-0.0266159
  0
VERTEX
  5
97415
  8
0
 10
5.75312
 20
1.96363
 30
-0.0266159
  0
VERTEX
  5
97416
  8
0
 10
5.761849999999999
 20
1.9698299999999991
 30
-0.0266159
  0
VERTEX
  5
97417
  8
0
 10
5.7692600000000001
 20
1.9761099999999989
 30
-0.0266159
  0
VERTEX
  5
97418
  8
0
 10
5.77536
 20
1.9824799999999989
 30
-0.0266159
  0
VERTEX
  5
97419
  8
0
 10
5.7801099999999987
 20
1.9889099999999991
 30
-0.0266159
  0
VERTEX
  5
9741A
  8
0
 10
5.7835199999999993
 20
1.99539
 30
-0.0266159
  0
VERTEX
  5
9741B
  8
0
 10
5.785569999999999
 20
2.0019
 30
-0.0266159
  0
VERTEX
  5
9741C
  8
0
 10
5.7862599999999986
 20
2.0084299999999988
 30
-0.0266159
  0
VERTEX
  5
9741D
  8
0
 10
5.7855800000000004
 20
2.014959999999999
 30
-0.0266159
  0
VERTEX
  5
9741E
  8
0
 10
5.7835400000000003
 20
2.021469999999999
 30
-0.0266159
  0
VERTEX
  5
9741F
  8
0
 10
5.7801400000000003
 20
2.0279500000000001
 30
-0.0266159
  0
VERTEX
  5
97420
  8
0
 10
5.7753899999999989
 20
2.0343900000000001
 30
-0.0266159
  0
VERTEX
  5
97421
  8
0
 10
5.7693000000000003
 20
2.0407599999999988
 30
-0.0266159
  0
VERTEX
  5
97422
  8
0
 10
5.7618900000000002
 20
2.0470599999999992
 30
-0.0266159
  0
VERTEX
  5
97423
  8
0
 10
5.7531800000000004
 20
2.053259999999999
 30
-0.0266159
  0
VERTEX
  5
97424
  8
0
 10
5.7431799999999997
 20
2.059359999999999
 30
-0.0266159
  0
VERTEX
  5
97425
  8
0
 10
5.7319199999999988
 20
2.0653399999999991
 30
-0.0266159
  0
VERTEX
  5
97426
  8
0
 10
5.7194199999999986
 20
2.07118
 30
-0.0266159
  0
VERTEX
  5
97427
  8
0
 10
5.7057199999999986
 20
2.0768699999999991
 30
-0.0266159
  0
VERTEX
  5
97428
  8
0
 10
5.6908500000000002
 20
2.0823900000000002
 30
-0.0266159
  0
VERTEX
  5
97429
  8
0
 10
5.6748500000000002
 20
2.0877400000000002
 30
-0.0266159
  0
VERTEX
  5
9742A
  8
0
 10
5.6577500000000001
 20
2.0929000000000002
 30
-0.0266159
  0
VERTEX
  5
9742B
  8
0
 10
5.6395999999999988
 20
2.0978500000000002
 30
-0.0266159
  0
VERTEX
  5
9742C
  8
0
 10
5.6204299999999998
 20
2.1025900000000002
 30
-0.0266159
  0
VERTEX
  5
9742D
  8
0
 10
5.6002999999999989
 20
2.10711
 30
-0.0266159
  0
VERTEX
  5
9742E
  8
0
 10
5.5792599999999988
 20
2.1113900000000001
 30
-0.0266159
  0
VERTEX
  5
9742F
  8
0
 10
5.5573499999999987
 20
2.115419999999999
 30
-0.0266159
  0
VERTEX
  5
97430
  8
0
 10
5.5346199999999994
 20
2.1191900000000001
 30
-0.0266159
  0
VERTEX
  5
97431
  8
0
 10
5.5111400000000001
 20
2.1227
 30
-0.0266159
  0
VERTEX
  5
97432
  8
0
 10
5.4869500000000002
 20
2.125929999999999
 30
-0.0266159
  0
VERTEX
  5
97433
  8
0
 10
5.4621199999999988
 20
2.1288800000000001
 30
-0.0266159
  0
VERTEX
  5
97434
  8
0
 10
5.4367099999999988
 20
2.1315400000000002
 30
-0.0266159
  0
VERTEX
  5
97435
  8
0
 10
5.410779999999999
 20
2.1339099999999989
 30
-0.0266159
  0
VERTEX
  5
97436
  8
0
 10
5.3843800000000002
 20
2.135969999999999
 30
-0.0266159
  0
VERTEX
  5
97437
  8
0
 10
5.3575900000000001
 20
2.137729999999999
 30
-0.0266159
  0
VERTEX
  5
97438
  8
0
 10
5.33047
 20
2.1391800000000001
 30
-0.0266159
  0
VERTEX
  5
97439
  8
0
 10
5.3030900000000001
 20
2.140309999999999
 30
-0.0266159
  0
VERTEX
  5
9743A
  8
0
 10
5.2755000000000001
 20
2.1411299999999991
 30
-0.0266159
  0
VERTEX
  5
9743B
  8
0
 10
5.24777
 20
2.1416300000000001
 30
-0.0266159
  0
VERTEX
  5
9743C
  8
0
 10
5.2199799999999996
 20
2.141799999999999
 30
-0.0266159
  0
VERTEX
  5
9743D
  8
0
 10
5.1921900000000001
 20
2.141659999999999
 30
-0.0266159
  0
VERTEX
  5
9743E
  8
0
 10
5.1644699999999988
 20
2.1411999999999991
 30
-0.0266159
  0
VERTEX
  5
9743F
  8
0
 10
5.1368799999999997
 20
2.1404099999999988
 30
-0.0266159
  0
VERTEX
  5
97440
  8
0
 10
5.1094900000000001
 20
2.13931
 30
-0.0266159
  0
VERTEX
  5
97441
  8
0
 10
5.0823700000000001
 20
2.1379000000000001
 30
-0.0266159
  0
VERTEX
  5
97442
  8
0
 10
5.0555799999999991
 20
2.136169999999999
 30
-0.0266159
  0
VERTEX
  5
97443
  8
0
 10
5.0291800000000002
 20
2.134139999999999
 30
-0.0266159
  0
VERTEX
  5
97444
  8
0
 10
5.003239999999999
 20
2.1318099999999989
 30
-0.0266159
  0
VERTEX
  5
97445
  8
0
 10
4.9778299999999991
 20
2.129179999999999
 30
-0.0266159
  0
VERTEX
  5
97446
  8
0
 10
4.9530000000000003
 20
2.1262599999999989
 30
-0.0266159
  0
VERTEX
  5
97447
  8
0
 10
4.9288099999999986
 20
2.1230500000000001
 30
-0.0266159
  0
VERTEX
  5
97448
  8
0
 10
4.9053199999999988
 20
2.11958
 30
-0.0266159
  0
VERTEX
  5
97449
  8
0
 10
4.8825900000000004
 20
2.115829999999999
 30
-0.0266159
  0
VERTEX
  5
9744A
  8
0
 10
4.8606800000000003
 20
2.111829999999999
 30
-0.0266159
  0
VERTEX
  5
9744B
  8
0
 10
4.83962
 20
2.1075699999999991
 30
-0.0266159
  0
VERTEX
  5
9744C
  8
0
 10
4.8194900000000001
 20
2.103079999999999
 30
-0.0266159
  0
VERTEX
  5
9744D
  8
0
 10
4.8003200000000001
 20
2.0983700000000001
 30
-0.0266159
  0
VERTEX
  5
9744E
  8
0
 10
4.7821600000000002
 20
2.0934300000000001
 30
-0.0266159
  0
VERTEX
  5
9744F
  8
0
 10
4.7650499999999987
 20
2.0882999999999989
 30
-0.0266159
  0
VERTEX
  5
97450
  8
0
 10
4.749039999999999
 20
2.0829699999999991
 30
-0.0266159
  0
VERTEX
  5
97451
  8
0
 10
4.7341699999999989
 20
2.077459999999999
 30
-0.0266159
  0
VERTEX
  5
97452
  8
0
 10
4.7204600000000001
 20
2.07179
 30
-0.0266159
  0
VERTEX
  5
97453
  8
0
 10
4.707959999999999
 20
2.06596
 30
-0.0266159
  0
VERTEX
  5
97454
  8
0
 10
4.6966900000000003
 20
2.0600000000000001
 30
-0.0266159
  0
VERTEX
  5
97455
  8
0
 10
4.6866799999999991
 20
2.0539200000000002
 30
-0.0266159
  0
VERTEX
  5
97456
  8
0
 10
4.6779599999999988
 20
2.0477199999999991
 30
-0.0266159
  0
VERTEX
  5
97457
  8
0
 10
4.670539999999999
 20
2.0414300000000001
 30
-0.0266159
  0
VERTEX
  5
97458
  8
0
 10
4.6644500000000004
 20
2.0350700000000002
 30
-0.0266159
  0
VERTEX
  5
97459
  8
0
 10
4.6596900000000003
 20
2.0286400000000002
 30
-0.0266159
  0
VERTEX
  5
9745A
  8
0
 10
4.6562799999999998
 20
2.0221599999999991
 30
-0.0266159
  0
VERTEX
  5
9745B
  8
0
 10
4.6542399999999988
 20
2.0156499999999991
 30
-0.0266159
  0
VERTEX
  5
9745C
  8
0
 10
4.6535500000000001
 20
2.0091199999999998
 30
-0.0266159
  0
SEQEND
  5
9745D
  8
0
  0
POLYLINE
  5
971FB
  8
0
 66
     1
 10
0.0
 20
0.0
 30
-0.0266159
  0
VERTEX
  5
9745E
  8
0
 10
5.7862599999999986
 20
2.2247799999999991
 30
-0.0266159
  0
VERTEX
  5
9745F
  8
0
 10
5.7860899999999988
 20
2.2269700000000001
 30
-0.0266159
  0
VERTEX
  5
97460
  8
0
 10
5.785569999999999
 20
2.2291599999999989
 30
-0.0266159
  0
VERTEX
  5
97461
  8
0
 10
5.7847200000000001
 20
2.2313499999999991
 30
-0.0266159
  0
VERTEX
  5
97462
  8
0
 10
5.7835299999999998
 20
2.2335400000000001
 30
-0.0266159
  0
VERTEX
  5
97463
  8
0
 10
5.782
 20
2.2357099999999992
 30
-0.0266159
  0
VERTEX
  5
97464
  8
0
 10
5.7801299999999998
 20
2.2378900000000002
 30
-0.0266159
  0
VERTEX
  5
97465
  8
0
 10
5.7779199999999991
 20
2.2400500000000001
 30
-0.0266159
  0
VERTEX
  5
97466
  8
0
 10
5.7753699999999988
 20
2.24221
 30
-0.0266159
  0
VERTEX
  5
97467
  8
0
 10
5.7724999999999991
 20
2.244349999999999
 30
-0.0266159
  0
VERTEX
  5
97468
  8
0
 10
5.7692800000000002
 20
2.2464900000000001
 30
-0.0266159
  0
VERTEX
  5
97469
  8
0
 10
5.7657400000000001
 20
2.2486099999999989
 30
-0.0266159
  0
VERTEX
  5
9746A
  8
0
 10
5.76187
 20
2.2507099999999989
 30
-0.0266159
  0
VERTEX
  5
9746B
  8
0
 10
5.7576700000000001
 20
2.2528000000000001
 30
-0.0266159
  0
VERTEX
  5
9746C
  8
0
 10
5.7531499999999989
 20
2.2548799999999991
 30
-0.0266159
  0
VERTEX
  5
9746D
  8
0
 10
5.74831
 20
2.2569300000000001
 30
-0.0266159
  0
VERTEX
  5
9746E
  8
0
 10
5.7431499999999991
 20
2.2589700000000001
 30
-0.0266159
  0
VERTEX
  5
9746F
  8
0
 10
5.7376699999999987
 20
2.2609799999999991
 30
-0.0266159
  0
VERTEX
  5
97470
  8
0
 10
5.7318800000000003
 20
2.2629700000000001
 30
-0.0266159
  0
VERTEX
  5
97471
  8
0
 10
5.7257800000000003
 20
2.2649499999999989
 30
-0.0266159
  0
VERTEX
  5
97472
  8
0
 10
5.7193800000000001
 20
2.2668900000000001
 30
-0.0266159
  0
VERTEX
  5
97473
  8
0
 10
5.7126799999999998
 20
2.2688099999999989
 30
-0.0266159
  0
VERTEX
  5
97474
  8
0
 10
5.7056800000000001
 20
2.2707099999999989
 30
-0.0266159
  0
VERTEX
  5
97475
  8
0
 10
5.698389999999999
 20
2.2725699999999991
 30
-0.0266159
  0
VERTEX
  5
97476
  8
0
 10
5.690809999999999
 20
2.27441
 30
-0.0266159
  0
VERTEX
  5
97477
  8
0
 10
5.6829499999999991
 20
2.276219999999999
 30
-0.0266159
  0
VERTEX
  5
97478
  8
0
 10
5.6748000000000003
 20
2.278
 30
-0.0266159
  0
VERTEX
  5
97479
  8
0
 10
5.6663899999999989
 20
2.2797399999999999
 30
-0.0266159
  0
VERTEX
  5
9747A
  8
0
 10
5.6577000000000002
 20
2.2814499999999991
 30
-0.0266159
  0
VERTEX
  5
9747B
  8
0
 10
5.6487499999999988
 20
2.283129999999999
 30
-0.0266159
  0
VERTEX
  5
9747C
  8
0
 10
5.6395400000000002
 20
2.2847699999999991
 30
-0.0266159
  0
VERTEX
  5
9747D
  8
0
 10
5.6300800000000004
 20
2.286379999999999
 30
-0.0266159
  0
VERTEX
  5
9747E
  8
0
 10
5.620379999999999
 20
2.287949999999999
 30
-0.0266159
  0
VERTEX
  5
9747F
  8
0
 10
5.61043
 20
2.2894799999999988
 30
-0.0266159
  0
VERTEX
  5
97480
  8
0
 10
5.6002400000000003
 20
2.2909700000000002
 30
-0.0266159
  0
VERTEX
  5
97481
  8
0
 10
5.5898300000000001
 20
2.292419999999999
 30
-0.0266159
  0
VERTEX
  5
97482
  8
0
 10
5.5791899999999996
 20
2.2938399999999999
 30
-0.0266159
  0
VERTEX
  5
97483
  8
0
 10
5.5683400000000001
 20
2.2952099999999991
 30
-0.0266159
  0
VERTEX
  5
97484
  8
0
 10
5.5572800000000004
 20
2.2965299999999989
 30
-0.0266159
  0
VERTEX
  5
97485
  8
0
 10
5.546009999999999
 20
2.2978200000000002
 30
-0.0266159
  0
VERTEX
  5
97486
  8
0
 10
5.5345500000000003
 20
2.299059999999999
 30
-0.0266159
  0
VERTEX
  5
97487
  8
0
 10
5.522899999999999
 20
2.3002500000000001
 30
-0.0266159
  0
VERTEX
  5
97488
  8
0
 10
5.5110700000000001
 20
2.3014000000000001
 30
-0.0266159
  0
VERTEX
  5
97489
  8
0
 10
5.4990600000000001
 20
2.3025099999999989
 30
-0.0266159
  0
VERTEX
  5
9748A
  8
0
 10
5.4868800000000002
 20
2.3035600000000001
 30
-0.0266159
  0
VERTEX
  5
9748B
  8
0
 10
5.4745400000000002
 20
2.30457
 30
-0.0266159
  0
VERTEX
  5
9748C
  8
0
 10
5.4620499999999987
 20
2.3055400000000001
 30
-0.0266159
  0
VERTEX
  5
9748D
  8
0
 10
5.4494099999999994
 20
2.306449999999999
 30
-0.0266159
  0
VERTEX
  5
9748E
  8
0
 10
5.4366399999999997
 20
2.3073099999999989
 30
-0.0266159
  0
VERTEX
  5
9748F
  8
0
 10
5.4237299999999991
 20
2.3081299999999989
 30
-0.0266159
  0
VERTEX
  5
97490
  8
0
 10
5.4107000000000003
 20
2.3088899999999999
 30
-0.0266159
  0
VERTEX
  5
97491
  8
0
 10
5.3975599999999986
 20
2.3096000000000001
 30
-0.0266159
  0
VERTEX
  5
97492
  8
0
 10
5.3843100000000002
 20
2.3102599999999991
 30
-0.0266159
  0
VERTEX
  5
97493
  8
0
 10
5.3709600000000002
 20
2.31088
 30
-0.0266159
  0
VERTEX
  5
97494
  8
0
 10
5.3575200000000001
 20
2.3114300000000001
 30
-0.0266159
  0
VERTEX
  5
97495
  8
0
 10
5.3439899999999989
 20
2.3119399999999999
 30
-0.0266159
  0
VERTEX
  5
97496
  8
0
 10
5.3303900000000004
 20
2.3123900000000002
 30
-0.0266159
  0
VERTEX
  5
97497
  8
0
 10
5.3167299999999997
 20
2.3128000000000002
 30
-0.0266159
  0
VERTEX
  5
97498
  8
0
 10
5.302999999999999
 20
2.3131400000000002
 30
-0.0266159
  0
VERTEX
  5
97499
  8
0
 10
5.289229999999999
 20
2.3134399999999991
 30
-0.0266159
  0
VERTEX
  5
9749A
  8
0
 10
5.275409999999999
 20
2.3136799999999988
 30
-0.0266159
  0
VERTEX
  5
9749B
  8
0
 10
5.261569999999999
 20
2.3138700000000001
 30
-0.0266159
  0
VERTEX
  5
9749C
  8
0
 10
5.2476900000000004
 20
2.3140000000000001
 30
-0.0266159
  0
VERTEX
  5
9749D
  8
0
 10
5.2337999999999987
 20
2.3140800000000001
 30
-0.0266159
  0
VERTEX
  5
9749E
  8
0
 10
5.2198999999999991
 20
2.314109999999999
 30
-0.0266159
  0
VERTEX
  5
9749F
  8
0
 10
5.2060000000000004
 20
2.3140800000000001
 30
-0.0266159
  0
VERTEX
  5
974A0
  8
0
 10
5.1921099999999987
 20
2.3140000000000001
 30
-0.0266159
  0
VERTEX
  5
974A1
  8
0
 10
5.1782399999999988
 20
2.3138700000000001
 30
-0.0266159
  0
VERTEX
  5
974A2
  8
0
 10
5.16439
 20
2.3136799999999988
 30
-0.0266159
  0
VERTEX
  5
974A3
  8
0
 10
5.1505700000000001
 20
2.3134399999999991
 30
-0.0266159
  0
VERTEX
  5
974A4
  8
0
 10
5.1368
 20
2.3131400000000002
 30
-0.0266159
  0
VERTEX
  5
974A5
  8
0
 10
5.123079999999999
 20
2.3127900000000001
 30
-0.0266159
  0
VERTEX
  5
974A6
  8
0
 10
5.1094099999999987
 20
2.3123900000000002
 30
-0.0266159
  0
VERTEX
  5
974A7
  8
0
 10
5.0958100000000002
 20
2.3119399999999999
 30
-0.0266159
  0
VERTEX
  5
974A8
  8
0
 10
5.0822900000000004
 20
2.3114300000000001
 30
-0.0266159
  0
VERTEX
  5
974A9
  8
0
 10
5.0688500000000003
 20
2.3108699999999991
 30
-0.0266159
  0
VERTEX
  5
974AA
  8
0
 10
5.0555000000000003
 20
2.3102599999999991
 30
-0.0266159
  0
VERTEX
  5
974AB
  8
0
 10
5.0422500000000001
 20
2.3096000000000001
 30
-0.0266159
  0
VERTEX
  5
974AC
  8
0
 10
5.0290999999999988
 20
2.3088799999999989
 30
-0.0266159
  0
VERTEX
  5
974AD
  8
0
 10
5.01607
 20
2.3081200000000002
 30
-0.0266159
  0
VERTEX
  5
974AE
  8
0
 10
5.003169999999999
 20
2.3073099999999989
 30
-0.0266159
  0
VERTEX
  5
974AF
  8
0
 10
4.9903899999999997
 20
2.3064399999999998
 30
-0.0266159
  0
VERTEX
  5
974B0
  8
0
 10
4.9777599999999991
 20
2.3055300000000001
 30
-0.0266159
  0
VERTEX
  5
974B1
  8
0
 10
4.9652599999999989
 20
2.30457
 30
-0.0266159
  0
VERTEX
  5
974B2
  8
0
 10
4.9529300000000003
 20
2.3035600000000001
 30
-0.0266159
  0
VERTEX
  5
974B3
  8
0
 10
4.9407500000000004
 20
2.3025000000000002
 30
-0.0266159
  0
VERTEX
  5
974B4
  8
0
 10
4.9287400000000003
 20
2.30139
 30
-0.0266159
  0
VERTEX
  5
974B5
  8
0
 10
4.9169
 20
2.3002400000000001
 30
-0.0266159
  0
VERTEX
  5
974B6
  8
0
 10
4.9052499999999988
 20
2.2990499999999989
 30
-0.0266159
  0
VERTEX
  5
974B7
  8
0
 10
4.8937900000000001
 20
2.2978099999999988
 30
-0.0266159
  0
VERTEX
  5
974B8
  8
0
 10
4.88253
 20
2.2965200000000001
 30
-0.0266159
  0
VERTEX
  5
974B9
  8
0
 10
4.871459999999999
 20
2.295199999999999
 30
-0.0266159
  0
VERTEX
  5
974BA
  8
0
 10
4.8606099999999994
 20
2.2938299999999989
 30
-0.0266159
  0
VERTEX
  5
974BB
  8
0
 10
4.8499800000000004
 20
2.2924099999999989
 30
-0.0266159
  0
VERTEX
  5
974BC
  8
0
 10
4.8395599999999988
 20
2.2909599999999992
 30
-0.0266159
  0
VERTEX
  5
974BD
  8
0
 10
4.8293799999999996
 20
2.2894700000000001
 30
-0.0266159
  0
VERTEX
  5
974BE
  8
0
 10
4.8194299999999997
 20
2.2879399999999999
 30
-0.0266159
  0
VERTEX
  5
974BF
  8
0
 10
4.8097199999999987
 20
2.2863699999999998
 30
-0.0266159
  0
VERTEX
  5
974C0
  8
0
 10
4.8002599999999989
 20
2.284759999999999
 30
-0.0266159
  0
VERTEX
  5
974C1
  8
0
 10
4.7910500000000003
 20
2.2831199999999998
 30
-0.0266159
  0
VERTEX
  5
974C2
  8
0
 10
4.7821099999999994
 20
2.2814399999999999
 30
-0.0266159
  0
VERTEX
  5
974C3
  8
0
 10
4.7734199999999989
 20
2.2797299999999989
 30
-0.0266159
  0
VERTEX
  5
974C4
  8
0
 10
4.7649999999999988
 20
2.277979999999999
 30
-0.0266159
  0
VERTEX
  5
974C5
  8
0
 10
4.7568599999999988
 20
2.276209999999999
 30
-0.0266159
  0
VERTEX
  5
974C6
  8
0
 10
4.7489999999999988
 20
2.2743999999999991
 30
-0.0266159
  0
VERTEX
  5
974C7
  8
0
 10
4.7414199999999989
 20
2.272559999999999
 30
-0.0266159
  0
VERTEX
  5
974C8
  8
0
 10
4.734119999999999
 20
2.2706900000000001
 30
-0.0266159
  0
VERTEX
  5
974C9
  8
0
 10
4.7271299999999998
 20
2.2688000000000001
 30
-0.0266159
  0
VERTEX
  5
974CA
  8
0
 10
4.720419999999999
 20
2.26688
 30
-0.0266159
  0
VERTEX
  5
974CB
  8
0
 10
4.7140199999999988
 20
2.2649300000000001
 30
-0.0266159
  0
VERTEX
  5
974CC
  8
0
 10
4.7079300000000002
 20
2.2629599999999992
 30
-0.0266159
  0
VERTEX
  5
974CD
  8
0
 10
4.7021399999999991
 20
2.260969999999999
 30
-0.0266159
  0
VERTEX
  5
974CE
  8
0
 10
4.6966599999999987
 20
2.25895
 30
-0.0266159
  0
VERTEX
  5
974CF
  8
0
 10
4.6914999999999987
 20
2.25692
 30
-0.0266159
  0
VERTEX
  5
974D0
  8
0
 10
4.6866599999999989
 20
2.254859999999999
 30
-0.0266159
  0
VERTEX
  5
974D1
  8
0
 10
4.682129999999999
 20
2.2527900000000001
 30
-0.0266159
  0
VERTEX
  5
974D2
  8
0
 10
4.6779400000000004
 20
2.2507000000000001
 30
-0.0266159
  0
VERTEX
  5
974D3
  8
0
 10
4.674059999999999
 20
2.2485900000000001
 30
-0.0266159
  0
VERTEX
  5
974D4
  8
0
 10
4.6705199999999989
 20
2.2464699999999991
 30
-0.0266159
  0
VERTEX
  5
974D5
  8
0
 10
4.6673099999999987
 20
2.2443399999999998
 30
-0.0266159
  0
VERTEX
  5
974D6
  8
0
 10
4.6644300000000003
 20
2.2421899999999999
 30
-0.0266159
  0
VERTEX
  5
974D7
  8
0
 10
4.6618899999999996
 20
2.24004
 30
-0.0266159
  0
VERTEX
  5
974D8
  8
0
 10
4.6596799999999998
 20
2.23787
 30
-0.0266159
  0
VERTEX
  5
974D9
  8
0
 10
4.6578099999999987
 20
2.2357
 30
-0.0266159
  0
VERTEX
  5
974DA
  8
0
 10
4.6562799999999998
 20
2.2335199999999991
 30
-0.0266159
  0
VERTEX
  5
974DB
  8
0
 10
4.655079999999999
 20
2.2313299999999989
 30
-0.0266159
  0
VERTEX
  5
974DC
  8
0
 10
4.6542300000000001
 20
2.2291500000000002
 30
-0.0266159
  0
VERTEX
  5
974DD
  8
0
 10
4.653719999999999
 20
2.2269499999999991
 30
-0.0266159
  0
VERTEX
  5
974DE
  8
0
 10
4.6535500000000001
 20
2.224759999999999
 30
-0.0266159
  0
SEQEND
  5
974DF
  8
0
  0
POLYLINE
  5
9727B
  8
0
 66
     1
 10
0.0
 20
0.0
 30
-0.0434411631000555
 70
     1
  0
VERTEX
  5
974E0
  8
0
 10
8.1765694959365636
 20
0.3396222166224563
 30
-0.0434411631000555
 42
0.2441729553637669
  0
VERTEX
  5
974E1
  8
0
 10
8.0214611257963284
 20
0.2037453812719612
 30
-0.0434411631000555
  0
VERTEX
  5
974E2
  8
0
 10
8.0214549794875012
 20
0.1584686428617186
 30
-0.0434411631000555
  0
VERTEX
  5
974E3
  8
0
 10
7.9725209905098948
 20
0.1584686259948182
 30
-0.0434411631000555
 42
0.4114105405838492
  0
VERTEX
  5
974E4
  8
0
 10
7.9522585775892862
 20
0.138595602395787
 30
-0.0434411631000555
  0
VERTEX
  5
974E5
  8
0
 10
7.9522585775892862
 20
0.0
 30
-0.0434411631000555
  0
VERTEX
  5
974E6
  8
0
 10
10.397202789080451
 20
0.0
 30
-0.0434411631000555
  0
VERTEX
  5
974E7
  8
0
 10
10.39720278908044
 20
0.1385956023957896
 30
-0.0434411631000555
 42
0.4114105405839145
  0
VERTEX
  5
974E8
  8
0
 10
10.37694037615984
 20
0.1584686259948214
 30
-0.0434411631000555
  0
VERTEX
  5
974E9
  8
0
 10
10.32800638718223
 20
0.1584686428617186
 30
-0.0434411631000555
  0
VERTEX
  5
974EA
  8
0
 10
10.328000240873401
 20
0.2037453812719672
 30
-0.0434411631000555
 42
0.2441729553637651
  0
VERTEX
  5
974EB
  8
0
 10
10.172891870733171
 20
0.3396222166224589
 30
-0.0434411631000555
  0
VERTEX
  5
974EC
  8
0
 10
10.10385244996653
 20
0.3396222166224589
 30
-0.0434411631000555
  0
VERTEX
  5
974ED
  8
0
 10
8.2456089167032136
 20
0.3396222166224589
 30
-0.0434411631000555
  0
SEQEND
  5
974EE
  8
0
  0
POLYLINE
  5
9727C
  8
0
 66
     1
 10
0.0
 20
0.0
 30
-0.0423160670904104
  0
VERTEX
  5
974EF
  8
0
 10
8.5802618215263493
 20
1.9315921910944791
 30
-0.0423160670904104
 42
-0.1297609527671262
  0
VERTEX
  5
974F0
  8
0
 10
8.6498668072816969
 20
2.0049162614834191
 30
-0.0423160670904104
  0
VERTEX
  5
974F1
  8
0
 10
8.6856840130410458
 20
2.0046737828865711
 30
-0.0423160670904104
  0
VERTEX
  5
974F2
  8
0
 10
8.6979917246584382
 20
2.0280248630759781
 30
-0.0423160670904104
  0
VERTEX
  5
974F3
  8
0
 10
8.6979911849175355
 20
2.2044366106756521
 30
-0.0423160670904104
 42
-0.26120920097447
  0
VERTEX
  5
974F4
  8
0
 10
8.7227118576267593
 20
2.2427022160676842
 30
-0.0423160670904104
  0
VERTEX
  5
974F5
  8
0
 10
8.7321217003815672
 20
2.256453464707437
 30
-0.0423160670904104
  0
VERTEX
  5
974F6
  8
0
 10
8.7321155510459452
 20
2.2867317144721482
 30
-0.0423160670904104
  0
VERTEX
  5
974F7
  8
0
 10
8.7441886875600083
 20
2.2985670178716271
 30
-0.0423160670904104
  0
VERTEX
  5
974F8
  8
0
 10
8.7981239156660997
 20
2.2985670178716271
 30
-0.0423160670904104
  0
VERTEX
  5
974F9
  8
0
 10
8.7981177647421571
 20
2.333686743460047
 30
-0.0423160670904104
  0
VERTEX
  5
974FA
  8
0
 10
8.8101423261640281
 20
2.344463210159728
 30
-0.0423160670904104
  0
VERTEX
  5
974FB
  8
0
 10
9.5645122668505689
 20
2.344463210159728
 30
-0.0423160670904104
  0
VERTEX
  5
974FC
  8
0
 10
9.5765368282724488
 20
2.333686743460047
 30
-0.0423160670904104
  0
VERTEX
  5
974FD
  8
0
 10
9.5765306773485186
 20
2.2985670178716271
 30
-0.0423160670904104
  0
VERTEX
  5
974FE
  8
0
 10
9.6304659054545958
 20
2.2985670178716271
 30
-0.0423160670904104
  0
VERTEX
  5
974FF
  8
0
 10
9.6425390419686554
 20
2.2867317144721482
 30
-0.0423160670904104
  0
VERTEX
  5
97500
  8
0
 10
9.6425328926330423
 20
2.256453464707437
 30
-0.0423160670904104
  0
VERTEX
  5
97501
  8
0
 10
9.6519427353878307
 20
2.2427022160676922
 30
-0.0423160670904104
 42
-0.2612092009744705
  0
VERTEX
  5
97502
  8
0
 10
9.676663408097065
 20
2.2044366106756512
 30
-0.0423160670904104
  0
VERTEX
  5
97503
  8
0
 10
9.6766628683561606
 20
2.0280248630759781
 30
-0.0423160670904104
  0
VERTEX
  5
97504
  8
0
 10
9.6889705799735601
 20
2.0046737828865711
 30
-0.0423160670904104
  0
VERTEX
  5
97505
  8
0
 10
9.7247877857329055
 20
2.0049162614834182
 30
-0.0423160670904104
 42
-0.1297609527671273
  0
VERTEX
  5
97506
  8
0
 10
9.794392771488253
 20
1.931592191094484
 30
-0.0423160670904104
  0
SEQEND
  5
97507
  8
0
  0
POLYLINE
  5
9727D
  8
0
 66
     1
 10
0.0
 20
0.0
 30
2.9567225305335421
 70
     1
210
0.0000000000000017
220
1.0
230
0.0
  0
VERTEX
  5
97508
  8
0
 10
-7.5624427282870847
 20
-0.0426145673203095
 30
2.9567225305335421
  0
VERTEX
  5
97509
  8
0
 10
-10.78626424735568
 20
-0.0429290163921937
 30
2.9567225305335421
  0
SEQEND
  5
9750A
  8
0
  0
POLYLINE
  5
9727F
  8
ASHADE
 66
     1
 10
0.0
 20
0.0
 30
-0.0425410785730499
  0
VERTEX
  5
9750B
  8
ASHADE
 10
8.9869046300335214
 20
2.956722530533527
 30
-0.0425410785730499
  0
VERTEX
  5
9750C
  8
ASHADE
 10
8.9869249472236064
 20
3.5247002818337001
 30
-0.0425410785730499
  0
SEQEND
  5
9750D
  8
ASHADE
  0
POLYLINE
  5
97280
  8
0
 66
     1
 10
0.0
 20
0.0
 30
-0.0419944627059016
  0
VERTEX
  5
9750E
  8
0
 10
8.7417160075984341
 20
3.5247134004521272
 30
-0.0419944627059016
  0
VERTEX
  5
9750F
  8
0
 10
8.7417160075984341
 20
3.7242639990061042
 30
-0.0419944627059016
 42
-0.2748577328247527
  0
VERTEX
  5
97510
  8
0
 10
8.7634880858741191
 20
3.7403384478300401
 30
-0.0419944627059016
  0
VERTEX
  5
97511
  8
0
 10
9.5817193011126989
 20
3.7403384478300401
 30
-0.0419944627059016
 42
-0.2748577328247513
  0
VERTEX
  5
97512
  8
0
 10
9.6034913793883767
 20
3.7242639990061042
 30
-0.0419944627059016
  0
VERTEX
  5
97513
  8
0
 10
9.6034913793883767
 20
3.5246916718273802
 30
-0.0419944627059016
  0
SEQEND
  5
97514
  8
0
  0
POLYLINE
  5
97285
  8
0
 66
     1
 10
0.0
 20
0.0
 30
-0.0210376887794958
  0
VERTEX
  5
97515
  8
0
 10
6.5099115087927153
 20
0.158469437896076
 30
-0.0210376887794958
  0
VERTEX
  5
97516
  8
0
 10
3.917451792906216
 20
0.1584686428617186
 30
-0.0210376887794958
  0
VERTEX
  5
97517
  8
0
 10
3.8624519258857211
 20
0.1584686259948094
 30
-0.0210376887794958
 42
0.4085180996423875
  0
VERTEX
  5
97518
  8
0
 10
3.8396710562456682
 20
0.1385956023957782
 30
-0.0210376887794958
  0
VERTEX
  5
97519
  8
0
 10
3.839677963647762
 20
0.0
 30
-0.0210376887794958
  0
VERTEX
  5
9751A
  8
0
 10
6.5876853380511911
 20
0.0
 30
-0.0210376887794958
  0
VERTEX
  5
9751B
  8
0
 10
6.5876922454532769
 20
0.1385956023957834
 30
-0.0210376887794958
 42
0.4085180996423805
  0
VERTEX
  5
9751C
  8
0
 10
6.5649113758132174
 20
0.1584686259948089
 30
-0.0210376887794958
  0
VERTEX
  5
9751D
  8
0
 10
6.5099115087927153
 20
0.1584686428617186
 30
-0.0210376887794958
  0
VERTEX
  5
9751E
  8
0
 10
6.509911508792726
 20
0.2253011989117292
 30
-0.0210376887794958
 42
0.3255990459073745
  0
VERTEX
  5
9751F
  8
0
 10
6.3355699373939283
 20
0.3639406474300415
 30
-0.0210376887794958
  0
VERTEX
  5
97520
  8
0
 10
6.2601980225836193
 20
0.3636907473958804
 30
-0.0210376887794958
  0
SEQEND
  5
97521
  8
0
  0
POLYLINE
  5
97287
  8
0
 66
     1
 10
0.0
 20
0.0
 30
-0.0270175835726223
 70
     1
  0
VERTEX
  5
97522
  8
0
 10
5.968298926712122
 20
2.580813110280558
 30
-0.0270175835726223
  0
VERTEX
  5
97523
  8
0
 10
5.9493345970521991
 20
3.6087451316302142
 30
-0.0270175835726223
 42
0.3237706565812956
  0
VERTEX
  5
97524
  8
0
 10
5.872921712608199
 20
3.6974657639448951
 30
-0.0270175835726223
  0
VERTEX
  5
97525
  8
0
 10
4.5544415890907457
 20
3.697465763944896
 30
-0.0270175835726223
 42
0.3237706565812943
  0
VERTEX
  5
97526
  8
0
 10
4.4780287046467411
 20
3.608745131630211
 30
-0.0270175835726223
  0
VERTEX
  5
97527
  8
0
 10
4.4590643749868031
 20
2.580813110280558
 30
-0.0270175835726223
  0
SEQEND
  5
97528
  8
0
  0
POLYLINE
  5
97289
  8
0
 66
     1
 10
0.0
 20
0.0
 30
-0.0270175835726223
  0
VERTEX
  5
97529
  8
0
 10
4.5826228277679739
 20
3.697465763944888
 30
-0.0270175835726223
  0
VERTEX
  5
9752A
  8
0
 10
4.5826250015209622
 20
4.1216643671577202
 30
-0.0270175835726223
 42
-0.3103498755459462
  0
VERTEX
  5
9752B
  8
0
 10
4.6143729766021764
 20
4.1550344535892281
 30
-0.0270175835726223
  0
VERTEX
  5
9752C
  8
0
 10
5.807932657347175
 20
4.1550344535892272
 30
-0.0270175835726223
 42
-0.3103498755459429
  0
VERTEX
  5
9752D
  8
0
 10
5.8396806324283821
 20
4.1216643671577202
 30
-0.0270175835726223
  0
VERTEX
  5
9752E
  8
0
 10
5.8396828061813757
 20
3.6974657639448871
 30
-0.0270175835726223
  0
SEQEND
  5
9752F
  8
0
  0
POLYLINE
  5
9728E
  8
0
 66
     1
 10
0.0
 20
0.0
 30
0.0014467003941539
  0
VERTEX
  5
97530
  8
0
 10
0.7894574300091473
 20
3.5247555632465581
 30
0.0014467003941539
  0
VERTEX
  5
97531
  8
0
 10
0.7894574300091473
 20
3.7242639990061028
 30
0.0014467003941539
 42
-0.2748577328247578
  0
VERTEX
  5
97532
  8
0
 10
0.8112295082848318
 20
3.7403384478300401
 30
0.0014467003941539
  0
VERTEX
  5
97533
  8
0
 10
1.629460723523396
 20
3.7403384478300392
 30
0.0014467003941539
 42
-0.2748577328247587
  0
VERTEX
  5
97534
  8
0
 10
1.6512328017990781
 20
3.7242639990061042
 30
0.0014467003941539
  0
VERTEX
  5
97535
  8
0
 10
1.6512328017990781
 20
3.5247555632465559
 30
0.0014467003941539
  0
SEQEND
  5
97536
  8
0
  0
POLYLINE
  5
97293
  8
0
 66
     1
 10
0.0
 20
0.0
 30
3.5247555632465559
 70
     1
210
0.0000000000000003
220
1.0
230
0.0
  0
VERTEX
  5
97537
  8
0
 10
0.3898158493022148
 20
0.0008265957797459
 30
3.5247555632465559
  0
VERTEX
  5
97538
  8
0
 10
-2.83400566976638
 20
0.0005121467078618
 30
3.5247555632465559
  0
SEQEND
  5
97539
  8
0
  0
POLYLINE
  5
97294
  8
ASHADE
 66
     1
 10
0.0
 20
0.0
 30
0.0009000845270055
  0
VERTEX
  5
9753A
  8
ASHADE
 10
1.03464605244422
 20
2.956722530533527
 30
0.0009000845270055
  0
VERTEX
  5
9753B
  8
ASHADE
 10
1.034666369634319
 20
3.5247002818337001
 30
0.0009000845270055
  0
SEQEND
  5
9753C
  8
ASHADE
  0
POLYLINE
  5
97296
  8
0
 66
     1
 10
0.0
 20
0.0
 30
0.001125096009645
  0
VERTEX
  5
9753D
  8
0
 10
0.7334254354517498
 20
2.0046737828865711
 30
0.001125096009645
  0
VERTEX
  5
9753E
  8
0
 10
0.7457331470691389
 20
2.0280248630759781
 30
0.001125096009645
  0
VERTEX
  5
9753F
  8
0
 10
0.7457326073282343
 20
2.2044366106756521
 30
0.001125096009645
 42
-0.26120920097447
  0
VERTEX
  5
97540
  8
0
 10
0.7704532800374615
 20
2.2427022160676842
 30
0.001125096009645
  0
VERTEX
  5
97541
  8
0
 10
0.7798631227922677
 20
2.256453464707437
 30
0.001125096009645
  0
VERTEX
  5
97542
  8
0
 10
0.7798569734566601
 20
2.2867317144721482
 30
0.001125096009645
  0
VERTEX
  5
97543
  8
0
 10
0.791930109970707
 20
2.2985670178716271
 30
0.001125096009645
  0
VERTEX
  5
97544
  8
0
 10
0.8458653380767947
 20
2.2985670178716271
 30
0.001125096009645
  0
VERTEX
  5
97545
  8
0
 10
0.8458591871528682
 20
2.333686743460047
 30
0.001125096009645
  0
VERTEX
  5
97546
  8
0
 10
0.8578837485747284
 20
2.344463210159728
 30
0.001125096009645
  0
VERTEX
  5
97547
  8
0
 10
1.6122536892612791
 20
2.344463210159728
 30
0.001125096009645
  0
VERTEX
  5
97548
  8
0
 10
1.624278250683143
 20
2.333686743460047
 30
0.001125096009645
  0
VERTEX
  5
97549
  8
0
 10
1.624272099759215
 20
2.2985670178716271
 30
0.001125096009645
  0
VERTEX
  5
9754A
  8
0
 10
1.6782073278653
 20
2.2985670178716271
 30
0.001125096009645
  0
VERTEX
  5
9754B
  8
0
 10
1.690280464379359
 20
2.2867317144721482
 30
0.001125096009645
  0
VERTEX
  5
9754C
  8
0
 10
1.690274315043748
 20
2.256453464707437
 30
0.001125096009645
  0
VERTEX
  5
9754D
  8
0
 10
1.6996841577985431
 20
2.2427022160676922
 30
0.001125096009645
 42
-0.2612092009744705
  0
VERTEX
  5
9754E
  8
0
 10
1.7244048305077571
 20
2.2044366106756512
 30
0.001125096009645
  0
VERTEX
  5
9754F
  8
0
 10
1.7244042907668591
 20
2.0280248630759781
 30
0.001125096009645
  0
VERTEX
  5
97550
  8
0
 10
1.7367120023842471
 20
2.0046737828865711
 30
0.001125096009645
  0
SEQEND
  5
97551
  8
0
  0
POLYLINE
  5
97297
  8
0
 66
     1
 10
0.0
 20
0.0
 30
0.001125096009645
  0
VERTEX
  5
97552
  8
0
 10
0.6280032439370562
 20
1.9315921910944791
 30
0.001125096009645
 42
-0.1297609527671262
  0
VERTEX
  5
97553
  8
0
 10
0.6976082296924077
 20
2.004916261483412
 30
0.001125096009645
  0
VERTEX
  5
97554
  8
0
 10
1.772529208143603
 20
2.0049162614834182
 30
0.001125096009645
 42
-0.1297609527671273
  0
VERTEX
  5
97555
  8
0
 10
1.8421341938989491
 20
1.931592191094484
 30
0.001125096009645
  0
SEQEND
  5
97556
  8
0
  0
POLYLINE
  5
97298
  8
0
 66
     1
 10
0.0
 20
0.0
 30
0.0
 70
     1
  0
VERTEX
  5
97557
  8
0
 10
2.4449442114911419
 20
0.1385956023957896
 30
0.0
 42
0.4114105405839145
  0
VERTEX
  5
97558
  8
0
 10
2.424681798570532
 20
0.1584686259948182
 30
0.0
  0
VERTEX
  5
97559
  8
0
 10
0.0202624129205979
 20
0.1584686259948182
 30
0.0
 42
0.4114105405838492
  0
VERTEX
  5
9755A
  8
0
 10
0.0
 20
0.138595602395787
 30
0.0
  0
VERTEX
  5
9755B
  8
0
 10
0.0
 20
0.0
 30
0.0
  0
VERTEX
  5
9755C
  8
0
 10
2.444944211491169
 20
0.0
 30
0.0
  0
SEQEND
  5
9755D
  8
0
  0
POLYLINE
  5
97299
  8
0
 66
     1
 10
0.0
 20
0.0
 30
0.0
  0
VERTEX
  5
9755E
  8
0
 10
0.069196401898207
 20
0.1584686428617186
 30
0.0
  0
VERTEX
  5
9755F
  8
0
 10
0.0692025482070382
 20
0.2037453812719629
 30
0.0
 42
-0.2441729553637669
  0
VERTEX
  5
97560
  8
0
 10
0.2243109183472801
 20
0.3396222166224563
 30
0.0
  0
VERTEX
  5
97561
  8
0
 10
2.2206332931438708
 20
0.3396222166224621
 30
0.0
 42
-0.2441729553637651
  0
VERTEX
  5
97562
  8
0
 10
2.3757416632841202
 20
0.2037453812719612
 30
0.0
  0
VERTEX
  5
97563
  8
0
 10
2.3757478095929341
 20
0.1584686428617186
 30
0.0
  0
SEQEND
  5
97564
  8
0
  0
POLYLINE
  5
9729B
  8
ASHADE
 66
     1
 10
0.0
 20
0.0
 30
-0.0263660798185411
  0
VERTEX
  5
97565
  8
ASHADE
 10
4.653549587086224
 20
2.1316802166042068
 30
-0.0263660798185411
 42
-0.0050421038715712
  0
VERTEX
  5
97566
  8
ASHADE
 10
4.4073152682965269
 20
2.1475026412194089
 30
-0.0263660798185411
 42
-0.2520993119889609
  0
VERTEX
  5
97567
  8
ASHADE
 10
4.3267680825476971
 20
2.2159779159014512
 30
-0.0263660798185411
  0
VERTEX
  5
97568
  8
ASHADE
 10
4.3273796155934683
 20
2.410393329161916
 30
-0.0263660798185411
 42
0.3696649048085532
  0
VERTEX
  5
97569
  8
ASHADE
 10
4.3872738332336434
 20
2.3586209321205889
 30
-0.0263660798185411
 42
0.0295811237352734
  0
VERTEX
  5
9756A
  8
ASHADE
 10
5.2175490042336836
 20
2.325440689029123
 30
-0.0263660798185411
 42
0.0295811237352738
  0
VERTEX
  5
9756B
  8
ASHADE
 10
6.0478241752337416
 20
2.3586209321205911
 30
-0.0263660798185411
 42
0.472284295925974
  0
VERTEX
  5
9756C
  8
ASHADE
 10
6.0999836861054622
 20
2.4103933291619182
 30
-0.0263660798185411
  0
VERTEX
  5
9756D
  8
ASHADE
 10
6.100595219151228
 20
2.215977915901453
 30
-0.0263660798185411
 42
-0.2520993119889608
  0
VERTEX
  5
9756E
  8
ASHADE
 10
6.0200480334024071
 20
2.1475026412194049
 30
-0.0263660798185411
 42
-0.0047874536404809
  0
VERTEX
  5
9756F
  8
ASHADE
 10
5.7862568153922789
 20
2.1323602176541558
 30
-0.0263660798185411
  0
SEQEND
  5
97570
  8
ASHADE
  0
POLYLINE
  5
9729F
  8
ASHADE
 66
     1
 10
0.0
 20
0.0
 30
-0.0210376887794958
  0
VERTEX
  5
97571
  8
ASHADE
 10
3.917451792906216
 20
0.1584686428617186
 30
-0.0210376887794958
  0
VERTEX
  5
97572
  8
ASHADE
 10
3.9174517929062151
 20
0.2253011989117295
 30
-0.0210376887794958
 42
-0.3255990459073743
  0
VERTEX
  5
97573
  8
ASHADE
 10
4.0917933643050191
 20
0.3639406474300415
 30
-0.0210376887794958
  0
VERTEX
  5
97574
  8
ASHADE
 10
4.1671652791153191
 20
0.3636907473958804
 30
-0.0210376887794958
  0
SEQEND
  5
97575
  8
ASHADE
  0
POLYLINE
  5
972A7
  8
ASHADE
 66
     1
 10
0.0
 20
0.0
 30
-0.0270175835726223
  0
VERTEX
  5
97576
  8
ASHADE
 10
4.3273796155934559
 20
2.4103933291619111
 30
-0.0270175835726223
 42
-0.2798850860225413
  0
VERTEX
  5
97577
  8
ASHADE
 10
4.3873195926134967
 20
2.5579872756188151
 30
-0.0270175835726223
 42
0.008470963357937
  0
VERTEX
  5
97578
  8
ASHADE
 10
4.4590643749868031
 20
2.5808131102805349
 30
-0.0270175835726223
  0
SEQEND
  5
97579
  8
ASHADE
  0
POLYLINE
  5
972AE
  8
ASHADE
 66
     1
 10
0.0
 20
0.0
 30
-0.0270175835726223
  0
VERTEX
  5
9757A
  8
ASHADE
 10
5.96829892671213
 20
2.5808131102805381
 30
-0.0270175835726223
 42
0.008470963357937
  0
VERTEX
  5
9757B
  8
ASHADE
 10
6.0400437090854329
 20
2.5579872756188178
 30
-0.0270175835726223
 42
-0.2798850860225432
  0
VERTEX
  5
9757C
  8
ASHADE
 10
6.0999836861054586
 20
2.4103933291619102
 30
-0.0270175835726223
  0
SEQEND
  5
9757D
  8
ASHADE
  0
POLYLINE
  5
972B9
  8
ASHADE
 66
     1
 10
0.0
 20
0.0
 30
-0.0210376076555952
  0
VERTEX
  5
9757E
  8
ASHADE
 10
6.1639768831541399
 20
0.7236725504582263
 30
-0.0210376076555952
 42
0.0064324717497142
  0
VERTEX
  5
9757F
  8
ASHADE
 10
6.1834897309074908
 20
0.701900482255693
 30
-0.0210376076555952
 42
-0.2857333697194199
  0
VERTEX
  5
97580
  8
ASHADE
 10
6.235082213660978
 20
0.6389688529199981
 30
-0.0210376076555952
  0
VERTEX
  5
97581
  8
ASHADE
 10
6.2350821478875336
 20
0.4270039340598128
 30
-0.0210376076555952
 42
0.1543580159779774
  0
VERTEX
  5
97582
  8
ASHADE
 10
6.2602068569782183
 20
0.3636810565707532
 30
-0.0210376076555952
  0
SEQEND
  5
97583
  8
ASHADE
  0
POLYLINE
  5
972BD
  8
ASHADE
 66
     1
 10
0.0
 20
0.0
 30
-6.2036357223146412
210
-0.9893261533302631
220
-0.1457180920021424
230
0.0
  0
VERTEX
  5
97584
  8
ASHADE
 10
0.1822547699430039
 20
-0.0210376076555952
 30
-6.2036357223146412
  0
VERTEX
  5
97585
  8
ASHADE
 10
-1.2522184444939199
 20
-0.0211824982244962
 30
-6.2036357223146412
  0
SEQEND
  5
97586
  8
ASHADE
  0
POLYLINE
  5
972BE
  8
ASHADE
 66
     1
 10
0.0
 20
0.0
 30
-5.7862568153922993
210
-1.0
220
0.0
230
0.0
  0
VERTEX
  5
97587
  8
ASHADE
 10
-2.008427448648717
 20
-0.0266159428073698
 30
-5.7862568153922993
  0
VERTEX
  5
97588
  8
ASHADE
 10
-2.2247785006349381
 20
-0.026581675980091
 30
-5.7862568153922993
  0
SEQEND
  5
97589
  8
ASHADE
  0
POLYLINE
  5
972BF
  8
ASHADE
 66
     1
 10
0.0
 20
0.0
 30
-0.0266159428073698
  0
VERTEX
  5
9758A
  8
ASHADE
 10
4.653549587086208
 20
2.0091210056342792
 30
-0.0266159428073698
  0
VERTEX
  5
9758B
  8
ASHADE
 10
4.653549587086208
 20
2.2247625008365901
 30
-0.0266159428073698
  0
SEQEND
  5
9758C
  8
ASHADE
  0
POLYLINE
  5
972C0
  8
ASHADE
 66
     1
 10
0.0
 20
0.0
 30
-0.0210376076555952
  0
VERTEX
  5
9758D
  8
ASHADE
 10
4.1671564447207121
 20
0.3636810565707531
 30
-0.0210376076555952
 42
0.1543580159779772
  0
VERTEX
  5
9758E
  8
ASHADE
 10
4.1922811538113924
 20
0.42700393405981
 30
-0.0210376076555952
  0
VERTEX
  5
9758F
  8
ASHADE
 10
4.192281088037956
 20
0.6389688529200011
 30
-0.0210376076555952
 42
-0.28573336971942
  0
VERTEX
  5
97590
  8
ASHADE
 10
4.2438735707914299
 20
0.7019004822556894
 30
-0.0210376076555952
 42
0.006432471749715
  0
VERTEX
  5
97591
  8
ASHADE
 10
4.2633864185447949
 20
0.7236725504582261
 30
-0.0210376076555952
  0
SEQEND
  5
97592
  8
ASHADE
  0
POLYLINE
  5
972C4
  8
ASHADE
 66
     1
 10
0.0
 20
0.0
 30
-4.1124275023323271
210
-0.9893261533302631
220
0.1457180920021424
230
0.0
  0
VERTEX
  5
97593
  8
ASHADE
 10
-1.3372007149937259
 20
-0.0210376076555952
 30
-4.1124275023323271
  0
VERTEX
  5
97594
  8
ASHADE
 10
-2.7716739294306501
 20
-0.0211824982244962
 30
-4.1124275023323271
  0
SEQEND
  5
97595
  8
ASHADE
  0
POLYLINE
  5
972C5
  8
ASHADE
 66
     1
 10
0.0
 20
0.0
 30
-0.0429290163921937
  0
VERTEX
  5
97596
  8
ASHADE
 10
10.786264247355691
 20
2.9567225305335252
 30
-0.0429290163921937
 42
0.2683702392242548
  0
VERTEX
  5
97597
  8
ASHADE
 10
10.810876432145109
 20
2.981334985193401
 30
-0.0429290163921937
  0
VERTEX
  5
97598
  8
ASHADE
 10
10.810876432145109
 20
3.5001431085866881
 30
-0.0429290163921937
 42
0.2683702392242508
  0
VERTEX
  5
97599
  8
ASHADE
 10
10.78626424735568
 20
3.5247555632465559
 30
-0.0429290163921937
  0
SEQEND
  5
9759A
  8
ASHADE
  0
POLYLINE
  5
972C8
  8
ASHADE
 66
     1
 10
0.0
 20
0.0
 30
-0.0434411631000555
  0
VERTEX
  5
9759B
  8
ASHADE
 10
10.10385244996653
 20
0.3396222166224514
 30
-0.0434411631000555
 42
-0.1951144251445686
  0
VERTEX
  5
9759C
  8
ASHADE
 10
10.08156933060561
 20
0.3749985890062071
 30
-0.0434411631000555
  0
VERTEX
  5
9759D
  8
ASHADE
 10
10.08156933060561
 20
0.6389794173516247
 30
-0.0434411631000555
 42
0.2721363403977294
  0
VERTEX
  5
9759E
  8
ASHADE
 10
10.0364092099624
 20
0.7019109792197007
 30
-0.0434411631000555
  0
VERTEX
  5
9759F
  8
ASHADE
 10
10.020240731726609
 20
0.7236831148898572
 30
-0.0434411631000555
  0
VERTEX
  5
975A0
  8
ASHADE
 10
10.020240731726609
 20
0.7815813230462201
 30
-0.0434411631000555
  0
VERTEX
  5
975A1
  8
ASHADE
 10
10.009889041110901
 20
0.7917341191423102
 30
-0.0434411631000555
  0
VERTEX
  5
975A2
  8
ASHADE
 10
9.9467960292477446
 20
0.7917341191423102
 30
-0.0434411631000555
  0
VERTEX
  5
975A3
  8
ASHADE
 10
8.4026653374219791
 20
0.7917341191423102
 30
-0.0434411631000555
  0
VERTEX
  5
975A4
  8
ASHADE
 10
8.4146902248106752
 20
0.8017534643022388
 30
-0.0434411631000555
  0
SEQEND
  5
975A5
  8
ASHADE
  0
POLYLINE
  5
972D5
  8
ASHADE
 66
     1
 10
0.0
 20
0.0
 30
-0.0423160670904104
  0
VERTEX
  5
975A6
  8
ASHADE
 10
8.8888764894090269
 20
2.344463210159728
 30
-0.0423160670904104
  0
VERTEX
  5
975A7
  8
ASHADE
 10
8.8973235489299576
 20
2.3643403127912981
 30
-0.0423160670904104
  0
VERTEX
  5
975A8
  8
ASHADE
 10
8.8973235489299576
 20
2.574297091919679
 30
-0.0423160670904104
  0
VERTEX
  5
975A9
  8
ASHADE
 10
9.4701872626488068
 20
2.574297091919679
 30
-0.0423160670904104
  0
VERTEX
  5
975AA
  8
ASHADE
 10
9.4958805484499234
 20
2.619573796596105
 30
-0.0423160670904104
  0
SEQEND
  5
975AB
  8
ASHADE
  0
POLYLINE
  5
972D6
  8
ASHADE
 66
     1
 10
0.0
 20
0.0
 30
-9.5030385839930727
210
-0.9999962292182996
220
-0.0027461881185014
230
0.0
  0
VERTEX
  5
975AC
  8
ASHADE
 10
-2.5934864444183079
 20
-0.0423160670904104
 30
-9.5030385839930727
  0
VERTEX
  5
975AD
  8
ASHADE
 10
-2.930636449674799
 20
-0.042779664313336
 30
-9.5030385839930727
  0
SEQEND
  5
975AE
  8
ASHADE
  0
POLYLINE
  5
972D8
  8
ASHADE
 66
     1
 10
0.0
 20
0.0
 30
-0.0423160670904104
  0
VERTEX
  5
975AF
  8
ASHADE
 10
9.4857781036055648
 20
2.344463210159728
 30
-0.0423160670904104
  0
VERTEX
  5
975B0
  8
ASHADE
 10
9.4701872626488068
 20
2.3643403127912981
 30
-0.0423160670904104
  0
VERTEX
  5
975B1
  8
ASHADE
 10
9.4701872626488068
 20
2.574297091919679
 30
-0.0423160670904104
  0
SEQEND
  5
975B2
  8
ASHADE
  0
POLYLINE
  5
972E7
  8
ASHADE
 66
     1
 10
0.0
 20
0.0
 30
-0.0423160670904104
  0
VERTEX
  5
975B3
  8
ASHADE
 10
8.8973235489299576
 20
2.574297091919679
 30
-0.0423160670904104
  0
VERTEX
  5
975B4
  8
ASHADE
 10
8.8716302631288375
 20
2.6195737965961192
 30
-0.0423160670904104
  0
VERTEX
  5
975B5
  8
ASHADE
 10
8.8725538146026466
 20
2.956722530533527
 30
-0.0423160670904104
  0
SEQEND
  5
975B6
  8
ASHADE
  0
POLYLINE
  5
972F3
  8
ASHADE
 66
     1
 10
0.0
 20
0.0
 30
-0.0423160670904104
  0
VERTEX
  5
975B7
  8
ASHADE
 10
8.6856840130410387
 20
2.0046737828865711
 30
-0.0423160670904104
  0
VERTEX
  5
975B8
  8
ASHADE
 10
9.6889705799735601
 20
2.0046737828865711
 30
-0.0423160670904104
  0
SEQEND
  5
975B9
  8
ASHADE
  0
POLYLINE
  5
972F5
  8
ASHADE
 66
     1
 10
0.0
 20
0.0
 30
-0.0426145673203095
  0
VERTEX
  5
975BA
  8
ASHADE
 10
7.5624427282870768
 20
3.5247555632465568
 30
-0.0426145673203095
 42
0.2683702392242782
  0
VERTEX
  5
975BB
  8
ASHADE
 10
7.537830543497674
 20
3.5001431085866872
 30
-0.0426145673203095
  0
VERTEX
  5
975BC
  8
ASHADE
 10
7.5378305434976722
 20
2.9813349851934001
 30
-0.0426145673203095
 42
0.2683702392242707
  0
VERTEX
  5
975BD
  8
ASHADE
 10
7.562442728287091
 20
2.9567225305335301
 30
-0.0426145673203095
  0
SEQEND
  5
975BE
  8
ASHADE
  0
POLYLINE
  5
972F9
  8
ASHADE
 66
     1
 10
0.0
 20
0.0
 30
-0.0434411631000555
  0
VERTEX
  5
975BF
  8
ASHADE
 10
8.4026653374219791
 20
0.7917341191423102
 30
-0.0434411631000555
  0
VERTEX
  5
975C0
  8
ASHADE
 10
8.3395723255588372
 20
0.7917341191423102
 30
-0.0434411631000555
  0
VERTEX
  5
975C1
  8
ASHADE
 10
8.3292206349431268
 20
0.7815813230462201
 30
-0.0434411631000555
  0
VERTEX
  5
975C2
  8
ASHADE
 10
8.3292206349431268
 20
0.7236831148898572
 30
-0.0434411631000555
  0
VERTEX
  5
975C3
  8
ASHADE
 10
8.3130521567073359
 20
0.7019109792197054
 30
-0.0434411631000555
 42
0.2721363403977213
  0
VERTEX
  5
975C4
  8
ASHADE
 10
8.2678920360641186
 20
0.6389794173516297
 30
-0.0434411631000555
  0
VERTEX
  5
975C5
  8
ASHADE
 10
8.2678920360641222
 20
0.3749985890062125
 30
-0.0434411631000555
 42
-0.1951144251445784
  0
VERTEX
  5
975C6
  8
ASHADE
 10
8.2456089167032172
 20
0.3396222166224581
 30
-0.0434411631000555
  0
SEQEND
  5
975C7
  8
ASHADE
  0
POLYLINE
  5
97306
  8
ASHADE
 66
     1
 10
0.0
 20
0.0
 30
-9.9578202197000891
210
-0.9923696491311643
220
-0.1232983352819092
230
0.0
  0
VERTEX
  5
975C8
  8
ASHADE
 10
0.4293049391386691
 20
-0.0434411631000555
 30
-9.9578202197000891
  0
VERTEX
  5
975C9
  8
ASHADE
 10
-0.7092211411192598
 20
-0.0423160670904104
 30
-9.9578202197000891
  0
SEQEND
  5
975CA
  8
ASHADE
  0
POLYLINE
  5
97307
  8
ASHADE
 66
     1
 10
0.0
 20
0.0
 30
-8.2095151509858528
210
-0.9894322691652137
220
0.144995809369017
230
0.0
  0
VERTEX
  5
975CB
  8
ASHADE
 10
-2.0133755692316142
 20
-0.0434411631000555
 30
-8.2095151509858528
  0
VERTEX
  5
975CC
  8
ASHADE
 10
-3.1552816521467069
 20
-0.0423160670904104
 30
-8.2095151509858528
  0
SEQEND
  5
975CD
  8
ASHADE
  0
POLYLINE
  5
97308
  8
ASHADE
 66
     1
 10
0.0
 20
0.0
 30
-0.0434411631000555
  0
VERTEX
  5
975CE
  8
ASHADE
 10
10.32800638718223
 20
0.1584686428617186
 30
-0.0434411631000555
  0
VERTEX
  5
975CF
  8
ASHADE
 10
8.0214550219926561
 20
0.158781756781158
 30
-0.0434411631000555
  0
SEQEND
  5
975D0
  8
ASHADE
  0
POLYLINE
  5
9730B
  8
ASHADE
 66
     1
 10
0.0
 20
0.0
 30
-0.0434411631000555
  0
VERTEX
  5
975D1
  8
ASHADE
 10
9.9467960292477446
 20
0.7917341191423102
 30
-0.0434411631000555
  0
VERTEX
  5
975D2
  8
ASHADE
 10
9.9347711418590876
 20
0.8017534643022388
 30
-0.0434411631000555
  0
SEQEND
  5
975D3
  8
ASHADE
  0
POLYLINE
  5
97314
  8
ASHADE
 66
     1
 10
0.0
 20
0.0
 30
0.0
  0
VERTEX
  5
975D4
  8
ASHADE
 10
1.9825125642698
 20
0.8017534643022388
 30
0.0
  0
VERTEX
  5
975D5
  8
ASHADE
 10
1.9945374516584591
 20
0.7917341191423102
 30
0.0
  0
VERTEX
  5
975D6
  8
ASHADE
 10
2.057630463521599
 20
0.7917341191423102
 30
0.0
  0
VERTEX
  5
975D7
  8
ASHADE
 10
2.067982154137308
 20
0.7815813230462201
 30
0.0
  0
VERTEX
  5
975D8
  8
ASHADE
 10
2.067982154137308
 20
0.7236831148898572
 30
0.0
  0
VERTEX
  5
975D9
  8
ASHADE
 10
2.0841506323731109
 20
0.7019109792197003
 30
0.0
 42
-0.2721363403977294
  0
VERTEX
  5
975DA
  8
ASHADE
 10
2.129310753016318
 20
0.6389794173516297
 30
0.0
  0
VERTEX
  5
975DB
  8
ASHADE
 10
2.1293107530163198
 20
0.3749985890062058
 30
0.0
 42
0.1951144251445686
  0
VERTEX
  5
975DC
  8
ASHADE
 10
2.1515938723772279
 20
0.3396222166224514
 30
0.0
  0
SEQEND
  5
975DD
  8
ASHADE
  0
POLYLINE
  5
97315
  8
ASHADE
 66
     1
 10
0.0
 20
0.0
 30
0.0
  0
VERTEX
  5
975DE
  8
ASHADE
 10
0.2933503391139268
 20
0.3396222166224581
 30
0.0
 42
0.1951144251445784
  0
VERTEX
  5
975DF
  8
ASHADE
 10
0.3156334584748173
 20
0.3749985890062071
 30
0.0
  0
VERTEX
  5
975E0
  8
ASHADE
 10
0.3156334584748192
 20
0.6389794173516293
 30
0.0
 42
-0.2721363403977213
  0
VERTEX
  5
975E1
  8
ASHADE
 10
0.3607935791180452
 20
0.7019109792197007
 30
0.0
  0
VERTEX
  5
975E2
  8
ASHADE
 10
0.3769620573538397
 20
0.7236831148898572
 30
0.0
  0
VERTEX
  5
975E3
  8
ASHADE
 10
0.3769620573538397
 20
0.7815813230462201
 30
0.0
  0
VERTEX
  5
975E4
  8
ASHADE
 10
0.3873137479695359
 20
0.7917341191423102
 30
0.0
  0
VERTEX
  5
975E5
  8
ASHADE
 10
0.4504067598326956
 20
0.7917341191423102
 30
0.0
  0
VERTEX
  5
975E6
  8
ASHADE
 10
0.4624316472213508
 20
0.8017534643022388
 30
0.0
  0
SEQEND
  5
975E7
  8
ASHADE
  0
POLYLINE
  5
97324
  8
ASHADE
 66
     1
 10
0.0
 20
0.0
 30
0.0
  0
VERTEX
  5
975E8
  8
ASHADE
 10
0.4504067598326956
 20
0.7917341191423102
 30
0.0
  0
VERTEX
  5
975E9
  8
ASHADE
 10
1.9945374516584591
 20
0.7917341191423102
 30
0.0
  0
SEQEND
  5
975EA
  8
ASHADE
  0
POLYLINE
  5
97325
  8
ASHADE
 66
     1
 10
0.0
 20
0.0
 30
-0.3412939015730976
210
-0.989432269165211
220
0.1449958093690338
230
0.0
  0
VERTEX
  5
975EB
  8
ASHADE
 10
-0.8603314004623484
 20
0.0
 30
-0.3412939015730976
  0
VERTEX
  5
975EC
  8
ASHADE
 10
-2.002237483377443
 20
0.001125096009645
 30
-0.3412939015730976
  0
SEQEND
  5
975ED
  8
ASHADE
  0
POLYLINE
  5
97330
  8
ASHADE
 66
     1
 10
0.0
 20
0.0
 30
-2.0662401652575171
210
-0.9923696491311638
220
-0.123298335281913
230
0.0
  0
VERTEX
  5
975EE
  8
ASHADE
 10
-0.5511953052093649
 20
0.0
 30
-2.0662401652575171
  0
VERTEX
  5
975EF
  8
ASHADE
 10
-1.6897213854672939
 20
0.001125096009645
 30
-2.0662401652575171
  0
SEQEND
  5
975F0
  8
ASHADE
  0
POLYLINE
  5
9733B
  8
ASHADE
 66
     1
 10
0.0
 20
0.0
 30
0.001125096009645
  0
VERTEX
  5
975F1
  8
ASHADE
 10
1.5179286850595191
 20
2.344463210159728
 30
0.001125096009645
  0
VERTEX
  5
975F2
  8
ASHADE
 10
1.5179286850595191
 20
2.574297091919679
 30
0.001125096009645
  0
VERTEX
  5
975F3
  8
ASHADE
 10
1.543621970860638
 20
2.619573796596105
 30
0.001125096009645
  0
SEQEND
  5
975F4
  8
ASHADE
  0
POLYLINE
  5
9733D
  8
ASHADE
 66
     1
 10
0.0
 20
0.0
 30
-1.550809992634945
210
-0.9999962292182996
220
-0.0027461881185159
230
0.0
  0
VERTEX
  5
975F5
  8
ASHADE
 10
-2.6153248424393118
 20
0.001125096009645
 30
-1.550809992634945
  0
VERTEX
  5
975F6
  8
ASHADE
 10
-2.9524748476958038
 20
0.0006614987867195
 30
-1.550809992634945
  0
SEQEND
  5
975F7
  8
ASHADE
  0
POLYLINE
  5
9733E
  8
ASHADE
 66
     1
 10
0.0
 20
0.0
 30
0.001125096009645
  0
VERTEX
  5
975F8
  8
ASHADE
 10
0.9450649713406555
 20
2.344463210159728
 30
0.001125096009645
  0
VERTEX
  5
975F9
  8
ASHADE
 10
0.945064971340656
 20
2.574297091919679
 30
0.001125096009645
  0
VERTEX
  5
975FA
  8
ASHADE
 10
0.9193716855395271
 20
2.6195737965961192
 30
0.001125096009645
  0
VERTEX
  5
975FB
  8
ASHADE
 10
0.9202952370133593
 20
2.956722530533527
 30
0.001125096009645
  0
SEQEND
  5
975FC
  8
ASHADE
  0
POLYLINE
  5
97341
  8
ASHADE
 66
     1
 10
0.0
 20
0.0
 30
0.001125096009645
  0
VERTEX
  5
975FD
  8
ASHADE
 10
0.945064971340656
 20
2.574297091919679
 30
0.001125096009645
  0
VERTEX
  5
975FE
  8
ASHADE
 10
1.5179286850595191
 20
2.574297091919679
 30
0.001125096009645
  0
SEQEND
  5
975FF
  8
ASHADE
  0
POLYLINE
  5
97342
  8
ASHADE
 66
     1
 10
0.0
 20
0.0
 30
0.0005121467078618
  0
VERTEX
  5
97600
  8
ASHADE
 10
2.8340056697663858
 20
2.9567225305335252
 30
0.0005121467078618
 42
0.2683702392242548
  0
VERTEX
  5
97601
  8
ASHADE
 10
2.8586178545558161
 20
2.981334985193401
 30
0.0005121467078618
  0
VERTEX
  5
97602
  8
ASHADE
 10
2.8586178545558081
 20
3.5001431085866881
 30
0.0005121467078618
 42
0.2683702392242508
  0
VERTEX
  5
97603
  8
ASHADE
 10
2.834005669766384
 20
3.5247555632465559
 30
0.0005121467078618
  0
SEQEND
  5
97604
  8
ASHADE
  0
POLYLINE
  5
97345
  8
ASHADE
 66
     1
 10
0.0
 20
0.0
 30
0.0008265957797459
  0
VERTEX
  5
97605
  8
ASHADE
 10
-0.3898158493022139
 20
3.5247555632465568
 30
0.0008265957797459
 42
0.2683702392242782
  0
VERTEX
  5
97606
  8
ASHADE
 10
-0.4144280340916425
 20
3.5001431085866872
 30
0.0008265957797459
  0
VERTEX
  5
97607
  8
ASHADE
 10
-0.4144280340916392
 20
2.9813349851934001
 30
0.0008265957797459
 42
0.2683702392242707
  0
VERTEX
  5
97608
  8
ASHADE
 10
-0.389815849302219
 20
2.9567225305335301
 30
0.0008265957797459
  0
SEQEND
  5
97609
  8
ASHADE
  0
LINE
  5
97348
  8
0
 10
-0.389815849302219
 20
2.9567225305335301
 30
0.0008265957797459
 11
2.8340056697663858
 21
2.9567225305335252
 31
0.0005121467078618
  0
LINE
  5
97349
  8
0
 10
7.5624427282870768
 20
3.5247555632465568
 30
-0.0426145673203095
 11
10.78626424735568
 21
3.5247555632465559
 31
-0.0429290163921937
  0
ENDSEC
  0
EOF
