  0
SECTION
  2
HEADER
  9
$ACADVER
  1
AC1009
  9
$INSBASE
 10
3926.7893795008499183
 20
125.7935738713181024
 30
0.0
  9
$EXTMIN
 10
3921.757560387823105
 20
125.7935738713181024
 30
0.0
  9
$EXTMAX
 10
3928.105360387822202
 20
132.2890766309197943
 30
0.0
  9
$LIMMIN
 10
0.0
 20
0.0
  9
$LIMMAX
 10
11.6929133858000007
 20
8.2677165353999982
  9
$ORTHOMODE
 70
     1
  9
$REGENMODE
 70
     1
  9
$FILLMODE
 70
     1
  9
$QTEXTMODE
 70
     0
  9
$MIRRTEXT
 70
     0
  9
$DRAGMODE
 70
     2
  9
$LTSCALE
 40
0.6431102362
  9
$OSMODE
 70
  4095
  9
$ATTMODE
 70
     1
  9
$TEXTSIZE
 40
0.2
  9
$TRACEWID
 40
0.05
  9
$TEXTSTYLE
  7
STANDARD
  9
$CLAYER
  8
0
  9
$CELTYPE
  6
BYLAYER
  9
$CECOLOR
 62
   256
  9
$DIMSCALE
 40
1.0
  9
$DIMASZ
 40
0.1875
  9
$DIMEXO
 40
0.0625
  9
$DIMDLI
 40
0.4443307087
  9
$DIMRND
 40
0.0
  9
$DIMDLE
 40
0.0
  9
$DIMEXE
 40
0.125
  9
$DIMTP
 40
0.01
  9
$DIMTM
 40
0.01
  9
$DIMTXT
 40
2.0
  9
$DIMCEN
 40
0.1052362205
  9
$DIMTSZ
 40
0.0
  9
$DIMTOL
 70
     1
  9
$DIMLIM
 70
     0
  9
$DIMTIH
 70
     1
  9
$DIMTOH
 70
     1
  9
$DIMSE1
 70
     0
  9
$DIMSE2
 70
     0
  9
$DIMTAD
 70
     0
  9
$DIMZIN
 70
     0
  9
$DIMBLK
  1

  9
$DIMASO
 70
     1
  9
$DIMSHO
 70
     1
  9
$DIMPOST
  1
\X
  9
$DIMAPOST
  1

  9
$DIMALT
 70
     1
  9
$DIMALTD
 70
     2
  9
$DIMALTF
 40
25.3999999999999986
  9
$DIMLFAC
 40
1.0
  9
$DIMTOFL
 70
     0
  9
$DIMTVP
 40
0.0
  9
$DIMTIX
 70
     0
  9
$DIMSOXD
 70
     0
  9
$DIMSAH
 70
     0
  9
$DIMBLK1
  1

  9
$DIMBLK2
  1

  9
$DIMSTYLE
  2
STANDARD
  9
$DIMCLRD
 70
     0
  9
$DIMCLRE
 70
     0
  9
$DIMCLRT
 70
     0
  9
$DIMTFAC
 40
1.0
  9
$DIMGAP
 40
0.09
  9
$LUNITS
 70
     2
  9
$LUPREC
 70
     4
  9
$SKETCHINC
 40
0.1
  9
$FILLETRAD
 40
0.0
  9
$AUNITS
 70
     0
  9
$AUPREC
 70
     0
  9
$MENU
  1
.
  9
$ELEVATION
 40
0.0
  9
$PELEVATION
 40
0.0
  9
$THICKNESS
 40
0.0
  9
$LIMCHECK
 70
     0
  9
$BLIPMODE
 70
     0
  9
$CHAMFERA
 40
0.0
  9
$CHAMFERB
 40
0.0
  9
$SKPOLY
 70
     0
  9
$TDCREATE
 40
2458060.468368056230247
  9
$TDUPDATE
 40
2458927.5836342601105571
  9
$TDINDWG
 40
0.3078311343
  9
$TDUSRTIMER
 40
0.3078311343
  9
$USRTIMER
 70
     1
  9
$ANGBASE
 50
0.0
  9
$ANGDIR
 70
     0
  9
$PDMODE
 70
     0
  9
$PDSIZE
 40
0.3125
  9
$PLINEWID
 40
0.0
  9
$COORDS
 70
     1
  9
$SPLFRAME
 70
     0
  9
$SPLINETYPE
 70
     6
  9
$SPLINESEGS
 70
     8
  9
$ATTDIA
 70
     1
  9
$ATTREQ
 70
     1
  9
$HANDLING
 70
     1
  9
$HANDSEED
  5
789D
  9
$SURFTAB1
 70
     6
  9
$SURFTAB2
 70
     6
  9
$SURFTYPE
 70
     6
  9
$SURFU
 70
     6
  9
$SURFV
 70
     6
  9
$UCSNAME
  2

  9
$UCSORG
 10
0.0
 20
0.0
 30
0.0
  9
$UCSXDIR
 10
1.0
 20
0.0
 30
0.0
  9
$UCSYDIR
 10
0.0
 20
1.0
 30
0.0
  9
$PUCSNAME
  2

  9
$PUCSORG
 10
0.0
 20
0.0
 30
0.0
  9
$PUCSXDIR
 10
1.0
 20
0.0
 30
0.0
  9
$PUCSYDIR
 10
0.0
 20
1.0
 30
0.0
  9
$USERI1
 70
     0
  9
$USERI2
 70
     0
  9
$USERI3
 70
     0
  9
$USERI4
 70
     0
  9
$USERI5
 70
     0
  9
$USERR1
 40
0.0
  9
$USERR2
 40
0.0
  9
$USERR3
 40
0.0
  9
$USERR4
 40
0.0
  9
$USERR5
 40
0.0
  9
$WORLDVIEW
 70
     1
  9
$SHADEDGE
 70
     3
  9
$SHADEDIF
 70
    70
  9
$TILEMODE
 70
     1
  9
$MAXACTVP
 70
    64
  9
$PLIMCHECK
 70
     0
  9
$PEXTMIN
 10
1.0000000000000000E+20
 20
1.0000000000000000E+20
 30
1.0000000000000000E+20
  9
$PEXTMAX
 10
-1.0000000000000000E+20
 20
-1.0000000000000000E+20
 30
-1.0000000000000000E+20
  9
$PLIMMIN
 10
0.0
 20
0.0
  9
$PLIMMAX
 10
12.0
 20
9.0
  9
$UNITMODE
 70
     0
  9
$VISRETAIN
 70
     1
  9
$PLINEGEN
 70
     0
  9
$PSLTSCALE
 70
     1
  0
ENDSEC
  0
SECTION
  2
TABLES
  0
TABLE
  2
VPORT
 70
     1
  0
VPORT
  2
*ACTIVE
 70
     0
 10
0.0
 20
0.0
 11
1.0
 21
1.0
 12
0.0
 22
0.0
 13
0.0
 23
0.0
 14
1.0
 24
1.0
 15
0.0
 25
0.0
 16
0.0
 26
0.0
 36
26.0193192496824004
 17
3924.9315185546879547
 27
129.0413246154784872
 37
0.0
 40
9.0839450649933173
 41
2.1481900452488678
 42
50.0
 43
0.0
 44
0.0
 50
0.0
 51
0.0
 71
     0
 72
   100
 73
     1
 74
     1
 75
     0
 76
     0
 77
     0
 78
     0
  0
ENDTAB
  0
TABLE
  2
LTYPE
 70
     2
  0
LTYPE
  2
CONTINUOUS
 70
     0
  3
Solid line
 72
    65
 73
     0
 40
0.0
  0
LTYPE
  2
PHANTOM2
 70
     0
  3
___ _ _ ___ _ _ ___ _ _ ___ _ _
 72
    65
 73
     6
 40
1.25
 49
0.625
 49
-0.125
 49
0.125
 49
-0.125
 49
0.125
 49
-0.125
  0
ENDTAB
  0
TABLE
  2
LAYER
 70
     2
  0
LAYER
  2
0
 70
     0
 62
   255
  6
CONTINUOUS
  0
LAYER
  2
DEFPOINTS
 70
     0
 62
     7
  6
CONTINUOUS
  0
ENDTAB
  0
TABLE
  2
STYLE
 70
     1
  0
STYLE
  2
STANDARD
 70
     0
 40
0.0
 41
0.8
 50
0.0
 71
     0
 42
0.2
  3
txt
  4

  0
ENDTAB
  0
TABLE
  2
VIEW
 70
     0
  0
ENDTAB
  0
TABLE
  2
UCS
 70
     0
  0
ENDTAB
  0
TABLE
  2
APPID
 70
    10
  0
APPID
  2
ACAD
 70
     0
  0
APPID
  2
ACAD_MLEADERVER
 70
     0
  0
APPID
  2
ACAD_EXEMPT_FROM_CAD_STANDARDS
 70
     0
  0
APPID
  2
ACAD_NAV_VCDISPLAY
 70
     0
  0
APPID
  2
ACAECLAYERSTANDARD
 70
     0
  0
APPID
  2
ACCMTRANSPARENCY
 70
     0
  0
APPID
  2
ACAD_DSTYLE_DIMJAG
 70
     0
  0
APPID
  2
ACAD_DSTYLE_DIMTALN
 70
     0
  0
APPID
  2
ACDBATTR
 70
     0
  0
APPID
  2
ACADANNOTATIVE
 70
     0
  0
ENDTAB
  0
TABLE
  2
DIMSTYLE
 70
     1
  0
DIMSTYLE
  2
STANDARD
 70
     0
  3

  4

  5

  6

  7

 40
1.0
 41
0.1875
 42
0.0625
 43
0.38
 44
0.125
 45
0.0
 46
0.0
 47
0.01
 48
0.01
140
0.15625
141
0.09
142
0.0
143
25.3999999999999986
144
1.0
145
0.0
146
1.0
147
0.09
 71
     1
 72
     0
 73
     1
 74
     1
 75
     0
 76
     0
 77
     0
 78
     4
170
     0
171
     2
172
     0
173
     0
174
     0
175
     0
176
     0
177
     0
178
     0
  0
ENDTAB
  0
ENDSEC
  0
SECTION
  2
BLOCKS
  0
BLOCK
  8
0
  2
$MODEL_SPACE
 70
     0
 10
0.0
 20
0.0
 30
0.0
  3
$MODEL_SPACE
  1

  0
ENDBLK
  5
21
  8
0
  0
BLOCK
 67
     1
  8
0
  2
$PAPER_SPACE
 70
     0
 10
0.0
 20
0.0
 30
0.0
  3
$PAPER_SPACE
  1

  0
ENDBLK
  5
1D
 67
     1
  8
0
  0
ENDSEC
  0
SECTION
  2
ENTITIES
  0
ATTDEF
  5
3930
  8
DEFPOINTS
 10
3926.7852639746997738
 20
125.804720184377004
 30
0.0
 40
0.001
  1
K-13490-4
  3

  2
MODELNUMBER
 70
     0
1001
ACDBATTR
1070
     0
1070
     1
  0
ATTDEF
  5
3931
  8
DEFPOINTS
 10
3926.7852639746997738
 20
125.8030535177102962
 30
0.0
 40
0.001
  1
KELSTON
  3

  2
TRADENAME
 70
     0
1001
ACDBATTR
1070
     0
1070
     1
  0
ATTDEF
  5
3932
  8
DEFPOINTS
 10
3926.7852639746997738
 20
125.8013868510436026
 30
0.0
 40
0.001
  1
BATHROOM SINK FAUCET
  3

  2
PRODUCT
 70
     0
1001
ACDBATTR
1070
     0
1070
     1
  0
LINE
  5
7749
  8
0
 10
3926.0354002519770802
 20
126.6690738713182043
 30
0.0
 11
3927.5433967801768631
 21
126.6690738713182043
 31
0.0
  0
LINE
  5
774A
  8
0
 10
3926.0957503977028864
 20
126.8235738713181036
 30
0.0
 11
3926.0277197649761547
 21
126.8235738713181036
 31
0.0
  0
LINE
  5
774B
  8
0
 10
3926.5062046226771599
 20
128.8652361578180887
 30
0.0
 11
3927.0725924095199844
 21
128.8652361579181047
 31
0.0
  0
LINE
  5
774C
  8
0
 10
3922.7036013035772157
 20
130.1971897459181093
 30
0.0
 11
3921.7660381495770707
 21
130.609049271318213
 31
0.0
  0
LINE
  5
774D
  8
0
 10
3926.4799772189771829
 20
129.5690738713180963
 30
0.0
 11
3926.5390229972249472
 21
129.5690738713180963
 31
0.0
  0
LINE
  5
774E
  8
0
 10
3926.4705515897771875
 20
129.5824201260180928
 30
0.0
 11
3926.4723157821767927
 21
129.5861284273181013
 31
0.0
  0
LINE
  5
774F
  8
0
 10
3927.1499436646768117
 20
130.2185738713181138
 30
0.0
 11
3927.3888535630771912
 21
130.2185738713181138
 31
0.0
  0
LINE
  5
7750
  8
0
 10
3925.9828468656869518
 20
126.7513623674632015
 30
0.0
 11
3925.9830722272768071
 21
126.7535259678181063
 31
0.0
  0
LINE
  5
7751
  8
0
 10
3926.0837729386771571
 20
126.983118950218099
 30
0.0
 11
3926.0844852045761399
 21
126.9894970378180972
 31
0.0
  0
LINE
  5
7752
  8
0
 10
3926.5006749920771654
 20
128.8779817477181098
 30
0.0
 11
3926.5062046226771599
 21
128.8652361578180887
 31
0.0
  0
LINE
  5
7753
  8
0
 10
3926.203882745277042
 20
126.6690738713182043
 30
0.0
 11
3926.1945981870771902
 21
126.6164185254180978
 31
0.0
  0
LINE
  5
7754
  8
0
 10
3925.9383641014760542
 20
126.6666745425180949
 30
0.0
 11
3925.9332350297768244
 21
126.6475325864180945
 31
0.0
  0
LINE
  5
7755
  8
0
 10
3927.1759620350771911
 20
130.9378967311180872
 30
0.0
 11
3927.3628351926308824
 21
130.9378967311180872
 31
0.0
  0
LINE
  5
7756
  8
0
 10
3927.2005009760769099
 20
130.2185738713181138
 30
0.0
 11
3927.2005009760769099
 21
129.7874417173181882
 31
0.0
  0
LINE
  5
7757
  8
0
 10
3927.3382962516770931
 20
130.2185738713181138
 30
0.0
 11
3927.3382962516770931
 21
129.4051808997180899
 31
0.0
  0
ARC
  5
7758
  8
0
 10
3921.8215135771770292
 20
130.822665925818086
 30
0.0
 40
0.0400159676
 50
121.2596994008941067
 51
204.7641567131009879
  0
ARC
  5
7759
  8
0
 10
3922.8272672608768517
 20
130.3837616066180942
 30
0.0
 40
0.040012435
 50
286.9715340402877928
 51
5.8859780890007114
  0
ARC
  5
775A
  8
0
 10
3921.7738958411669046
 20
130.6233707139427054
 30
0.0
 40
0.0163354533448301
 50
144.2003014215578958
 51
241.2479116699234112
  0
ARC
  5
775B
  8
0
 10
3922.708964648717938
 20
130.2124268664746012
 30
0.0
 40
0.0161534923146516
 50
250.6083373081119987
 51
349.3470457754725089
  0
ARC
  5
775C
  8
0
 10
3925.8121614516489899
 20
126.6814349252678937
 30
0.0
 40
0.1257305845856081
 50
282.2645624876554962
 51
344.3569913145108217
  0
ARC
  5
775D
  8
0
 10
3926.1260597352170407
 20
126.6280994408001987
 30
0.0
 40
0.0695267083030349
 50
269.6720632211328734
 51
350.3280867412880184
  0
ARC
  5
775E
  8
0
 10
3926.0059683737222258
 20
126.6485946469559991
 30
0.0
 40
0.0699801418219058
 50
90.0070572509248308
 51
165.0273747910291036
  0
ARC
  5
775F
  8
0
 10
3926.1143491174771043
 20
126.7397282106180967
 30
0.0
 40
0.132
 50
148.1364166365059987
 51
173.9999999999986073
  0
ARC
  5
7760
  8
0
 10
3927.5017822985651037
 20
127.1288231829396977
 30
0.0
 40
0.0396960138275858
 50
351.5725148235453048
 51
6.209305467275664
  0
ARC
  5
7761
  8
0
 10
3926.0815812544451546
 20
127.0848306086766968
 30
0.0
 40
0.0386145124538762
 50
158.5776579988659023
 51
183.9515582461199017
  0
ARC
  5
7762
  8
0
 10
3926.0309842266819942
 20
126.7877011246019947
 30
0.0
 40
0.0360209755281869
 50
95.1996636434794254
 51
142.9367561117049945
  0
ARC
  5
7763
  8
0
 10
3926.0127169893771679
 20
126.7485738713181007
 30
0.0
 40
0.03
 50
174.6666660581996098
 51
264.0808349229390046
  0
ARC
  5
7764
  8
0
 10
3926.065071170668034
 20
126.8536704968907003
 30
0.0
 40
0.0301001257827913
 50
168.5073032546677894
 51
269.1262146700673838
  0
ARC
  5
7765
  8
0
 10
3926.066938973825927
 20
126.8102002067900997
 30
0.0
 40
0.0299797460891404
 50
283.3676739965785032
 51
4.9066892767549204
  0
ARC
  5
7766
  8
0
 10
3926.789280902532937
 20
129.3236439285080053
 30
0.0
 40
0.4048323809108265
 50
145.7350588856695879
 51
218.8704490325335996
  0
ARC
  5
7767
  8
0
 10
3926.7893986138769833
 20
129.3930738713181086
 30
0.0
 40
0.371229826
 50
90.0000150945033681
 51
148.6650297080998087
  0
ARC
  5
7768
  8
0
 10
3926.7893986138769833
 20
129.3252835784182082
 30
0.0
 40
0.1719613322
 50
90.0000325859720789
 51
269.9999674140278785
  0
ARC
  5
7769
  8
0
 10
3927.1646020531147769
 20
130.9543573148716007
 30
0.0
 40
0.0200000002181003
 50
304.6108138741216749
 51
352.3679859856283088
  0
ARC
  5
776A
  8
0
 10
3927.1504343977130702
 20
130.2403107068855093
 30
0.0
 40
0.0217423742814229
 50
239.7318989490906915
 51
268.7067042774016841
  0
ARC
  5
776B
  8
0
 10
3926.4799751021719203
 20
129.5790738713587871
 30
0.0
 40
0.0100000002646981
 50
160.4502361954320122
 51
270.0121283971507182
  0
LINE
  5
776C
  8
0
 10
3925.4733986138771797
 20
125.7935738713181024
 30
0.0
 11
3928.105360387822202
 21
125.7935738713181024
 31
0.0
  0
LINE
  5
776D
  8
0
 10
3925.5506783112768971
 20
125.9318930618182009
 30
0.0
 11
3928.0281187206010145
 21
125.9318930618182009
 31
0.0
  0
LINE
  5
776E
  8
0
 10
3927.7399271301078443
 20
126.558573871318103
 30
0.0
 11
3925.8388699020451895
 21
126.558573871318103
 31
0.0
  0
ARC
  5
776F
  8
0
 10
3923.9712660344757751
 20
126.6677060908181005
 30
0.0
 40
1.770999999999999
 50
336.8988244230022815
 51
351.5629273836996163
  0
ARC
  5
7770
  8
0
 10
3925.7333944873771543
 20
126.524573871318097
 30
0.0
 40
0.07
 50
294.9011583506024863
 51
345.0994033122015026
  0
ARC
  5
7771
  8
0
 10
3925.7923420038068798
 20
126.3975888715263949
 30
0.0
 40
0.0699999995193833
 50
114.9011001366559981
 51
171.5629275919235965
  0
ARC
  5
7772
  8
0
 10
3925.5358686952022254
 20
126.0003085224666961
 30
0.0
 40
0.0699999999444262
 50
282.2141363956453119
 51
336.8988518442653231
  0
ARC
  5
7773
  8
0
 10
3925.7916993349358563
 20
125.783341636791107
 30
0.0
 40
0.3184651435402523
 50
160.2824548309017132
 51
178.1587788130786976
  0
ARC
  5
7774
  8
0
 10
3925.5672005445899231
 20
125.8457032237172939
 30
0.0
 40
0.0877591725995142
 50
100.8517168216610003
 51
149.0883158413068941
  0
ARC
  5
7775
  8
0
 10
3925.8714941365828963
 20
126.4950800583575017
 30
0.0
 40
0.0713849071128481
 50
117.1948937217167952
 51
170.7343699547629967
  0
ARC
  5
7776
  8
0
 10
3926.0989201584538932
 20
126.6909220025219014
 30
0.0
 40
0.0935277408137512
 50
105.5354098104778018
 51
170.4747633881420938
  0
ARC
  5
7777
  8
0
 10
3926.039367193623093
 20
126.7018367634768055
 30
0.0
 40
0.0330021776345338
 50
172.0536749207300886
 51
263.0962149970267774
  0
LINE
  5
7778
  8
0
 10
3926.005959754109881
 20
126.7185747882469968
 30
0.0
 11
3926.009573856105817
 21
126.7185747882469968
 31
0.0
  0
LINE
  5
7779
  8
0
 10
3926.0738702620760705
 20
126.7810327177182046
 30
0.0
 11
3927.5049267700760538
 21
126.7810327177182046
 31
0.0
  0
ARC
  5
777A
  8
0
 10
3917.6922104837190091
 20
130.2232408390941885
 30
0.0
 40
8.9185752634902453
 50
339.4934444483154721
 51
340.8405306440010918
  0
ARC
  5
777B
  8
0
 10
3925.3336528880581682
 20
126.9946541027024978
 30
0.0
 40
0.7147834197744976
 50
349.1143603145108045
 51
7.0327313639577902
  0
ARC
  5
777C
  8
0
 10
3929.8457912727571966
 20
127.1853212043626939
 30
0.0
 40
3.7674484332954079
 50
183.0765928839853132
 51
185.6751599228317957
  0
ARC
  5
777D
  8
0
 10
3925.0263283467497786
 20
127.2559481349397998
 30
0.0
 40
1.0911883993720579
 50
345.8663652983520933
 51
2.1128373698915208
  0
ARC
  5
777E
  8
0
 10
3930.9514945119321965
 20
127.555660087722103
 30
0.0
 40
4.841677886629645
 50
178.1100226596888092
 51
183.0721529786871997
  0
ARC
  5
777F
  8
0
 10
3927.1767068941421712
 20
127.6034770826145035
 30
0.0
 40
1.0701191802660051
 50
143.1305023944748029
 51
173.999714565860387
  0
LINE
  5
7780
  8
0
 10
3926.3206070669930341
 20
128.2455426134829111
 30
0.0
 11
3927.2581899651599997
 21
128.2455426134829111
 31
0.0
  0
ARC
  5
7781
  8
0
 10
3926.4909124933078601
 20
128.1995494651015122
 30
0.0
 40
0.1764066550058159
 50
161.8845309243947099
 51
164.8870749725342932
  0
ARC
  5
7782
  8
0
 10
3925.9001166313869362
 20
128.3570787543339122
 30
0.0
 40
0.4354133036185261
 50
346.3601084685595879
 51
5.2230874089664079
  0
ARC
  5
7783
  8
0
 10
3926.4289909991211971
 20
128.4031088819228046
 30
0.0
 40
0.0954832324687827
 50
137.8099990505438086
 51
183.8389254922788894
  0
ARC
  5
7784
  8
0
 10
3925.9502178934540098
 20
128.9435923061587062
 30
0.0
 40
0.62721855163184
 50
310.5819357759013997
 51
330.8039817392327109
  0
ARC
  5
7785
  8
0
 10
3926.1812757384727774
 20
128.7633460831478089
 30
0.0
 40
0.3405295392565709
 50
338.3360930493249725
 51
17.4102008544355087
  0
ARC
  5
7786
  8
0
 10
3926.6533760536722184
 20
128.9653566194457142
 30
0.0
 40
0.1759317550124553
 50
162.4929028080987052
 51
209.7779989208551967
  0
ARC
  5
7787
  8
0
 10
3926.4900773982581086
 20
129.5247448640016046
 30
0.0
 40
0.044391338769643
 50
93.0366375995888291
 51
142.8178002847276105
  0
ARC
  5
7788
  8
0
 10
3926.4280021212148313
 20
129.0323122519419883
 30
0.0
 40
0.05927597629618
 50
346.3076232016484255
 51
38.9637469346100431
  0
ARC
  5
7789
  8
0
 10
3926.7905716337450031
 20
129.3236881316059055
 30
0.0
 40
0.3514126887142195
 50
90.1912703162765155
 51
269.8087296837235272
  0
ARC
  5
778A
  8
0
 10
3926.7893986138769833
 20
129.3252835784182082
 30
0.0
 40
0.2612554567000172
 50
90.0000214484573462
 51
269.999978551542597
  0
ARC
  5
778B
  8
0
 10
3924.0837660344768665
 20
126.6677060908181005
 30
0.0
 40
1.770999999999999
 50
336.8988244230022815
 51
351.5629273836996163
  0
ARC
  5
778C
  8
0
 10
3925.8458944873768814
 20
126.524573871318097
 30
0.0
 40
0.07
 50
294.9011583506024863
 51
345.0994033122015026
  0
ARC
  5
778D
  8
0
 10
3925.9048420038070617
 20
126.3975888715263949
 30
0.0
 40
0.0699999995193833
 50
114.9011001366559981
 51
171.5629275919235965
  0
ARC
  5
778E
  8
0
 10
3925.6483686952019525
 20
126.0003085224666961
 30
0.0
 40
0.0699999999444262
 50
282.2141363956453119
 51
336.8988518442653231
  0
ARC
  5
778F
  8
0
 10
3925.9041993349360382
 20
125.783341636791107
 30
0.0
 40
0.3184651435402523
 50
160.2824548309017132
 51
178.1587788130786976
  0
ARC
  5
7790
  8
0
 10
3925.679700544590105
 20
125.8457032237172939
 30
0.0
 40
0.0877591725995142
 50
100.8517168216610003
 51
149.0883158413068941
  0
ARC
  5
7791
  8
0
 10
3925.9839941365830782
 20
126.4950800583575017
 30
0.0
 40
0.0713849071128481
 50
117.1948937217167952
 51
170.7343699547629967
  0
ARC
  5
7792
  8
0
 10
3926.4545506410881899
 20
126.9950106534663945
 30
0.0
 40
0.3709669618020795
 50
181.8419616947591919
 51
196.179102861374389
  0
ARC
  5
7793
  8
0
 10
3926.1464227995311376
 20
126.9048499525468969
 30
0.0
 40
0.0499253334739553
 50
195.3379543865426911
 51
253.0014427634829985
  0
ARC
  5
7794
  8
0
 10
3926.1480644452558408
 20
126.9412224827552933
 30
0.0
 40
0.0856695461918909
 50
259.0744734088232804
 51
288.2970017239507001
  0
ARC
  5
7795
  8
0
 10
3926.0789708757388325
 20
127.0655668160066938
 30
0.0
 40
0.2269784083020778
 50
295.0177387877344017
 51
338.7005347224193201
  0
ARC
  5
7796
  8
0
 10
3926.4942790503559991
 20
127.0874491508013051
 30
0.0
 40
0.2289827782099157
 50
207.1053130109658866
 51
259.5232056082106737
  0
ARC
  5
7797
  8
0
 10
3926.5242770504241889
 20
127.2149850780941023
 30
0.0
 40
0.3599025308239469
 50
258.5190751708811945
 51
300.9094817663198
  0
ARC
  5
7798
  8
0
 10
3926.5463808024878745
 20
127.1563356622944951
 30
0.0
 40
0.2984370185012515
 50
303.0530556098622128
 51
324.5183548166095875
  0
ARC
  5
7799
  8
0
 10
3912.5160172879977836
 20
127.755857657889095
 30
0.0
 40
13.7960856538243295
 50
356.7891010127004279
 51
359.8926470097997026
  0
ARC
  5
779A
  8
0
 10
3927.5797157773718027
 20
127.6512329133146011
 30
0.0
 40
1.2700819729527231
 50
152.0999755765184034
 51
176.4443196778757965
  0
LINE
  5
779B
  8
0
 10
3927.4830466344501474
 20
126.8235738713181036
 30
0.0
 11
3927.5510772671768791
 21
126.8235738713181036
 31
0.0
  0
LINE
  5
779C
  8
0
 10
3927.0988198131772151
 20
129.5690738713180963
 30
0.0
 11
3927.0397740349289961
 21
129.5690738713180963
 31
0.0
  0
LINE
  5
779D
  8
0
 10
3927.1082454423772106
 20
129.5824201260180928
 30
0.0
 11
3927.1064812499771506
 21
129.5861284273181013
 31
0.0
  0
LINE
  5
779E
  8
0
 10
3927.595950166466082
 20
126.7513623674632015
 30
0.0
 11
3927.5957248048771362
 21
126.7535259678181063
 31
0.0
  0
LINE
  5
779F
  8
0
 10
3927.4950240934767862
 20
126.983118950218099
 30
0.0
 11
3927.4943118275759844
 21
126.9894970378180972
 31
0.0
  0
LINE
  5
77A0
  8
0
 10
3927.0781220400767779
 20
128.8779817477181098
 30
0.0
 11
3927.0725924094767834
 21
128.8652361578180887
 31
0.0
  0
LINE
  5
77A1
  8
0
 10
3927.3749142868769013
 20
126.6690738713182043
 30
0.0
 11
3927.3841988450772078
 21
126.6164185254180978
 31
0.0
  0
LINE
  5
77A2
  8
0
 10
3927.6404329306760701
 20
126.6666745425180949
 30
0.0
 11
3927.6455620023771189
 21
126.6475325864180945
 31
0.0
  0
ARC
  5
77A3
  8
0
 10
3927.7666355805058629
 20
126.6814349252678937
 30
0.0
 40
0.1257305845856081
 50
195.6430086854890931
 51
257.7354375123445038
  0
ARC
  5
77A4
  8
0
 10
3927.4527372969359931
 20
126.6280994408001987
 30
0.0
 40
0.0695267083030349
 50
189.6719132587118963
 51
270.3279367788671266
  0
ARC
  5
77A5
  8
0
 10
3927.572828658430808
 20
126.6485946469559991
 30
0.0
 40
0.0699801418219058
 50
14.9726252089708396
 51
89.9929427490751692
  0
ARC
  5
77A6
  8
0
 10
3927.464447914676839
 20
126.7397282106180967
 30
0.0
 40
0.132
 50
6.0000000000014388
 51
31.8635833634940084
  0
ARC
  5
77A7
  8
0
 10
3927.5478128054710396
 20
126.7877011246019947
 30
0.0
 40
0.0360209755281869
 50
37.0632438882949771
 51
84.8003363565205888
  0
ARC
  5
77A8
  8
0
 10
3927.5660800427758659
 20
126.7485738713181007
 30
0.0
 40
0.03
 50
275.9191650770609954
 51
5.3333339418003467
  0
ARC
  5
77A9
  8
0
 10
3927.5137258614849998
 20
126.8536704968907003
 30
0.0
 40
0.0301001257827913
 50
270.8737853299326162
 51
11.4926967453321502
  0
ARC
  5
77AA
  8
0
 10
3927.5118580583271068
 20
126.8102002067900997
 30
0.0
 40
0.0299797460891404
 50
175.0933107232451107
 51
256.6323260034214968
  0
ARC
  5
77AB
  8
0
 10
3926.7895161296210063
 20
129.3236439285080053
 30
0.0
 40
0.4048323809108265
 50
321.1295509674664004
 51
34.2649411143303269
  0
ARC
  5
77AC
  8
0
 10
3926.7893984182760505
 20
129.3930738713181086
 30
0.0
 40
0.371229826
 50
31.3349702919001416
 51
89.9999849054966177
  0
ARC
  5
77AD
  8
0
 10
3926.7893984182760505
 20
129.3252835784182082
 30
0.0
 40
0.1719613322
 50
270.0000325859721215
 51
89.9999674140279069
  0
ARC
  5
77AE
  8
0
 10
3927.0988219299811135
 20
129.5790738713587871
 30
0.0
 40
0.0100000002646981
 50
269.9878716028492818
 51
19.5497638045679807
  0
ARC
  5
77AF
  8
0
 10
3929.607530997676804
 20
126.6677060908181005
 30
0.0
 40
1.770999999999999
 50
188.4370726163004122
 51
203.1011755769978038
  0
ARC
  5
77B0
  8
0
 10
3927.845402544776789
 20
126.524573871318097
 30
0.0
 40
0.07
 50
194.9005966877984974
 51
245.0988416493972011
  0
ARC
  5
77B1
  8
0
 10
3927.786455028346154
 20
126.3975888715263949
 30
0.0
 40
0.0699999995193833
 50
8.4370724080763697
 51
65.0988998633439309
  0
ARC
  5
77B2
  8
0
 10
3928.0429283369521727
 20
126.0003085224666961
 30
0.0
 40
0.0699999999444262
 50
203.1011481557345917
 51
257.7858636043546881
  0
ARC
  5
77B3
  8
0
 10
3927.7886050213328417
 20
125.7837525371049026
 30
0.0
 40
0.3169075903250076
 50
1.7759471009919561
 51
19.7395550156176505
  0
ARC
  5
77B4
  8
0
 10
3928.0115964875631107
 20
125.8457032237172939
 30
0.0
 40
0.0877591725995142
 50
30.9116841586938094
 51
79.1482831783390282
  0
ARC
  5
77B5
  8
0
 10
3927.7073028955701375
 20
126.4950800583575017
 30
0.0
 40
0.0713849071128481
 50
9.2656300452369518
 51
62.8051062782831409
  0
ARC
  5
77B6
  8
0
 10
3927.4798768736991406
 20
126.6909220025219014
 30
0.0
 40
0.0935277408137512
 50
9.5252366118578937
 51
74.464590189522184
  0
ARC
  5
77B7
  8
0
 10
3927.5394298385308502
 20
126.7018367634768055
 30
0.0
 40
0.0330021776345338
 50
276.9037850029732226
 51
7.9463250792698439
  0
LINE
  5
77B8
  8
0
 10
3927.5728372780440623
 20
126.7185747882469968
 30
0.0
 11
3927.5692231760481263
 21
126.7185747882469968
 31
0.0
  0
ARC
  5
77B9
  8
0
 10
3928.2451441440957751
 20
126.9946541027024978
 30
0.0
 40
0.7147834197744976
 50
172.9672686360422063
 51
190.8856396854891955
  0
ARC
  5
77BA
  8
0
 10
3923.7330057593958372
 20
127.1853212043626939
 30
0.0
 40
3.7674484332954079
 50
354.3248400771681759
 51
356.9234071160146868
  0
ARC
  5
77BB
  8
0
 10
3928.5524686854041647
 20
127.2559481349397998
 30
0.0
 40
1.0911883993720579
 50
177.8871626301084916
 51
194.1336347016471962
  0
ARC
  5
77BC
  8
0
 10
3922.6273025202222016
 20
127.555660087722103
 30
0.0
 40
4.841677886629645
 50
356.9278470213128003
 51
1.8899773403111879
  0
ARC
  5
77BD
  8
0
 10
3926.4020901380122268
 20
127.6034770826145035
 30
0.0
 40
1.0701191802660051
 50
6.0002854341396068
 51
36.8694976055251828
  0
ARC
  5
77BE
  8
0
 10
3927.0878845388451737
 20
128.1995494651015122
 30
0.0
 40
0.1764066550058159
 50
15.1129250274657192
 51
18.1154690756052901
  0
ARC
  5
77BF
  8
0
 10
3927.6786804007670071
 20
128.3570787543339122
 30
0.0
 40
0.4354133036185261
 50
174.7769125910336072
 51
193.6398915314404121
  0
ARC
  5
77C0
  8
0
 10
3927.1498060330318367
 20
128.4031088819228046
 30
0.0
 40
0.0954832324687827
 50
356.1610745077210254
 51
42.1900009494561274
  0
ARC
  5
77C1
  8
0
 10
3927.6285791386999335
 20
128.9435923061587062
 30
0.0
 40
0.62721855163184
 50
209.1960182607672891
 51
229.4180642240986003
  0
ARC
  5
77C2
  8
0
 10
3927.3975212936811658
 20
128.7633460831478089
 30
0.0
 40
0.3405295392565709
 50
162.5897991455645126
 51
201.6639069506749991
  0
ARC
  5
77C3
  8
0
 10
3926.9254209784808154
 20
128.9653566194457142
 30
0.0
 40
0.1759317550124553
 50
330.2220010791447748
 51
17.5070971919012415
  0
ARC
  5
77C4
  8
0
 10
3927.0887196338949252
 20
129.5247448640016046
 30
0.0
 40
0.044391338769643
 50
37.1821997152724322
 51
86.9633624004111851
  0
ARC
  5
77C5
  8
0
 10
3927.1507949109382025
 20
129.0323122519419883
 30
0.0
 40
0.05927597629618
 50
141.0362530653899
 51
193.6923767983516029
  0
ARC
  5
77C6
  8
0
 10
3926.7882253984089402
 20
129.3236881316059055
 30
0.0
 40
0.3514126887142195
 50
270.1912703162764728
 51
89.8087296837234845
  0
ARC
  5
77C7
  8
0
 10
3926.7893984182760505
 20
129.3252835784182082
 30
0.0
 40
0.2612554567000172
 50
270.0000214484572894
 51
89.9999785515426538
  0
ARC
  5
77C8
  8
0
 10
3929.4950309976770768
 20
126.6677060908181005
 30
0.0
 40
1.770999999999999
 50
188.4370726163004122
 51
203.1011755769978038
  0
ARC
  5
77C9
  8
0
 10
3927.7329025447770618
 20
126.524573871318097
 30
0.0
 40
0.07
 50
194.9005966877984974
 51
245.0988416493972011
  0
ARC
  5
77CA
  8
0
 10
3927.6739550283459721
 20
126.3975888715263949
 30
0.0
 40
0.0699999995193833
 50
8.4370724080763697
 51
65.0988998633439309
  0
ARC
  5
77CB
  8
0
 10
3927.9304283369519908
 20
126.0003085224666961
 30
0.0
 40
0.0699999999444262
 50
203.1011481557345917
 51
257.7858636043546881
  0
ARC
  5
77CC
  8
0
 10
3927.6745976972169956
 20
125.783341636791107
 30
0.0
 40
0.3184651435402523
 50
1.841221186921286
 51
19.7175451690990897
  0
ARC
  5
77CD
  8
0
 10
3927.8990964875629288
 20
125.8457032237172939
 30
0.0
 40
0.0877591725995142
 50
30.9116841586938094
 51
79.1482831783390282
  0
ARC
  5
77CE
  8
0
 10
3927.5948028955690461
 20
126.4950800583575017
 30
0.0
 40
0.0713849071128481
 50
9.2656300452369518
 51
62.8051062782831409
  0
ARC
  5
77CF
  8
0
 10
3927.1242463910662082
 20
126.9950106534663945
 30
0.0
 40
0.3709669618020795
 50
343.8208971386255257
 51
358.1580383052407797
  0
ARC
  5
77D0
  8
0
 10
3927.4323742326228057
 20
126.9048499525468969
 30
0.0
 40
0.0499253334739553
 50
286.9985572365170015
 51
344.6620456134572237
  0
ARC
  5
77D1
  8
0
 10
3927.430732586897193
 20
126.9412224827552933
 30
0.0
 40
0.0856695461918909
 50
251.7029982760492999
 51
280.9255265911767196
  0
ARC
  5
77D2
  8
0
 10
3927.499826156412837
 20
127.0655668160066938
 30
0.0
 40
0.2269784083020778
 50
201.2994652775807083
 51
244.9822612122655983
  0
ARC
  5
77D3
  8
0
 10
3927.0845179817970347
 20
127.0874491508013051
 30
0.0
 40
0.2289827782099157
 50
280.4767943917890989
 51
332.8946869890340281
  0
ARC
  5
77D4
  8
0
 10
3927.0545199817288449
 20
127.2149850780941023
 30
0.0
 40
0.3599025308239469
 50
239.0905182336802
 51
281.4809248291186918
  0
ARC
  5
77D5
  8
0
 10
3927.0324162296660688
 20
127.1563356622944951
 30
0.0
 40
0.2984370185012528
 50
215.481645183389702
 51
236.9469443901377872
  0
ARC
  5
77D6
  8
0
 10
3941.0627797441561597
 20
127.755857657889095
 30
0.0
 40
13.7960856538243295
 50
180.1073529902002974
 51
183.2108989872994869
  0
ARC
  5
77D7
  8
0
 10
3925.9990812547821406
 20
127.6512329133146011
 30
0.0
 40
1.2700819729527231
 50
3.555680322124215
 51
27.9000244234815895
  0
ARC
  5
77D8
  8
0
 10
3926.4782421132799755
 20
127.1110837120632056
 30
0.0
 40
0.4363276458077739
 50
188.2064290428386073
 51
206.5671764086901021
  0
ARC
  5
77D9
  8
0
 10
3928.4360398666940455
 20
126.9858379963680051
 30
0.0
 40
0.9054404114526501
 50
171.2865707422726018
 51
173.8926314554888961
  0
ARC
  5
77DA
  8
0
 10
3938.1315963572819783
 20
127.2428660413794006
 30
0.0
 40
10.5909195836267305
 50
175.8905868521692923
 51
180.5937430163502029
  0
ARC
  5
77DB
  8
0
 10
3923.2580967488452188
 20
128.1542093769938901
 30
0.0
 40
4.3125021546151947
 50
357.9750073022564152
 51
12.7378820343788295
  0
ARC
  5
77DC
  8
0
 10
3926.0316592336098438
 20
128.6792793199664118
 30
0.0
 40
1.49473522754594
 50
16.5508132235040506
 51
29.0543402329845186
  0
ARC
  5
77DD
  8
0
 10
3930.5547459015169807
 20
130.7805952165167014
 30
0.0
 40
3.4981870865935001
 50
196.4934181523331915
 51
203.1524622325466112
  0
ARC
  5
77DE
  8
0
 10
3938.9917861641611125
 20
133.1005438988763956
 30
0.0
 40
12.2478999200749499
 50
194.4223970446304861
 51
195.6942418147174862
  0
ARC
  5
77DF
  8
0
 10
3926.5628303681291982
 20
129.8980421403468881
 30
0.0
 40
0.587040283959647
 50
14.9998606794380294
 51
24.8321401097038503
  0
ARC
  5
77E0
  8
0
 10
3923.2668158839787793
 20
128.3033127157731883
 30
0.0
 40
4.2485049464497742
 50
25.6829515305915486
 51
53.5470785130536484
  0
ARC
  5
77E1
  8
0
 10
3924.1954177339448506
 20
129.7653727091179121
 30
0.0
 40
2.5237039218018822
 50
50.7811352150503623
 51
112.8882683849028012
  0
ARC
  5
77E2
  8
0
 10
3924.2170313164479012
 20
129.8853325396260914
 30
0.0
 40
2.4225102009658559
 50
114.4629043264202011
 51
141.8624204009217067
  0
ARC
  5
77E3
  8
0
 10
3920.4765434681321494
 20
132.6578717846132065
 30
0.0
 40
2.2354233264613561
 50
306.3256066258568922
 51
325.1773020685222946
  0
ARC
  5
77E4
  8
0
 10
3921.6556819508577973
 20
130.7360400014351001
 30
0.0
 40
0.1471395770834687
 50
315.5096539252908201
 51
28.3472138466232693
  0
ARC
  5
77E5
  8
0
 10
3922.8723452387957877
 20
130.2016034331813898
 30
0.0
 40
0.147713564685278
 50
103.0677493729056948
 51
176.9586046886383031
  0
ARC
  5
77E6
  8
0
 10
3923.9137845796199144
 20
130.2934036390151959
 30
0.0
 40
1.050969529355507
 50
102.3575941168273999
 51
174.8432927922343936
  0
ARC
  5
77E7
  8
0
 10
3924.1631635981898398
 20
129.5902590353958033
 30
0.0
 40
1.7936120256075341
 50
47.1919469387356685
 51
105.3335734435822957
  0
ARC
  5
77E8
  8
0
 10
3923.0301078849911391
 20
128.5857759630511055
 30
0.0
 40
3.303843166077562
 50
353.9740266088123803
 51
44.6130299499909597
  0
ARC
  5
77E9
  8
0
 10
3921.9103392261749832
 20
130.8784842223180931
 30
0.0
 40
0.1446836803934688
 50
210.1091231327876017
 51
281.875344259153394
  0
ARC
  5
77EA
  8
0
 10
3921.9379477346878957
 20
130.7161605283415895
 30
0.0
 40
0.0208492937269968
 50
47.7116513940544067
 51
84.0397841982660765
  0
ARC
  5
77EB
  8
0
 10
3922.428243033471972
 20
131.3240907907909047
 30
0.0
 40
0.7601933783187926
 50
231.2071048385786014
 51
261.6417115909245013
  0
ARC
  5
77EC
  8
0
 10
3922.7803780786471179
 20
131.1058298783964915
 30
0.0
 40
0.7013169685808294
 50
230.5283159313671035
 51
262.3068850930667963
  0
ARC
  5
77ED
  8
0
 10
3922.812757119339949
 20
130.4792657093381081
 30
0.0
 40
0.136313527685389
 50
212.6539417862412904
 51
281.0769927951291152
  0
ARC
  5
77EE
  8
0
 10
3922.6853389207681175
 20
130.3927422901174964
 30
0.0
 40
0.0181198733619248
 50
45.7241297287123629
 51
86.3425489633850134
  0
ARC
  5
77EF
  8
0
 10
3922.3104187870649184
 20
130.5330295584342934
 30
0.0
 40
0.0396243845969983
 50
52.4771387604758175
 51
79.3537266696500723
  0
ARC
  5
77F0
  8
0
 10
3921.9776752422480968
 20
130.7577836509616134
 30
0.0
 40
0.0429789873785377
 50
131.7407567180532055
 51
209.0760997839028903
  0
ARC
  5
77F1
  8
0
 10
3921.1809380688819147
 20
131.7943524956363888
 30
0.0
 40
1.264528654922505
 50
307.4045215416344945
 51
322.8408259782673895
  0
ARC
  5
77F2
  8
0
 10
3924.3612986988541707
 20
129.6681382908433875
 30
0.0
 40
2.564418199144304
 50
116.7257972352606004
 51
147.9086766613737893
  0
ARC
  5
77F3
  8
0
 10
3924.2020223183549206
 20
129.6408521933624911
 30
0.0
 40
2.521898332233774
 50
41.968855660231462
 51
113.2127398451467002
  0
ARC
  5
77F4
  8
0
 10
3923.0477346548359492
 20
128.2103258291182897
 30
0.0
 40
4.3465514302809947
 50
357.4250243829421265
 51
45.8169803597301808
  0
ARC
  5
77F5
  8
0
 10
3922.6889302939821391
 20
130.4473308979048909
 30
0.0
 40
0.0425894774237228
 50
282.2800463985745978
 51
351.9141648482063829
  0
ARC
  5
77F6
  8
0
 10
3923.8330466422471545
 20
130.2810158886802867
 30
0.0
 40
1.113552137597948
 50
132.321344842397707
 51
171.7220273435748084
  0
ARC
  5
77F7
  8
0
 10
3924.1594340741130509
 20
129.8892393218636983
 30
0.0
 40
1.623132084169979
 50
75.8288098308741638
 51
131.5287034922664873
  0
ARC
  5
77F8
  8
0
 10
3923.9609990948379163
 20
129.1829130819222939
 30
0.0
 40
2.356625099831529
 50
31.1226740539517905
 51
75.3553496536169973
  0
ARC
  5
77F9
  8
0
 10
3923.245622680309225
 20
128.6659968078789973
 30
0.0
 40
3.2370294295614408
 50
13.3753726053656603
 51
32.4105461118738631
  0
ARC
  5
77FA
  8
0
 10
3924.3557598485840572
 20
129.7090439560560071
 30
0.0
 40
2.203953446312283
 50
123.4800870645084956
 51
157.0280346900561028
  0
ARC
  5
77FB
  8
0
 10
3924.1662419705239699
 20
129.8875608003538957
 30
0.0
 40
1.951419737135129
 50
69.3217474312559148
 51
121.7300620273500016
  0
ARC
  5
77FC
  8
0
 10
3923.6681471672109183
 20
128.7506169514934129
 30
0.0
 40
3.191659049166145
 50
18.3035131956666994
 51
68.1632569309532812
  0
ARC
  5
77FD
  8
0
 10
3926.8943967625918958
 20
127.124370036359295
 30
0.0
 40
0.6424470938305546
 50
337.5001388653079175
 51
353.3114093650984842
  0
ARC
  5
77FE
  8
0
 10
3927.3920436023231559
 20
130.5642491493173054
 30
0.0
 40
0.4257294945781408
 50
192.1988242865953112
 51
233.6112926724752015
  0
ARC
  5
77FF
  8
0
 10
3965.4050358946469714
 20
140.0806506372101978
 30
0.0
 40
39.6115963720515794
 50
193.8543110081513134
 51
194.0349565727202901
  0
ARC
  5
7800
  8
0
 10
3926.9641029718331993
 20
130.6009758490664012
 30
0.0
 40
0.0190754086630034
 50
166.1097052160376961
 51
196.6833783684151058
  0
ARC
  5
7801
  8
0
 10
3927.2298165248062105
 20
130.4492963858172061
 30
0.0
 40
0.3243518876938542
 50
120.5928415200155968
 51
151.1997860934374955
  0
ARC
  5
7802
  8
0
 10
3926.9406112541928451
 20
130.9592480536967969
 30
0.0
 40
0.2620175107089601
 50
298.2781956825251086
 51
322.2687696151932073
  0
ARC
  5
7803
  8
0
 10
3927.1031032525838782
 20
130.8279201177952018
 30
0.0
 40
0.0533211374633962
 50
327.0319462143098121
 51
24.8300704872159201
  0
ARC
  5
7804
  8
0
 10
3927.2056313920938919
 20
130.8823985278440034
 30
0.0
 40
0.0629310838053716
 50
118.128974078045502
 51
210.6558859272819006
  0
ARC
  5
7805
  8
0
 10
3927.2829281587510195
 20
130.6338216178943128
 30
0.0
 40
0.357075842598003
 50
92.1714474312978211
 51
97.762974625503972
  0
ARC
  5
7806
  8
0
 10
3927.2417240928898536
 20
130.9060842420726942
 30
0.0
 40
0.0818430548248321
 50
94.9261960494095831
 51
123.618817837336195
  0
ARC
  5
7807
  8
0
 10
3927.2170078183949045
 20
130.9488285864404986
 30
0.0
 40
0.0327093116579695
 50
129.0286990455130081
 51
174.9618076811646006
  0
LINE
  5
7808
  8
0
 10
3926.9455853823060352
 20
130.6055551605574863
 30
0.0
 11
3927.5932118454479678
 21
130.6055551605574863
 31
0.0
  0
ARC
  5
7809
  8
0
 10
3927.3741951746378618
 20
130.9543573148716007
 30
0.0
 40
0.0200000002181003
 50
187.6320140143716912
 51
235.3891861258782967
  0
ARC
  5
780A
  8
0
 10
3927.3883628300400233
 20
130.2403107068855093
 30
0.0
 40
0.0217423742814229
 50
271.2932957225983159
 51
300.2681010509093085
  0
ARC
  5
780B
  8
0
 10
3927.146753625430847
 20
130.5642491493173054
 30
0.0
 40
0.4257294945781408
 50
306.3887073275246848
 51
347.8011757134045752
  0
ARC
  5
780C
  8
0
 10
3889.1337613331070315
 20
140.0806506372101978
 30
0.0
 40
39.6115963720515794
 50
345.9650434272796815
 51
346.1456889918486013
  0
ARC
  5
780D
  8
0
 10
3927.5746942559198942
 20
130.6009758490664012
 30
0.0
 40
0.0190754086630034
 50
343.3166216315847805
 51
13.8902947839622595
  0
ARC
  5
780E
  8
0
 10
3927.308980702946883
 20
130.4492963858172061
 30
0.0
 40
0.3243518876938542
 50
28.8002139065624689
 51
59.4071584799844175
  0
ARC
  5
780F
  8
0
 10
3927.5981859735597936
 20
130.9592480536967969
 30
0.0
 40
0.2620175107089601
 50
217.7312303848067927
 51
241.7218043174744935
  0
ARC
  5
7810
  8
0
 10
3927.4356939751701248
 20
130.8279201177952018
 30
0.0
 40
0.0533211374633962
 50
155.1699295127839946
 51
212.9680537856901879
  0
ARC
  5
7811
  8
0
 10
3927.3331658356592015
 20
130.8823985278440034
 30
0.0
 40
0.0629310838053716
 50
329.3441140727172751
 51
61.8710259219544767
  0
ARC
  5
7812
  8
0
 10
3927.2558690690029835
 20
130.6338216178943128
 30
0.0
 40
0.357075842598003
 50
82.2370253744960138
 51
87.8285525687021789
  0
ARC
  5
7813
  8
0
 10
3927.2970731348641493
 20
130.9060842420726942
 30
0.0
 40
0.0818430548248321
 50
56.3811821626637482
 51
85.0738039505904169
  0
ARC
  5
7814
  8
0
 10
3927.321789409358189
 20
130.9488285864404986
 30
0.0
 40
0.0327093116579695
 50
5.0381923188354056
 51
50.9713009544869493
  0
LINE
  5
7816
  8
0
 10
3926.789398516077199
 20
126.983110245873803
 30
0.0
 11
3926.789398516077199
 21
128.2455426134829111
 31
0.0
  0
ENDSEC
  0
EOF
