  0
SECTION
  2
HEADER
  9
$ACADVER
  1
AC1009
  9
$INSBASE
 10
8.5851951357000011
 20
9.3385252388999991
 30
0.0
  9
$EXTMIN
 10
1.78482145787602
 20
9.3248608923994141
 30
-0.0015258207003583
  9
$EXTMAX
 10
15.383972847686691
 20
15.33202765255878
 30
0.0000000349246037
  9
$LIMMIN
 10
0.0
 20
0.0
  9
$LIMMAX
 10
22.0
 20
17.0
  9
$ORTHOMODE
 70
     0
  9
$REGENMODE
 70
     1
  9
$FILLMODE
 70
     1
  9
$QTEXTMODE
 70
     0
  9
$MIRRTEXT
 70
     0
  9
$DRAGMODE
 70
     2
  9
$LTSCALE
 40
1.2099999999999991
  9
$OSMODE
 70
  3071
  9
$ATTMODE
 70
     1
  9
$TEXTSIZE
 40
0.2
  9
$TRACEWID
 40
0.05
  9
$TEXTSTYLE
  7
STANDARD
  9
$CLAYER
  8
0
  9
$CELTYPE
  6
BYLAYER
  9
$CECOLOR
 62
   256
  9
$DIMSCALE
 40
1.0
  9
$DIMASZ
 40
0.1875
  9
$DIMEXO
 40
0.0625
  9
$DIMDLI
 40
0.8359999999999999
  9
$DIMRND
 40
0.0
  9
$DIMDLE
 40
0.0
  9
$DIMEXE
 40
0.125
  9
$DIMTP
 40
0.0
  9
$DIMTM
 40
0.0
  9
$DIMTXT
 40
1.0
  9
$DIMCEN
 40
0.198
  9
$DIMTSZ
 40
0.0
  9
$DIMTOL
 70
     0
  9
$DIMLIM
 70
     0
  9
$DIMTIH
 70
     1
  9
$DIMTOH
 70
     1
  9
$DIMSE1
 70
     0
  9
$DIMSE2
 70
     0
  9
$DIMTAD
 70
     0
  9
$DIMZIN
 70
     0
  9
$DIMBLK
  1

  9
$DIMASO
 70
     1
  9
$DIMSHO
 70
     1
  9
$DIMPOST
  1
\X
  9
$DIMAPOST
  1

  9
$DIMALT
 70
     1
  9
$DIMALTD
 70
     2
  9
$DIMALTF
 40
25.399999999999999
  9
$DIMLFAC
 40
1.0
  9
$DIMTOFL
 70
     0
  9
$DIMTVP
 40
0.0
  9
$DIMTIX
 70
     0
  9
$DIMSOXD
 70
     0
  9
$DIMSAH
 70
     0
  9
$DIMBLK1
  1

  9
$DIMBLK2
  1

  9
$DIMSTYLE
  2
STANDARD
  9
$DIMCLRD
 70
     0
  9
$DIMCLRE
 70
     0
  9
$DIMCLRT
 70
     0
  9
$DIMTFAC
 40
1.0
  9
$DIMGAP
 40
0.09
  9
$LUNITS
 70
     2
  9
$LUPREC
 70
     4
  9
$SKETCHINC
 40
0.1
  9
$FILLETRAD
 40
0.0
  9
$AUNITS
 70
     0
  9
$AUPREC
 70
     0
  9
$MENU
  1
.
  9
$ELEVATION
 40
0.0
  9
$PELEVATION
 40
0.0
  9
$THICKNESS
 40
0.0
  9
$LIMCHECK
 70
     0
  9
$BLIPMODE
 70
     0
  9
$CHAMFERA
 40
0.0
  9
$CHAMFERB
 40
0.0
  9
$SKPOLY
 70
     0
  9
$TDCREATE
 40
2457968.5935470602
  9
$TDUPDATE
 40
2457973.6849944219
  9
$TDINDWG
 40
0.1608565162
  9
$TDUSRTIMER
 40
0.1608565162
  9
$USRTIMER
 70
     1
  9
$ANGBASE
 50
0.0
  9
$ANGDIR
 70
     0
  9
$PDMODE
 70
     0
  9
$PDSIZE
 40
0.3125
  9
$PLINEWID
 40
0.0
  9
$COORDS
 70
     1
  9
$SPLFRAME
 70
     0
  9
$SPLINETYPE
 70
     6
  9
$SPLINESEGS
 70
     8
  9
$ATTDIA
 70
     1
  9
$ATTREQ
 70
     1
  9
$HANDLING
 70
     1
  9
$HANDSEED
  5
16E7
  9
$SURFTAB1
 70
     6
  9
$SURFTAB2
 70
     6
  9
$SURFTYPE
 70
     6
  9
$SURFU
 70
     6
  9
$SURFV
 70
     6
  9
$UCSNAME
  2

  9
$UCSORG
 10
0.0
 20
0.0
 30
0.0
  9
$UCSXDIR
 10
1.0
 20
0.0
 30
0.0
  9
$UCSYDIR
 10
0.0
 20
1.0
 30
0.0
  9
$PUCSNAME
  2

  9
$PUCSORG
 10
0.0
 20
0.0
 30
0.0
  9
$PUCSXDIR
 10
1.0
 20
0.0
 30
0.0
  9
$PUCSYDIR
 10
0.0
 20
1.0
 30
0.0
  9
$USERI1
 70
     0
  9
$USERI2
 70
     0
  9
$USERI3
 70
     0
  9
$USERI4
 70
     0
  9
$USERI5
 70
     0
  9
$USERR1
 40
0.0
  9
$USERR2
 40
0.0
  9
$USERR3
 40
0.0
  9
$USERR4
 40
0.0
  9
$USERR5
 40
0.0
  9
$WORLDVIEW
 70
     1
  9
$SHADEDGE
 70
     3
  9
$SHADEDIF
 70
    70
  9
$TILEMODE
 70
     1
  9
$MAXACTVP
 70
    48
  9
$PLIMCHECK
 70
     0
  9
$PEXTMIN
 10
1.0000000000000000E+020
 20
1.0000000000000000E+020
 30
1.0000000000000000E+020
  9
$PEXTMAX
 10
-1.0000000000000000E+020
 20
-1.0000000000000000E+020
 30
-1.0000000000000000E+020
  9
$PLIMMIN
 10
0.0
 20
0.0
  9
$PLIMMAX
 10
12.0
 20
9.0
  9
$UNITMODE
 70
     0
  9
$VISRETAIN
 70
     1
  9
$PLINEGEN
 70
     0
  9
$PSLTSCALE
 70
     1
  0
ENDSEC
  0
SECTION
  2
TABLES
  0
TABLE
  2
VPORT
 70
     1
  0
VPORT
  2
*ACTIVE
 70
     0
 10
0.0
 20
0.0
 11
1.0
 21
1.0
 12
8.5843971527813565
 22
12.328444272479089
 13
0.0
 23
0.0
 14
1.0
 24
1.0
 15
0.0
 25
0.0
 16
0.0
 26
0.0
 36
1.0
 17
0.0
 27
0.0
 37
0.0
 40
7.6387534499022571
 41
1.786624203821656
 42
50.0
 43
0.0
 44
0.0
 50
0.0
 51
0.0
 71
     0
 72
   100
 73
     1
 74
     1
 75
     0
 76
     0
 77
     0
 78
     0
  0
ENDTAB
  0
TABLE
  2
LTYPE
 70
     2
  0
LTYPE
  2
CONTINUOUS
 70
     0
  3
Solid line
 72
    65
 73
     0
 40
0.0
  0
LTYPE
  2
PHANTOM2
 70
     0
  3
___ _ _ ___ _ _ ___ _ _ ___ _ _
 72
    65
 73
     6
 40
1.25
 49
0.625
 49
-0.125
 49
0.125
 49
-0.125
 49
0.125
 49
-0.125
  0
ENDTAB
  0
TABLE
  2
LAYER
 70
     2
  0
LAYER
  2
0
 70
     0
 62
     7
  6
CONTINUOUS
  0
LAYER
  2
DEFPOINTS
 70
     0
 62
     7
  6
CONTINUOUS
  0
ENDTAB
  0
TABLE
  2
STYLE
 70
     1
  0
STYLE
  2
STANDARD
 70
     0
 40
0.0
 41
0.8
 50
0.0
 71
     0
 42
0.2
  3
txt
  4

  0
ENDTAB
  0
TABLE
  2
VIEW
 70
     0
  0
ENDTAB
  0
TABLE
  2
UCS
 70
     0
  0
ENDTAB
  0
TABLE
  2
APPID
 70
     7
  0
APPID
  2
ACAD
 70
     0
  0
APPID
  2
ACAD_MLEADERVER
 70
     0
  0
APPID
  2
ACAD_NAV_VCDISPLAY
 70
     0
  0
APPID
  2
ACAD_EXEMPT_FROM_CAD_STANDARDS
 70
     0
  0
APPID
  2
ACAD_DSTYLE_DIMJAG
 70
     0
  0
APPID
  2
ACAD_DSTYLE_DIMTALN
 70
     0
  0
APPID
  2
ACDBATTR
 70
     0
  0
ENDTAB
  0
TABLE
  2
DIMSTYLE
 70
     1
  0
DIMSTYLE
  2
STANDARD
 70
     0
  3

  4

  5

  6

  7

 40
1.0
 41
0.1875
 42
0.0625
 43
0.38
 44
0.125
 45
0.0
 46
0.0
 47
1.5
 48
1.5
140
0.15625
141
0.09
142
0.0
143
25.399999999999999
144
1.0
145
0.0
146
1.0
147
0.09
 71
     0
 72
     0
 73
     1
 74
     1
 75
     0
 76
     0
 77
     0
 78
     4
170
     0
171
     2
172
     0
173
     0
174
     0
175
     0
176
     0
177
     0
178
     0
  0
ENDTAB
  0
ENDSEC
  0
SECTION
  2
BLOCKS
  0
BLOCK
  8
0
  2
$MODEL_SPACE
 70
     0
 10
0.0
 20
0.0
 30
0.0
  3
$MODEL_SPACE
  1

  0
ENDBLK
  5
21
  8
0
  0
BLOCK
 67
     1
  8
0
  2
$PAPER_SPACE
 70
     0
 10
0.0
 20
0.0
 30
0.0
  3
$PAPER_SPACE
  1

  0
ENDBLK
  5
1D
 67
     1
  8
0
  0
ENDSEC
  0
SECTION
  2
ENTITIES
  0
LINE
  5
398
  8
0
 10
7.7788737839999991
 20
9.7975252389000005
 30
0.0
 11
7.7768106807999997
 21
9.7778961230999997
 31
0.0
  0
LINE
  5
5D3
  8
0
 10
7.5076951356999997
 20
9.3385252388999991
 30
0.0
 11
9.6626951356999982
 21
9.3385252388999991
 31
0.0
  0
LINE
  5
5D4
  8
0
 10
11.6192033129
 20
9.3385252388999991
 30
0.0
 11
13.551186958600001
 21
9.3385252388999991
 31
0.0
  0
LINE
  5
605
  8
0
 10
9.3915164875000006
 20
9.7975252389000005
 30
0.0
 11
9.3935795906999981
 21
9.7778961230999997
 31
0.0
  0
LINE
  5
617
  8
0
 10
13.4625187583
 20
9.4666864288999992
 30
0.0
 11
11.707871513200001
 21
9.4666864288999992
 31
0.0
  0
LINE
  5
61A
  8
0
 10
9.5488047895000001
 20
9.4972548338999996
 30
0.0
 11
7.6215983128999989
 21
9.4972548338999996
 31
0.0
  0
LINE
  5
620
  8
0
 10
11.8206960466
 20
9.6528364752999938
 30
0.0
 11
13.35092118393508
 21
9.6525354432319652
 31
0.0
  0
LINE
  5
625
  8
0
 10
9.3885268550000003
 20
9.7538666513999992
 30
0.0
 11
7.7818634164999994
 21
9.7538666513999992
 31
0.0
  0
LINE
  5
62F
  8
0
 10
9.3411277039999998
 20
9.8675252388999972
 30
0.0
 11
7.8292625674999989
 21
9.8675252388999972
 31
0.0
  0
LINE
  5
694
  8
0
 10
12.266348111599999
 20
12.5658714936
 30
0.0
 11
12.268112304100001
 21
12.569579794899999
 31
0.0
  0
LINE
  5
6F1
  8
0
 10
12.8739187575
 20
11.861433115300001
 30
0.0
 11
12.294555121688621
 21
11.861433115300001
 31
0.0
  0
LINE
  5
70A
  8
0
 10
12.15562785009462
 20
12.1358283656169
 30
0.0
 11
12.155616727
 21
12.477423329600001
 31
0.0
  0
LINE
  5
722
  8
0
 10
12.275774212
 20
12.552525238899999
 30
0.0
 11
12.894618468099999
 21
12.552525238899999
 31
0.0
  0
LINE
  5
723
  8
0
 10
12.904042159899999
 20
12.5658714936
 30
0.0
 11
12.266348111599999
 21
12.5658714936
 31
0.0
  0
LINE
  5
750
  8
0
 10
13.023767680100001
 20
12.109711593557559
 30
0.0
 11
13.023767680100001
 21
12.5032760429
 31
0.0
  0
LINE
  5
A61
  8
0
 10
12.904042159899999
 20
12.5658714936
 30
0.0
 11
12.9022779674
 21
12.569579794899999
 31
0.0
  0
ARC
  5
E59
  8
0
 10
7.9099912300000002
 20
9.7837442401000008
 30
0.0
 40
0.1318396776
 50
151.52917726460001
 51
174.0
  0
ARC
  5
E5A
  8
0
 10
7.5809101205999987
 20
9.6154517669999997
 30
0.0
 40
0.125
 50
275.27664354000001
 51
288.98998581310002
  0
ARC
  5
E5D
  8
0
 10
7.8292586436000002
 20
9.8275252388999998
 30
0.0
 40
0.04
 50
89.999996078799995
 51
151.5291752023
  0
ARC
  5
E5E
  8
0
 10
7.7471352724999987
 20
9.7340183261999993
 30
0.0
 40
0.04
 50
344.82214339350003
 51
29.7494473651
  0
ARC
  5
E5F
  8
0
 10
7.8165915564999988
 20
9.7737149836999997
 30
0.0
 40
0.04
 50
173.99999870350001
 51
209.7494590467
  0
ARC
  5
E62
  8
0
 10
7.5076951356999997
 20
9.3686666276999997
 30
0.0
 40
0.0301413888
 50
174.4482054099
 51
270.0
  0
ARC
  5
E65
  8
0
 10
7.860862074199999
 20
9.8975260282999997
 30
0.0
 40
0.0299999979
 50
168.74660714309999
 51
270.0349987285
  0
ARC
  5
E6D
  8
0
 10
9.2603990414999995
 20
9.7837442401000008
 30
0.0
 40
0.1318396776
 50
6.0
 51
28.470822735399999
  0
ARC
  5
E6E
  8
0
 10
9.5894801509000001
 20
9.6154517669999997
 30
0.0
 40
0.125
 50
251.01001418690001
 51
264.72335645999999
  0
ARC
  5
E71
  8
0
 10
9.3411316278999994
 20
9.8275252388999998
 30
0.0
 40
0.04
 50
28.470824797700001
 51
90.000003921200005
  0
ARC
  5
E72
  8
0
 10
9.4232549989999992
 20
9.7340183261999993
 30
0.0
 40
0.04
 50
150.2505526349
 51
195.1778566065
  0
ARC
  5
E73
  8
0
 10
9.3537987149999982
 20
9.7737149836999997
 30
0.0
 40
0.04
 50
330.2505409533
 51
6.0000012964999989
  0
ARC
  5
E74
  8
0
 10
11.6191951357
 20
9.3705252388999991
 30
0.0
 40
0.032
 50
180.00000000220001
 51
270.0
  0
ARC
  5
E75
  8
0
 10
13.5511951357
 20
9.3705252388999991
 30
0.0
 40
0.032
 50
270.0
 51
359.99999999779999
  0
ARC
  5
E76
  8
0
 10
9.6626951356999982
 20
9.3686666276999997
 30
0.0
 40
0.0301413888
 50
270.0
 51
5.5517945901000001
  0
ARC
  5
E77
  8
0
 10
9.3094928658394682
 20
9.8975984485972681
 30
0.0
 40
0.030073214263154
 50
270.03157258248422
 51
11.253507555867859
  0
ARC
  5
E7C
  8
0
 10
12.585195135699999
 20
12.376525238899999
 30
0.0
 40
0.371229826
 50
31.334970291899999
 51
148.66502970810001
  0
ARC
  5
E7F
  8
0
 10
12.275771624141379
 20
12.56252523896076
 30
0.0
 40
0.0100000003956077
 50
160.45023658398591
 51
270.014827337253
  0
ARC
  5
E80
  8
0
 10
12.8946186478
 20
12.562525238899999
 30
0.0
 40
0.01
 50
270.0
 51
19.549764590300001
  0
ARC
  5
1099
  8
0
 10
9.5652732677863685
 20
9.3639666866208362
 30
0.0
 40
0.1276492681727319
 50
3.4204908809612502
 51
84.285021420809827
  0
ARC
  5
109A
  8
0
 10
9.6900546912729304
 20
9.7724048533160168
 30
0.0
 40
0.3092880016028703
 50
189.0892656589314
 51
242.8260329198304
  0
ARC
  5
10A2
  8
0
 10
7.4803131970740724
 20
9.7724130798425062
 30
0.0
 40
0.3093114033851689
 50
297.17907410063629
 51
350.90988474800707
  0
ARC
  5
10A3
  8
0
 10
7.6028340277617632
 20
9.3661600205402422
 30
0.0
 40
0.1252563270505591
 50
94.775737243165167
 51
177.51875041708431
  0
ARC
  5
10A4
  8
0
 10
7.1257805701117363
 20
10.039184682120281
 30
0.0
 40
0.7186072708925525
 50
349.10658968039348
 51
3.8912940385898671
  0
ARC
  5
10A5
  8
0
 10
10.04162215625764
 20
10.03920455330066
 30
0.0
 40
0.7156252880886284
 50
176.09406062712489
 51
190.93390620897031
  0
LINE
  5
10A6
  8
0
 10
9.3276591061999987
 20
10.08795202609998
 30
0.0
 11
9.3324667659999996
 21
10.1340760571
 31
0.0
  0
ARC
  5
10AE
  8
0
 10
9.2929549699301202
 20
10.138653269838681
 30
0.0
 40
0.0397760343061342
 50
353.39206994331141
 51
14.530215247255009
  0
ARC
  5
10AF
  8
0
 10
12.544642797757829
 20
10.88092206156146
 30
0.0
 40
3.2955726665094738
 50
182.20462433717179
 51
192.83851637794311
  0
ARC
  5
10B0
  8
0
 10
163.26576438384819
 20
22.732644062565271
 30
0.0
 40
154.4793679525927
 50
183.78769457840099
 51
184.44724104686679
  0
ARC
  5
10B1
  8
0
 10
41.329874628411829
 20
15.140109828104791
 30
0.0
 40
32.311817445511309
 50
183.14786574999309
 51
184.63724880677279
  0
ARC
  5
10B2
  8
0
 10
8.5701771031738474
 20
12.603777414982449
 30
0.0
 40
1.072353042925021
 50
63.523756194231922
 51
109.3325511054429
  0
ARC
  5
10B3
  8
0
 10
8.9890551301048482
 20
13.45829693437126
 30
0.0
 40
0.1208592365949516
 50
289.12702599177419
 51
60.667803876644733
  0
ARC
  5
10B4
  8
0
 10
8.5853200413915225
 20
14.24619661032064
 30
0.0
 40
1.005140615957562
 50
243.77431383935979
 51
296.17210068282861
  0
ARC
  5
10B5
  8
0
 10
8.3000650470294257
 20
13.328148107195579
 30
0.0
 40
0.2997860992778511
 50
106.4496038804579
 51
140.62970342899371
  0
ARC
  5
10B7
  8
0
 10
8.5851951357500003
 20
12.79423607762779
 30
0.0
 40
0.8051942416722132
 50
70.685484106099054
 51
109.3145158939009
  0
ARC
  5
10B8
  8
0
 10
8.7777545786224689
 20
13.34072757329951
 30
0.0
 40
0.2257731907427508
 50
38.437746876923363
 51
70.931059596383847
  0
ARC
  5
10B9
  8
0
 10
8.8988686575370455
 20
13.44699967205
 30
0.0
 40
0.0653263538629533
 50
328.55138934879221
 51
31.44861065120643
  0
ARC
  5
10BA
  8
0
 10
8.7457251353977945
 20
13.5891022026524
 30
0.0
 40
0.2732575115730971
 50
278.43761184247302
 51
319.85232423142759
  0
ARC
  5
10BB
  8
0
 10
8.5851951357500074
 20
14.13716710972818
 30
0.0
 40
0.842598084828184
 50
256.22535311490259
 51
283.77464688509639
  0
ARC
  5
10BC
  8
0
 10
8.4246651361021616
 20
13.58910220265237
 30
0.0
 40
0.2732575115730448
 50
220.1476757685719
 51
261.56238815751971
  0
ARC
  5
10BD
  8
0
 10
8.2715216132821752
 20
13.44699967205
 30
0.0
 40
0.0653263532821773
 50
148.55138903727109
 51
211.4486109627276
  0
ARC
  5
10BE
  8
0
 10
8.3664726942473138
 20
13.37765758118681
 30
0.0
 40
0.1827612324213051
 50
105.0961821971615
 51
145.53501132950871
  0
ARC
  5
10BF
  8
0
 10
9.1372141278641337
 20
13.50913179855683
 30
0.0
 40
0.0363148477819284
 50
128.74794874804081
 51
190.28632318949801
  0
ARC
  5
10C0
  8
0
 10
4.444485854606711
 20
16.566591583597379
 30
0.0
 40
5.5663780776664931
 50
327.0310359684334
 51
327.93579116451639
  0
ARC
  5
10C1
  8
0
 10
9.1269013533141283
 20
13.641397302503581
 30
0.0
 40
0.045856437571446
 50
319.42834530224133
 51
34.471857625433493
  0
ARC
  5
10C2
  8
0
 10
9.4968869018155253
 20
13.934873762745781
 30
0.0
 40
0.4265117279343675
 50
195.54860406695369
 51
218.8461724919878
  0
ARC
  5
10C3
  8
0
 10
9.8915211000341507
 20
14.11898987323246
 30
0.0
 40
0.8590456163888287
 50
179.8168632029417
 51
200.329264162285
  0
LINE
  5
10C4
  8
0
 10
9.0324798719000015
 20
14.1217356705
 30
0.0
 11
9.0274012639500008
 21
14.889822970100001
 31
0.0
  0
ARC
  5
10C6
  8
0
 10
8.9739824226701455
 20
14.882905568917369
 30
0.0
 40
0.0538648590716048
 50
7.3783811867596381
 51
28.577874640534731
  0
ARC
  5
10C8
  8
0
 10
10.075597562887159
 20
15.512811095965089
 30
0.0
 40
1.2151376338871771
 50
196.2326084524644
 51
209.8134416150227
  0
ARC
  5
10C9
  8
0
 10
8.8541048054300777
 20
15.16004894258182
 30
0.0
 40
0.0563376403455404
 50
13.430718137355679
 51
67.923662931582868
  0
ARC
  5
10CA
  8
0
 10
9.4759804187870742
 20
16.853396380226329
 30
0.0
 40
1.747622278816638
 50
241.7020435922413
 51
249.89601145981439
  0
ARC
  5
10CB
  8
0
 10
8.5851956851911932
 20
15.21138643000695
 30
0.0
 40
0.1205862686696515
 50
58.885752381591907
 51
121.11256141473871
  0
ARC
  5
10CC
  8
0
 10
9.4218965639351264
 20
14.06685366777139
 30
0.0
 40
0.4745001921843335
 50
191.28766604245641
 51
236.99887817466191
  0
ARC
  5
10D6
  8
0
 10
11.338527347872921
 20
14.46460963475479
 30
0.0
 40
2.4319577254414901
 50
179.2407030798469
 51
191.63894762338219
  0
LINE
  5
10D7
  8
0
 10
8.9067831714999972
 20
14.49683755760009
 30
0.0
 11
8.9091609569857422
 21
15.17224522318552
 31
0.0
  0
ARC
  5
10DA
  8
0
 10
8.9820693707543331
 20
13.786970430187759
 30
0.0
 40
0.0470953281563678
 50
38.301617943833563
 51
72.26635555860183
  0
ARC
  5
10DB
  8
0
 10
8.9837214635794052
 20
15.12981149982555
 30
0.0
 40
1.298045639173558
 50
257.73882724248813
 51
270.5602689878761
  0
ARC
  5
10DC
  8
0
 10
-0.4460924377308968
 20
-11.929724492627891
 30
0.0
 40
27.367485488292139
 50
70.458471842363622
 51
70.684831059649042
  0
ARC
  5
10DD
  8
0
 10
8.5849780604312098
 20
13.83374948207392
 30
0.0
 40
0.0670033365167813
 50
71.630828127851075
 51
111.6251512293141
  0
ARC
  5
10DE
  8
0
 10
8.0934106400726922
 20
15.13751765773938
 30
0.0
 40
1.3263658032674579
 50
282.07373542954258
 51
290.6095123928954
  0
ARC
  5
10DF
  8
0
 10
8.2523069213691453
 20
14.579995259247889
 30
0.0
 40
0.7489437094553982
 50
265.1530159967337
 51
279.10686386637877
  0
ARC
  5
10E0
  8
0
 10
8.1892834940070927
 20
13.78351017490216
 30
0.0
 40
0.0502202742172401
 50
90.294222512689402
 51
138.04427184095869
  0
ARC
  5
10E2
  8
0
 10
4.6257474736421731
 20
10.88092206156146
 30
0.0
 40
3.2955726665094738
 50
347.16148362205689
 51
357.79537566282812
  0
ARC
  5
10E3
  8
0
 10
-146.09537411244821
 20
22.732644062565271
 30
0.0
 40
154.4793679525927
 50
355.55275895313309
 51
356.21230542159901
  0
ARC
  5
10E4
  8
0
 10
-24.159484357011831
 20
15.140109828104791
 30
0.0
 40
32.311817445511309
 50
355.36275119322721
 51
356.8518287010009
  0
ARC
  5
10E5
  8
0
 10
8.0378422762808412
 20
13.51215588631775
 30
0.0
 40
0.0310849249065763
 50
328.36988812449971
 51
54.472688266011659
  0
ARC
  5
10E6
  8
0
 10
12.72590441679329
 20
16.566591583597379
 30
0.0
 40
5.5663780776664931
 50
212.06420883548361
 51
212.9689640315666
  0
ARC
  5
10E7
  8
0
 10
8.0434889180858722
 20
13.641397302503581
 30
0.0
 40
0.045856437571446
 50
145.5281423745665
 51
220.5716546977587
  0
ARC
  5
10E8
  8
0
 10
7.6735033695844761
 20
13.934873762745781
 30
0.0
 40
0.4265117279343675
 50
321.15382750801223
 51
344.45139593304617
  0
ARC
  5
10E9
  8
0
 10
7.2788691713658507
 20
14.11898987323246
 30
0.0
 40
0.8590456163888287
 50
339.67073583771497
 51
0.1831367970583046
  0
LINE
  5
10EA
  8
0
 10
8.1379103995000008
 20
14.1217356705
 30
0.0
 11
8.1429890074500015
 21
14.889822970100001
 31
0.0
  0
ARC
  5
10EB
  8
0
 10
8.1964078487298568
 20
14.882905568917369
 30
0.0
 40
0.0538648590716048
 50
151.4221253594653
 51
172.6216188132403
  0
ARC
  5
10EC
  8
0
 10
7.1009658928515211
 20
15.509752228906279
 30
0.0
 40
1.2082607490265009
 50
330.16687213954049
 51
344.06410618339129
  0
ARC
  5
10ED
  8
0
 10
8.3166167858029727
 20
15.159587854997801
 30
0.0
 40
0.0568896037555176
 50
112.2110248875362
 51
161.10557760425041
  0
ARC
  5
10EE
  8
0
 10
7.6944098526129281
 20
16.853396380226329
 30
0.0
 40
1.747622278816638
 50
290.10398854018558
 51
298.29795640775882
  0
ARC
  5
10EF
  8
0
 10
7.748493707464875
 20
14.06685366777139
 30
0.0
 40
0.4745001921843335
 50
303.00112182533809
 51
348.71233395754348
  0
ARC
  5
10F0
  8
0
 10
5.8318629235270789
 20
14.46460963475479
 30
0.0
 40
2.4319577254414901
 50
348.36105237661781
 51
0.7592969201530704
  0
LINE
  5
10F1
  8
0
 10
8.2636070999000033
 20
14.49683755760009
 30
0.0
 11
8.2612281381639203
 21
15.17257933595563
 31
0.0
  0
LINE
  5
10F3
  8
0
 10
7.8427311653000009
 20
10.08795202609998
 30
0.0
 11
7.8379235055000001
 21
10.1340760571
 31
0.0
  0
ARC
  5
10F4
  8
0
 10
7.8774353015698733
 20
10.138653269838681
 30
0.0
 40
0.0397760343061289
 50
165.39623977321969
 51
186.6079300566895
  0
ARC
  5
10F5
  8
0
 10
-11.191227236426039
 20
14.560594162219321
 30
0.0
 40
19.78742713718125
 50
358.08903069981852
 51
2.233947118511121
  0
ARC
  5
10F6
  8
0
 10
8.0430358012995349
 20
10.06033366783341
 30
0.0
 40
0.1988919571608034
 50
181.2462463869303
 51
213.58894645016491
  0
ARC
  5
10F7
  8
0
 10
7.8974171667768038
 20
9.9763317285325286
 30
0.0
 40
0.0328661857843884
 50
232.37625970619641
 51
305.285310236057
  0
ARC
  5
10F8
  8
0
 10
7.7484325371833869
 20
10.201595567774669
 30
0.0
 40
0.3029261044440993
 50
303.67564722033558
 51
328.35989515967867
  0
ARC
  5
10F9
  8
0
 10
7.1058612882082643
 20
10.618236947430271
 30
0.0
 40
1.0686935206492181
 50
327.41462941903359
 51
332.50539347338901
  0
ARC
  5
10FA
  8
0
 10
8.4560388675383997
 20
10.409329505396981
 30
0.0
 40
0.4927454197137319
 50
215.2792854222262
 51
243.53434495779331
  0
ARC
  5
10FB
  8
0
 10
8.2999402927689747
 20
10.1816056496491
 30
0.0
 40
0.2226303711876686
 50
253.4279077943786
 51
304.23715887721232
  0
ARC
  5
10FC
  8
0
 10
8.0391689253078162
 20
10.64963258603235
 30
0.0
 40
0.757775902244973
 50
300.62532615119733
 51
316.10104597707812
  0
ARC
  5
10FE
  8
0
 10
9.1273544702004656
 20
10.06033366783341
 30
0.0
 40
0.1988919571608034
 50
326.411053549835
 51
358.7537536130697
  0
ARC
  5
10FF
  8
0
 10
9.2729731047231958
 20
9.9763317285325286
 30
0.0
 40
0.0328661857843884
 50
234.71468976394311
 51
307.62374029380362
  0
ARC
  5
1100
  8
0
 10
9.4219577343166137
 20
10.201595567774669
 30
0.0
 40
0.3029261044440993
 50
211.6401048403213
 51
236.32435277966439
  0
ARC
  5
1101
  8
0
 10
10.064528983291741
 20
10.618236947430271
 30
0.0
 40
1.0686935206492181
 50
207.49460652661111
 51
212.58537058096641
  0
ARC
  5
1102
  8
0
 10
8.7143514039616008
 20
10.409329505396981
 30
0.0
 40
0.4927454197137319
 50
296.46565504220678
 51
324.72071457777378
  0
ARC
  5
1103
  8
0
 10
8.8704499787310258
 20
10.1816056496491
 30
0.0
 40
0.2226303711876686
 50
235.76284112278779
 51
286.5720922056214
  0
ARC
  5
1104
  8
0
 10
9.1312213461921843
 20
10.64963258603235
 30
0.0
 40
0.757775902244973
 50
223.898954022922
 51
239.3746738488027
  0
ARC
  5
1106
  8
0
 10
176.97485696554881
 20
21.457667340108209
 30
0.0
 40
168.24038838591269
 50
182.77829649246621
 51
183.86245729207499
  0
ARC
  5
1107
  8
0
 10
-151.594210357778
 20
20.861268844759291
 30
0.0
 40
160.0086692764834
 50
356.15262343719633
 51
357.2928033740867
  0
ARC
  5
1108
  8
0
 10
-14058.95324255694
 20
11.556088568633831
 30
0.0
 40
14067.53853843889
 50
359.99416815407841
 51
0.0068627160696367
  0
ARC
  5
1115
  8
0
 10
8.1812199317579761
 20
13.460041761028551
 30
0.0
 40
0.122272402568861
 50
162.96904901702291
 51
250.8653297033101
  0
ARC
  5
111A
  8
0
 10
11.672644785961969
 20
9.3713083889355602
 30
0.0
 40
0.0854532389899488
 50
98.529018210769152
 51
180.52510379380931
  0
ARC
  5
111B
  8
0
 10
11.66124355571379
 20
9.5611861771872757
 30
0.0
 40
0.1053772689707162
 50
269.3081724874628
 51
309.50373882191388
  0
ARC
  5
111C
  8
0
 10
11.60301956392995
 20
9.6935849404983738
 30
0.0
 40
0.2477089541571929
 50
300.37543545566911
 51
344.05248276497753
  0
ARC
  5
111D
  8
0
 10
11.86341401272564
 20
9.6264001284429028
 30
0.0
 40
0.0222360951606544
 50
95.726914961587084
 51
182.25491123535619
  0
LINE
  5
111E
  8
0
 10
11.86119513570001
 20
9.6485252389000014
 30
0.0
 11
11.877932537824
 21
9.6528252155063203
 31
0.0
  0
LINE
  5
1120
  8
0
 10
11.869250039500001
 20
9.7644592838999991
 30
0.0
 11
13.3011747586
 21
9.7644508849000005
 31
0.0
  0
ARC
  5
112A
  8
0
 10
11.82224600930369
 20
9.6765892531480358
 30
0.0
 40
0.0238032947274382
 50
146.14710930474311
 51
266.26651691656042
  0
ARC
  5
112B
  8
0
 10
11.90286717238336
 20
9.6671901054078582
 30
0.0
 40
0.1029145505156239
 50
109.0656256794778
 51
167.28076877908859
  0
ARC
  5
112C
  8
0
 10
11.862288586663171
 20
9.7939054224710862
 30
0.0
 40
0.0302578403450576
 50
283.30125428229508
 51
4.400939192440414
  0
ARC
  5
112D
  8
0
 10
20.035765302352051
 20
10.490603814465899
 30
0.0
 40
8.1728590742568201
 50
183.67012000063309
 51
184.87379816200601
  0
ARC
  5
112E
  8
0
 10
11.90558609030796
 20
9.9673315609788986
 30
0.0
 40
0.0259186861373016
 50
167.43693849922289
 51
179.75205502102409
  0
ARC
  5
112F
  8
0
 10
11.03573979911542
 20
10.20744327215955
 30
0.0
 40
0.876492961751828
 50
344.48360880593452
 51
2.4175401581478351
  0
ARC
  5
1130
  8
0
 10
-4.8668645401963904
 20
10.26955176176115
 30
0.0
 40
16.778336019987819
 50
359.91416153445772
 51
1.3001310001982671
  0
ARC
  5
1131
  8
0
 10
12.759039043915781
 20
10.64193493319047
 30
0.0
 40
0.8519275607042834
 50
150.29547707744189
 51
179.441048398834
  0
ARC
  5
1132
  8
0
 10
20.281416603277769
 20
6.3519560416449483
 30
0.0
 40
9.5116090146697463
 50
149.1439321995723
 51
150.3033073918636
  0
ARC
  5
1133
  8
0
 10
12.08744036733739
 20
11.245849153340879
 30
0.0
 40
0.0326021792844423
 50
331.51497114463672
 51
345.80313885892639
  0
ARC
  5
1134
  8
0
 10
11.656078990176599
 20
11.34933749736137
 30
0.0
 40
0.4762015817340194
 50
346.46075767783549
 51
4.8040907969389108
  0
ARC
  5
1135
  8
0
 10
12.25469688960467
 20
11.38042815979755
 30
0.0
 40
0.1244002572498801
 50
123.9437145516784
 51
175.94781872707389
  0
ARC
  5
1136
  8
0
 10
11.99720329490837
 20
11.744975710120849
 30
0.0
 40
0.3219594225421031
 50
305.73388829541801
 51
18.79160428303063
  0
ARC
  5
1137
  8
0
 10
12.45718017094565
 20
11.947891504761751
 30
0.0
 40
0.1841791512472877
 50
161.5267280366111
 51
212.59026429683959
  0
ARC
  5
1138
  8
0
 10
12.20900333332539
 20
12.017414670030499
 30
0.0
 40
0.0743320353755413
 50
351.36205834533899
 51
44.174253781964403
  0
ARC
  5
113A
  8
0
 10
12.03604436187476
 20
11.91236101806877
 30
0.0
 40
0.2753202392509038
 50
34.729678586693574
 51
52.270078757916679
  0
ARC
  5
113B
  8
0
 10
12.170307952038939
 20
12.049405584108101
 30
0.0
 40
0.0876607241403603
 50
67.025456268353736
 51
118.3472610862429
  0
ARC
  5
113C
  8
0
 10
11.749396384218359
 20
12.70982863132742
 30
0.0
 40
0.6957505217213214
 50
293.39856764721901
 51
303.03497401540528
  0
ARC
  5
113D
  8
0
 10
11.95420482736627
 20
12.26306246999251
 30
0.0
 40
0.2046616193939146
 50
236.09022790040149
 51
290.44544486294569
  0
ARC
  5
113E
  8
0
 10
11.974727903421449
 20
12.30020032977016
 30
0.0
 40
0.2469600296002613
 50
178.34240247722121
 51
236.9454886159555
  0
ARC
  5
113F
  8
0
 10
11.97922661131733
 20
12.313278798218549
 30
0.0
 40
0.2514254485429836
 50
120.072157519553
 51
181.35256581377561
  0
ARC
  5
1140
  8
0
 10
11.955617090491559
 20
12.33748301349876
 30
0.0
 40
0.2188063354267701
 50
53.372193055452598
 51
117.8974268774341
  0
ARC
  5
1141
  8
0
 10
12.25566860702547
 20
12.75778531360019
 30
0.0
 40
0.2976797283150423
 50
235.2893412025843
 51
250.3602056922484
  0
ARC
  5
1142
  8
0
 10
12.171615103302541
 20
12.54110856378812
 30
0.0
 40
0.065663970942043
 50
255.89851863142121
 51
315.48965850056061
  0
ARC
  5
1143
  8
0
 10
11.943537995887329
 20
12.778371224459001
 30
0.0
 40
0.3947510818059369
 50
314.13868271031549
 51
322.40747301164049
  0
ARC
  5
1144
  8
0
 10
12.28752655775639
 20
12.512525353936841
 30
0.0
 40
0.0399998849632149
 50
90.000093616400207
 51
141.2604378385011
  0
ARC
  5
1145
  8
0
 10
12.88772096713047
 20
12.5029859165967
 30
0.0
 40
0.0500171967816532
 50
48.04037990909157
 51
82.073503720013463
  0
ARC
  5
1146
  8
0
 10
13.03014987101939
 20
12.68211172814895
 30
0.0
 40
0.1789495310957589
 50
232.4800208157757
 51
267.95612669705889
  0
ARC
  5
1147
  8
0
 10
13.00487753663284
 20
12.796970957907799
 30
0.0
 40
0.2943017849447247
 50
273.68013415862112
 51
303.02926355519611
  0
ARC
  5
1148
  8
0
 10
13.345590847453339
 20
12.29082029805806
 30
0.0
 40
0.31591367536592
 50
92.390122909308261
 51
124.8006200893781
  0
ARC
  5
1149
  8
0
 10
13.35260848812891
 20
12.37996787484856
 30
0.0
 40
0.2273895834708627
 50
69.753573569144152
 51
95.094607424899706
  0
ARC
  5
114A
  8
0
 10
13.961512793053579
 20
13.767939099919349
 30
0.0
 40
1.288753651078363
 50
245.70616733819881
 51
261.95795636289301
  0
ARC
  5
114B
  8
0
 10
13.99801614421353
 20
14.35806365759122
 30
0.0
 40
1.8787549478361221
 50
263.37356990188459
 51
286.27744747518858
  0
ARC
  5
114C
  8
0
 10
15.213629804870751
 20
10.780429682518539
 30
0.0
 40
1.9032838988263441
 50
99.520373812314247
 51
111.22406666727051
  0
ARC
  5
114D
  8
0
 10
14.91682161691314
 20
12.583453633670119
 30
0.0
 40
0.0762002206194191
 50
14.05035705344101
 51
103.6571522775069
  0
LINE
  5
114E
  8
0
 10
14.990742134750001
 20
12.6019531111
 30
0.0
 11
14.998637796392821
 21
12.58258683127846
 31
0.0
  0
ARC
  5
114F
  8
0
 10
15.015364208984661
 20
12.58730887811631
 30
0.0
 40
0.017380181697331
 50
195.76485215510749
 51
265.17032753579389
  0
ARC
  5
1150
  8
0
 10
15.02349884412493
 20
12.42635173508277
 30
0.0
 40
0.1439589756607996
 50
26.195384701448361
 51
93.822810206766817
  0
ARC
  5
1151
  8
0
 10
15.254817554153879
 20
12.57086905966392
 30
0.0
 40
0.1303442352907825
 50
218.40334687197961
 51
248.2085353914058
  0
ARC
  5
1152
  8
0
 10
15.215368192983471
 20
12.488748697432269
 30
0.0
 40
0.0399230675724617
 50
257.06254664968452
 51
307.87508786290368
  0
ARC
  5
1153
  8
0
 10
15.31429626075275
 20
12.36511738722084
 30
0.0
 40
0.1184217313628034
 50
103.24977007523729
 51
128.9330477700567
  0
ARC
  5
1154
  8
0
 10
15.29061478918538
 20
12.42702672703774
 30
0.0
 40
0.0534721102373455
 50
29.206370147744419
 51
93.710409258856075
  0
ARC
  5
1155
  8
0
 10
15.13853778308899
 20
12.309947444196631
 30
0.0
 40
0.2449490433634945
 50
331.47728983926891
 51
35.767283629441962
  0
ARC
  5
1156
  8
0
 10
15.27156197097541
 20
12.2177942823661
 30
0.0
 40
0.0858581407316335
 50
296.64713973115431
 51
343.20278672887559
  0
ARC
  5
1157
  8
0
 10
15.29090307205176
 20
12.20914575136133
 30
0.0
 40
0.0707361878676359
 50
223.61078927217471
 51
285.72067135914352
  0
ARC
  5
1158
  8
0
 10
15.21206780026804
 20
12.121094620769849
 30
0.0
 40
0.048002156344434
 50
54.874013036172308
 51
144.89833941631869
  0
ARC
  5
1159
  8
0
 10
15.601878337360169
 20
11.738189370911149
 30
0.0
 40
0.5938254563005248
 50
136.2673850097465
 51
144.65883630362291
  0
ARC
  5
115A
  8
0
 10
15.017537909212219
 20
12.21084036086023
 30
0.0
 40
0.1633098906245038
 50
269.02981777407632
 51
307.73343808094683
  0
ARC
  5
115B
  8
0
 10
15.016265008119539
 20
12.030237874839919
 30
0.0
 40
0.0173801905807872
 50
94.925397837279164
 51
164.9351745359086
  0
ARC
  5
115C
  8
0
 10
14.880365365398079
 20
12.059330988618949
 30
0.0
 40
0.1216255485141318
 50
311.04102478001892
 51
348.34248168802668
  0
ARC
  5
115D
  8
0
 10
14.91554758862606
 20
12.037710004152659
 30
0.0
 40
0.0831383461864467
 50
255.68497672474101
 51
302.50557250368428
  0
ARC
  5
115E
  8
0
 10
20.417685266892271
 20
33.555800653246138
 30
0.0
 40
22.293535545947929
 50
254.16726258497911
 51
255.65699611705961
  0
ARC
  5
115F
  8
0
 10
14.016361283166541
 20
10.109027475233709
 30
0.0
 40
2.0242935267152791
 50
80.933807464403273
 51
100.468556093377
  0
ARC
  5
1160
  8
0
 10
15.79561333110404
 20
6.0104993636251782
 30
0.0
 40
6.4565720567761966
 50
109.4229159890518
 51
111.1571923156156
  0
ARC
  5
1161
  8
0
 10
13.34416571059147
 20
12.293697640477101
 30
0.0
 40
0.2884839226190112
 50
237.1871805750576
 51
294.8186992390315
  0
ARC
  5
1162
  8
0
 10
12.98983343619631
 20
11.7550563007722
 30
0.0
 40
0.3562750476948691
 50
56.236826895561059
 51
86.273868191631678
  0
ARC
  5
1163
  8
0
 10
13.034719439268439
 20
11.91888412455967
 30
0.0
 40
0.1929220806831141
 50
96.468077749318581
 51
130.0966017510211
  0
ARC
  5
1164
  8
0
 10
12.94660658239583
 20
12.018618059744149
 30
0.0
 40
0.0599617316424249
 50
127.0696546505046
 51
193.75555770552739
  0
ARC
  5
1165
  8
0
 10
12.705546376948
 20
11.95064439640322
 30
0.0
 40
0.1905463492862065
 50
332.08333947349871
 51
16.373930099759839
  0
ARC
  5
1166
  8
0
 10
12.982760582891871
 20
11.80664016099411
 30
0.0
 40
0.1218556965630626
 50
153.27848501920371
 51
164.8660810764907
  0
LINE
  5
1167
  8
0
 10
14.99863778557499
 20
12.58258685781218
 30
0.0
 11
14.99863778557498
 21
12.03096888931614
 31
0.0
  0
ARC
  5
1168
  8
0
 10
12.585193449083491
 20
9.4671005352752768
 30
0.0
 40
1.7707507610255271
 50
87.579068549258537
 51
92.420800689265874
  0
ARC
  5
1169
  8
0
 10
12.323941347340931
 20
21.07245765225133
 30
0.0
 40
9.8379537716239849
 50
269.20583967038618
 51
271.0859903765072
  0
ARC
  5
116A
  8
0
 10
12.16369828167857
 20
11.53260281751119
 30
0.0
 40
0.2981124154701686
 50
261.38578997143691
 51
274.59577494883769
  0
ARC
  5
116B
  8
0
 10
-6.6167169126042307
 20
19.055388743282169
 30
0.0
 40
20.42780497742568
 50
336.98363451500029
 51
337.49010533679308
  0
ARC
  5
116C
  8
0
 10
13.244562433452639
 20
10.637165068313349
 30
0.0
 40
1.1439918246631571
 50
157.86344058946111
 51
181.01216979511551
  0
ARC
  5
116D
  8
0
 10
-2.2105827851916269
 20
10.297006560087899
 30
0.0
 40
14.31490791917658
 50
359.45905816854008
 51
1.280715174189861
  0
ARC
  5
116E
  8
0
 10
14.765447341590511
 20
9.8256440220394303
 30
0.0
 40
2.6829102587989042
 50
172.80093442901671
 51
176.98901546264139
  0
ARC
  5
116F
  8
0
 10
11.824214125326719
 20
10.083581968014469
 30
0.0
 40
0.286966449808027
 50
313.59535242362909
 51
335.93619851256062
  0
ARC
  5
1170
  8
0
 10
11.933434177783459
 20
9.9638378700352064
 30
0.0
 40
0.1249787774662547
 50
274.00090888283711
 51
315.18665036466479
  0
ARC
  5
1171
  8
0
 10
11.94298737765067
 20
9.8913138874052642
 30
0.0
 40
0.0521568691620563
 50
189.92112912512141
 51
269.08472980113669
  0
ARC
  5
1172
  8
0
 10
12.260383490158709
 20
9.9768409978877095
 30
0.0
 40
0.3806918861599849
 50
185.53260283723159
 51
194.37500271255041
  0
ARC
  5
117D
  8
0
 10
12.29449474263666
 20
10.076209508337129
 30
0.0
 40
0.2353516823534915
 50
207.76540629191771
 51
247.83255410024631
  0
ARC
  5
117E
  8
0
 10
12.32083740591529
 20
10.210442138673571
 30
0.0
 40
0.3705331617556436
 50
251.89538217024531
 51
297.49229539731812
  0
ARC
  5
117F
  8
0
 10
12.238418850872661
 20
10.25432525135934
 30
0.0
 40
0.4506178684194801
 50
304.22809433487367
 51
320.31403285219369
  0
ARC
  5
1180
  8
0
 10
12.829502934350611
 20
10.141595761690709
 30
0.0
 40
0.3005338948730519
 50
215.6183130838329
 51
262.54216966776931
  0
ARC
  5
1181
  8
0
 10
12.844757527993099
 20
10.18240489141566
 30
0.0
 40
0.3431185990000821
 50
260.90070130832987
 51
294.35613550047088
  0
ARC
  5
1182
  8
0
 10
12.886594396770761
 20
10.06855647858027
 30
0.0
 40
0.2223246690227673
 50
296.63453073756187
 51
332.69504934118078
  0
ARC
  5
1183
  8
0
 10
13.29606151123585
 20
10.0485534879412
 30
0.0
 40
0.2272200556125623
 50
201.14992799472509
 51
240.99216151263039
  0
ARC
  5
1184
  8
0
 10
13.22498084908336
 20
9.9214046296500467
 30
0.0
 40
0.0815540664995113
 50
241.34739382988619
 51
290.57656059631012
  0
ARC
  5
1185
  8
0
 10
13.217719040707729
 20
9.8967372831980782
 30
0.0
 40
0.0629428602435811
 50
304.80260375447341
 51
349.24857463316022
  0
ARC
  5
1186
  8
0
 10
12.87156542809231
 20
9.9824194756631623
 30
0.0
 40
0.419462232691711
 50
346.56986563342952
 51
357.96877417791382
  0
ARC
  5
1187
  8
0
 10
45.727884640299308
 20
10.601954503888869
 30
0.0
 40
33.148780091113593
 50
178.900821168665
 51
181.0982932372593
  0
ARC
  5
1188
  8
0
 10
13.49778001213803
 20
9.3713083889355602
 30
0.0
 40
0.0854532389899488
 50
359.47489620619069
 51
81.470981789230876
  0
ARC
  5
1189
  8
0
 10
13.5091812423862
 20
9.5611861771872757
 30
0.0
 40
0.1053772689707162
 50
230.49626117808609
 51
270.69182751253709
  0
ARC
  5
118A
  8
0
 10
13.56740523417005
 20
9.6935849404983738
 30
0.0
 40
0.2477089541571929
 50
195.9475172350225
 51
239.62456454433089
  0
ARC
  5
118B
  8
0
 10
13.307010785374359
 20
9.6264001284429028
 30
0.0
 40
0.0222360951606544
 50
357.74508876464381
 51
84.273085038412816
  0
LINE
  5
118C
  8
0
 10
13.309229662399989
 20
9.6485252389000014
 30
0.0
 11
13.29357627045
 21
9.6525467243549024
 31
0.0
  0
ARC
  5
118D
  8
0
 10
13.34767902764777
 20
9.6765558572018886
 30
0.0
 40
0.0242382314676184
 50
277.68704314470182
 51
33.260345995208787
  0
ARC
  5
118E
  8
0
 10
13.267584539601019
 20
9.6672040162404151
 30
0.0
 40
0.1028852345646453
 50
12.71497449536764
 51
70.945591466027651
  0
ARC
  5
118F
  8
0
 10
13.308152052151749
 20
9.7939099274301178
 30
0.0
 40
0.030273289201812
 50
175.60986239497609
 51
256.67154284659648
  0
ARC
  5
1190
  8
0
 10
4.3520941753011027
 20
10.55319209458608
 30
0.0
 40
8.9579133675075582
 50
355.15259072350148
 51
356.10180342495778
  0
ARC
  5
1191
  8
0
 10
13.26412578450946
 20
9.9672124595764551
 30
0.0
 40
0.0266404745479863
 50
0.7302538900561382
 51
12.47956891783299
  0
ARC
  5
1192
  8
0
 10
14.13468499898458
 20
10.20744327215955
 30
0.0
 40
0.876492961751828
 50
177.58245984185211
 51
195.51639119406551
  0
ARC
  5
1193
  8
0
 10
30.037289338296389
 20
10.26955176176115
 30
0.0
 40
16.778336019987819
 50
178.69986899980171
 51
180.08583846554231
  0
ARC
  5
1194
  8
0
 10
12.41138575418422
 20
10.64193493319047
 30
0.0
 40
0.8519275607042834
 50
0.558951601165976
 51
29.704522922558059
  0
ARC
  5
1195
  8
0
 10
4.8890081948222281
 20
6.3519560416449483
 30
0.0
 40
9.5116090146697463
 50
29.696692608136381
 51
30.85606780042772
  0
ARC
  5
1196
  8
0
 10
13.08299270904463
 20
11.245852998415289
 30
0.0
 40
0.0326112892451153
 50
194.20311211264459
 51
208.48402993965249
  0
ARC
  5
1197
  8
0
 10
13.51435051364307
 20
11.349337479465589
 30
0.0
 40
0.476206272420848
 50
175.195954474356
 51
193.5393317147043
  0
ARC
  5
1198
  8
0
 10
12.915727908495329
 20
11.38042815979755
 30
0.0
 40
0.1244002572498801
 50
4.0521812729261013
 51
56.05628544832156
  0
ARC
  5
1199
  8
0
 10
13.173221503191639
 20
11.744975710120849
 30
0.0
 40
0.3219594225421083
 50
163.1216220491095
 51
234.26611170458139
  0
ARC
  5
119A
  8
0
 10
12.84648345075907
 20
21.07245765225133
 30
0.0
 40
9.8379537716239849
 50
268.9140096234928
 51
270.79416032961387
  0
ARC
  5
119B
  8
0
 10
13.00672969493265
 20
11.53274361032534
 30
0.0
 40
0.2982530103957006
 50
265.40578355590441
 51
278.60956295866282
  0
ARC
  5
119C
  8
0
 10
31.78714171070423
 20
19.055388743282169
 30
0.0
 40
20.42780497742568
 50
202.50989466320689
 51
203.01636548499971
  0
ARC
  5
119D
  8
0
 10
11.92586236464736
 20
10.637165068313349
 30
0.0
 40
1.1439918246631571
 50
358.98783020488452
 51
22.136559410538911
  0
ARC
  5
119E
  8
0
 10
27.38100758329163
 20
10.297006560087899
 30
0.0
 40
14.31490791917658
 50
178.71928482581009
 51
180.54094183146
  0
ARC
  5
119F
  8
0
 10
10.43205926816646
 20
9.8285631162590903
 30
0.0
 40
2.6556761743198081
 50
2.9788241735436292
 51
7.209804026940831
  0
ARC
  5
11A3
  8
0
 10
12.462016932243991
 20
14.111377577537869
 30
0.0
 40
2.062032540060307
 50
264.68817505771409
 51
273.46365654946578
  0
ARC
  5
11A4
  8
0
 10
12.68124163839132
 20
13.251280045348761
 30
0.0
 40
1.201900688908867
 50
265.48344751195282
 51
278.3466063008612
  0
ARC
  5
11A5
  8
0
 10
12.908551241637531
 20
11.74391193200222
 30
0.0
 40
0.3225554534229456
 50
89.660495935390514
 51
99.428581645761525
  0
LINE
  5
11B1
  8
0
 10
5.5511869585000024
 20
9.3385252388999991
 30
0.0
 11
3.619203312800003
 21
9.3385252388999991
 31
0.0
  0
LINE
  5
11B2
  8
0
 10
3.707871513100002
 20
9.4666864288999992
 30
0.0
 11
5.4625187582000034
 21
9.4666864288999992
 31
0.0
  0
LINE
  5
11B3
  8
0
 10
5.3496942248000021
 20
9.6528364752999938
 30
0.0
 11
3.8194690874649249
 21
9.6525354432319652
 31
0.0
  0
LINE
  5
11B4
  8
0
 10
4.9040421598000012
 20
12.5658714936
 30
0.0
 11
4.9022779673000008
 21
12.569579794899999
 31
0.0
  0
LINE
  5
11B5
  8
0
 10
4.296471513900002
 20
11.861433115300001
 30
0.0
 11
4.8758351497113788
 21
11.861433115300001
 31
0.0
  0
LINE
  5
11B6
  8
0
 10
5.0147624213053801
 20
12.1358283656169
 30
0.0
 11
5.0147735444000023
 21
12.477423329600001
 31
0.0
  0
LINE
  5
11B7
  8
0
 10
4.8946160594000023
 20
12.552525238899999
 30
0.0
 11
4.2757718033000032
 21
12.552525238899999
 31
0.0
  0
LINE
  5
11B8
  8
0
 10
4.2663481115000019
 20
12.5658714936
 30
0.0
 11
4.9040421598000012
 21
12.5658714936
 31
0.0
  0
LINE
  5
11B9
  8
0
 10
4.1466225913000008
 20
12.109711593557559
 30
0.0
 11
4.1466225913000008
 21
12.5032760429
 31
0.0
  0
LINE
  5
11BA
  8
0
 10
4.2663481115000019
 20
12.5658714936
 30
0.0
 11
4.2681123040000024
 21
12.569579794899999
 31
0.0
  0
ARC
  5
11BB
  8
0
 10
5.5511951357000022
 20
9.3705252388999991
 30
0.0
 40
0.032
 50
270.0
 51
359.99999999779999
  0
ARC
  5
11BC
  8
0
 10
3.6191951357000032
 20
9.3705252388999991
 30
0.0
 40
0.032
 50
180.00000000220001
 51
270.0
  0
ARC
  5
11BD
  8
0
 10
4.585195135700002
 20
12.376525238899999
 30
0.0
 40
0.371229826
 50
31.334970291899971
 51
148.66502970810001
  0
ARC
  5
11BE
  8
0
 10
4.8946186472586186
 20
12.56252523896076
 30
0.0
 40
0.0100000003956077
 50
269.98517266274712
 51
19.549763416014091
  0
ARC
  5
11BF
  8
0
 10
4.2757716236000016
 20
12.562525238899999
 30
0.0
 40
0.01
 50
160.45023540970001
 51
270.0
  0
ARC
  5
11C0
  8
0
 10
5.4977454854380312
 20
9.3713083889355602
 30
0.0
 40
0.0854532389899488
 50
359.47489620619069
 51
81.470981789230876
  0
ARC
  5
11C1
  8
0
 10
5.5091467156862057
 20
9.5611861771872757
 30
0.0
 40
0.1053772689707162
 50
230.49626117808609
 51
270.69182751253709
  0
ARC
  5
11C2
  8
0
 10
5.5673707074700518
 20
9.6935849404983738
 30
0.0
 40
0.2477089541571929
 50
195.9475172350225
 51
239.62456454433089
  0
ARC
  5
11C3
  8
0
 10
5.3069762586743581
 20
9.6264001284429028
 30
0.0
 40
0.0222360951606544
 50
357.74508876464381
 51
84.273085038412816
  0
LINE
  5
11C4
  8
0
 10
5.3091951356999942
 20
9.6485252389000014
 30
0.0
 11
5.292457733575997
 21
9.6528252155063203
 31
0.0
  0
LINE
  5
11C5
  8
0
 10
5.3011402319000007
 20
9.7644592838999991
 30
0.0
 11
3.869215512800003
 21
9.7644508849000005
 31
0.0
  0
ARC
  5
11C6
  8
0
 10
5.3481442620963122
 20
9.6765892531480358
 30
0.0
 40
0.0238032947274382
 50
273.73348308343952
 51
33.852890695256953
  0
ARC
  5
11C7
  8
0
 10
5.2675230990166444
 20
9.6671901054078582
 30
0.0
 40
0.1029145505156239
 50
12.719231220911359
 51
70.93437432052211
  0
ARC
  5
11C8
  8
0
 10
5.3081016847368261
 20
9.7939054224710862
 30
0.0
 40
0.0302578403450576
 50
175.5990608075596
 51
256.69874571770492
  0
ARC
  5
11C9
  8
0
 10
-2.8653750309520478
 20
10.490603814465899
 30
0.0
 40
8.1728590742568201
 50
355.12620183799402
 51
356.32987999936699
  0
ARC
  5
11CA
  8
0
 10
5.2648041810920381
 20
9.9673315609788986
 30
0.0
 40
0.0259186861373016
 50
0.2479449789759058
 51
12.56306150077711
  0
ARC
  5
11CB
  8
0
 10
6.1346504722845854
 20
10.20744327215955
 30
0.0
 40
0.876492961751828
 50
177.58245984185211
 51
195.51639119406551
  0
ARC
  5
11CC
  8
0
 10
22.037254811596391
 20
10.26955176176115
 30
0.0
 40
16.778336019987819
 50
178.69986899980171
 51
180.08583846554231
  0
ARC
  5
11CD
  8
0
 10
4.4113512274842188
 20
10.64193493319047
 30
0.0
 40
0.8519275607042834
 50
0.558951601165976
 51
29.704522922558059
  0
ARC
  5
11CE
  8
0
 10
-3.11102633187777
 20
6.3519560416449483
 30
0.0
 40
9.5116090146697463
 50
29.696692608136381
 51
30.85606780042772
  0
ARC
  5
11CF
  8
0
 10
5.0829499040626072
 20
11.245849153340879
 30
0.0
 40
0.0326021792844423
 50
194.19686114107361
 51
208.4850288553634
  0
ARC
  5
11D0
  8
0
 10
5.5143112812234012
 20
11.34933749736137
 30
0.0
 40
0.4762015817340194
 50
175.19590920306109
 51
193.53924232216451
  0
ARC
  5
11D1
  8
0
 10
4.9156933817953323
 20
11.38042815979755
 30
0.0
 40
0.1244002572498801
 50
4.0521812729261013
 51
56.05628544832156
  0
ARC
  5
11D2
  8
0
 10
5.1731869764916327
 20
11.744975710120849
 30
0.0
 40
0.3219594225421031
 50
161.20839571696931
 51
234.26611170458199
  0
ARC
  5
11D3
  8
0
 10
4.7132101004543516
 20
11.947891504761751
 30
0.0
 40
0.1841791512472877
 50
327.40973570316032
 51
18.473271963388839
  0
ARC
  5
11D4
  8
0
 10
4.9613869380746136
 20
12.017414670030499
 30
0.0
 40
0.0743320353755413
 50
135.82574621803559
 51
188.63794165466101
  0
ARC
  5
11D5
  8
0
 10
5.1343459095252424
 20
11.91236101806877
 30
0.0
 40
0.2753202392509038
 50
127.72992124208329
 51
145.27032141330639
  0
ARC
  5
11D6
  8
0
 10
5.0000823193610611
 20
12.049405584108101
 30
0.0
 40
0.0876607241403603
 50
61.65273891375697
 51
112.97454373164619
  0
ARC
  5
11D7
  8
0
 10
5.4209938871816368
 20
12.70982863132742
 30
0.0
 40
0.6957505217213214
 50
236.96502598459469
 51
246.6014323527811
  0
ARC
  5
11D8
  8
0
 10
5.2161854440337354
 20
12.26306246999251
 30
0.0
 40
0.2046616193939146
 50
249.55455513705419
 51
303.90977209959863
  0
ARC
  5
11D9
  8
0
 10
5.1956623679785512
 20
12.30020032977016
 30
0.0
 40
0.2469600296002613
 50
303.05451138404459
 51
1.657597522778788
  0
ARC
  5
11DA
  8
0
 10
5.1911636600826654
 20
12.313278798218549
 30
0.0
 40
0.2514254485429836
 50
358.64743418622442
 51
59.927842480446962
  0
ARC
  5
11DB
  8
0
 10
5.2147731809084368
 20
12.33748301349876
 30
0.0
 40
0.2188063354267701
 50
62.102573122565879
 51
126.6278069445473
  0
ARC
  5
11DC
  8
0
 10
4.9147216643745271
 20
12.75778531360019
 30
0.0
 40
0.2976797283150423
 50
289.63979430775157
 51
304.7106587974157
  0
ARC
  5
11DD
  8
0
 10
4.9987751680974588
 20
12.54110856378812
 30
0.0
 40
0.065663970942043
 50
224.51034149943931
 51
284.10148136857879
  0
ARC
  5
11DE
  8
0
 10
5.2268522755126732
 20
12.778371224459001
 30
0.0
 40
0.3947510818059369
 50
217.59252698835951
 51
225.86131728968459
  0
ARC
  5
11DF
  8
0
 10
4.882863713643613
 20
12.512525353936841
 30
0.0
 40
0.0399998849632149
 50
38.739562161498988
 51
89.999906383599708
  0
ARC
  5
11E0
  8
0
 10
4.2826693042695281
 20
12.5029859165967
 30
0.0
 40
0.0500171967816532
 50
97.926496279986637
 51
131.9596200909084
  0
ARC
  5
11E1
  8
0
 10
4.1402404003806073
 20
12.68211172814895
 30
0.0
 40
0.1789495310957589
 50
272.04387330294111
 51
307.51997918422433
  0
ARC
  5
11E2
  8
0
 10
4.1655127347671561
 20
12.796970957907799
 30
0.0
 40
0.2943017849447247
 50
236.97073644480389
 51
266.31986584137888
  0
ARC
  5
11E3
  8
0
 10
3.8247994239466609
 20
12.29082029805806
 30
0.0
 40
0.31591367536592
 50
55.1993799106219
 51
87.609877090691825
  0
ARC
  5
11E4
  8
0
 10
3.8177817832710899
 20
12.37996787484856
 30
0.0
 40
0.2273895834708627
 50
84.905392575100251
 51
110.24642643085581
  0
ARC
  5
11E5
  8
0
 10
3.2088774783464169
 20
13.767939099919349
 30
0.0
 40
1.288753651078363
 50
278.0420436371071
 51
294.2938326618011
  0
ARC
  5
11E6
  8
0
 10
3.172374127186472
 20
14.35806365759122
 30
0.0
 40
1.8787549478361221
 50
253.72255252481139
 51
276.62643009811541
  0
ARC
  5
11E7
  8
0
 10
1.9567604665292491
 20
10.780429682518539
 30
0.0
 40
1.9032838988263441
 50
68.77593333272938
 51
80.479626187685767
  0
ARC
  5
11E8
  8
0
 10
2.2535686544868638
 20
12.583453633670119
 30
0.0
 40
0.0762002206194191
 50
76.342847722492976
 51
165.94964294655901
  0
LINE
  5
11E9
  8
0
 10
2.1796481366500009
 20
12.6019531111
 30
0.0
 11
2.1717524750071791
 21
12.58258683127846
 31
0.0
  0
ARC
  5
11EA
  8
0
 10
2.1550260624153448
 20
12.58730887811631
 30
0.0
 40
0.017380181697331
 50
274.82967246420623
 51
344.23514784489242
  0
ARC
  5
11EB
  8
0
 10
2.1468914272750679
 20
12.42635173508277
 30
0.0
 40
0.1439589756607996
 50
86.177189793233239
 51
153.8046152985516
  0
ARC
  5
11EC
  8
0
 10
1.915572717246121
 20
12.57086905966392
 30
0.0
 40
0.1303442352907825
 50
291.79146460859431
 51
321.59665312802042
  0
ARC
  5
11ED
  8
0
 10
1.9550220784165331
 20
12.488748697432269
 30
0.0
 40
0.0399230675724617
 50
232.12491213709629
 51
282.93745335031548
  0
ARC
  5
11EE
  8
0
 10
1.8560940106472481
 20
12.36511738722084
 30
0.0
 40
0.1184217313628034
 50
51.066952229943283
 51
76.750229924762607
  0
ARC
  5
11EF
  8
0
 10
1.879775482214622
 20
12.42702672703774
 30
0.0
 40
0.0534721102373455
 50
86.289590741143996
 51
150.79362985225549
  0
ARC
  5
11F0
  8
0
 10
2.0318524883110078
 20
12.309947444196631
 30
0.0
 40
0.2449490433634945
 50
144.23271637055811
 51
208.52271016073109
  0
ARC
  5
11F1
  8
0
 10
1.8988283004245929
 20
12.2177942823661
 30
0.0
 40
0.0858581407316335
 50
196.79721327112441
 51
243.35286026884569
  0
ARC
  5
11F2
  8
0
 10
1.87948719934824
 20
12.20914575136133
 30
0.0
 40
0.0707361878676359
 50
254.27932864085651
 51
316.38921072782517
  0
ARC
  5
11F3
  8
0
 10
1.95832247113196
 20
12.121094620769849
 30
0.0
 40
0.048002156344434
 50
35.10166058368128
 51
125.1259869638277
  0
ARC
  5
11F4
  8
0
 10
1.568511934039831
 20
11.738189370911149
 30
0.0
 40
0.5938254563005248
 50
35.341163696377038
 51
43.732614990253488
  0
ARC
  5
11F5
  8
0
 10
2.1528523621877831
 20
12.21084036086023
 30
0.0
 40
0.1633098906245038
 50
232.26656191905329
 51
270.97018222592362
  0
ARC
  5
11F6
  8
0
 10
2.1541252632804611
 20
12.030237874839919
 30
0.0
 40
0.0173801905807872
 50
15.064825464091371
 51
85.074602162720808
  0
ARC
  5
11F7
  8
0
 10
2.2900249060019151
 20
12.059330988618949
 30
0.0
 40
0.1216255485141318
 50
191.65751831197321
 51
228.9589752199812
  0
ARC
  5
11F8
  8
0
 10
2.2548426827739361
 20
12.037710004152659
 30
0.0
 40
0.0831383461864467
 50
237.49442749631561
 51
284.31502327525908
  0
ARC
  5
11F9
  8
0
 10
-3.2472949954922639
 20
33.555800653246138
 30
0.0
 40
22.293535545947929
 50
284.34300388294042
 51
285.83273741502097
  0
ARC
  5
11FA
  8
0
 10
3.154028988233458
 20
10.109027475233709
 30
0.0
 40
2.0242935267152791
 50
79.531443906622854
 51
99.066192535596684
  0
ARC
  5
11FB
  8
0
 10
1.3747769402959591
 20
6.0104993636251782
 30
0.0
 40
6.4565720567761966
 50
68.842807684384411
 51
70.577084010948155
  0
ARC
  5
11FC
  8
0
 10
3.8262245608085279
 20
12.293697640477101
 30
0.0
 40
0.2884839226190112
 50
245.1813007609685
 51
302.81281942494252
  0
ARC
  5
11FD
  8
0
 10
4.1805568352036877
 20
11.7550563007722
 30
0.0
 40
0.3562750476948691
 50
93.726131808368265
 51
123.76317310443901
  0
ARC
  5
11FE
  8
0
 10
4.1356708321315567
 20
11.91888412455967
 30
0.0
 40
0.1929220806831141
 50
49.903398248978888
 51
83.531922250681546
  0
ARC
  5
11FF
  8
0
 10
4.2237836890041729
 20
12.018618059744149
 30
0.0
 40
0.0599617316424249
 50
346.24444229447261
 51
52.930345349495433
  0
ARC
  5
1200
  8
0
 10
4.4648438944520024
 20
11.95064439640322
 30
0.0
 40
0.1905463492862065
 50
163.62606990024011
 51
207.91666052650129
  0
ARC
  5
1201
  8
0
 10
4.1876296885081263
 20
11.80664016099411
 30
0.0
 40
0.1218556965630626
 50
15.13391892350935
 51
26.721514980796329
  0
LINE
  5
1202
  8
0
 10
2.171752485825015
 20
12.58258685781218
 30
0.0
 11
2.1717524858250168
 21
12.03096888931614
 31
0.0
  0
ARC
  5
1203
  8
0
 10
4.585196822316508
 20
9.4671005352752768
 30
0.0
 40
1.7707507610255271
 50
87.579199310734126
 51
92.420931450741406
  0
ARC
  5
1204
  8
0
 10
4.8464489240590689
 20
21.07245765225133
 30
0.0
 40
9.8379537716239849
 50
268.9140096234928
 51
270.79416032961387
  0
ARC
  5
1205
  8
0
 10
5.0066919897214328
 20
11.53260281751119
 30
0.0
 40
0.2981124154701686
 50
265.40422505116231
 51
278.61421002856309
  0
ARC
  5
1206
  8
0
 10
23.787107184004231
 20
19.055388743282169
 30
0.0
 40
20.42780497742568
 50
202.50989466320689
 51
203.01636548499971
  0
ARC
  5
1207
  8
0
 10
3.9258278379473639
 20
10.637165068313349
 30
0.0
 40
1.1439918246631571
 50
358.98783020488452
 51
22.136559410538911
  0
ARC
  5
1208
  8
0
 10
19.380973056591628
 20
10.297006560087899
 30
0.0
 40
14.31490791917658
 50
178.71928482581009
 51
180.54094183146
  0
ARC
  5
1209
  8
0
 10
2.4049429298094882
 20
9.8256440220394303
 30
0.0
 40
2.6829102587989042
 50
3.0109845373585218
 51
7.199065570983235
  0
ARC
  5
120A
  8
0
 10
5.3461761460732786
 20
10.083581968014469
 30
0.0
 40
0.286966449808027
 50
204.06380148743941
 51
226.40464757637099
  0
ARC
  5
120B
  8
0
 10
5.2369560936165387
 20
9.9638378700352064
 30
0.0
 40
0.1249787774662547
 50
224.81334963533519
 51
265.99909111716289
  0
ARC
  5
120C
  8
0
 10
5.2274028937493258
 20
9.8913138874052642
 30
0.0
 40
0.0521568691620563
 50
270.91527019886331
 51
350.07887087487848
  0
ARC
  5
120D
  8
0
 10
4.9100067812412931
 20
9.9768409978877095
 30
0.0
 40
0.3806918861599849
 50
345.62499728744962
 51
354.46739716276841
  0
ARC
  5
120E
  8
0
 10
4.8758955287633441
 20
10.076209508337129
 30
0.0
 40
0.2353516823534915
 50
292.16744589975372
 51
332.2345937080824
  0
ARC
  5
120F
  8
0
 10
4.8495528654847071
 20
10.210442138673571
 30
0.0
 40
0.3705331617556436
 50
242.50770460268191
 51
288.1046178297546
  0
ARC
  5
1210
  8
0
 10
4.9319714205273453
 20
10.25432525135934
 30
0.0
 40
0.4506178684194801
 50
219.6859671478062
 51
235.7719056651263
  0
ARC
  5
1211
  8
0
 10
4.3408873370493932
 20
10.141595761690709
 30
0.0
 40
0.3005338948730519
 50
277.45783033223063
 51
324.38168691616721
  0
ARC
  5
1212
  8
0
 10
4.3256327434069011
 20
10.18240489141566
 30
0.0
 40
0.3431185990000821
 50
245.64386449952909
 51
279.09929869167013
  0
ARC
  5
1213
  8
0
 10
4.2837958746292433
 20
10.06855647858027
 30
0.0
 40
0.2223246690227673
 50
207.30495065881919
 51
243.36546926243821
  0
ARC
  5
1214
  8
0
 10
3.8743287601641518
 20
10.0485534879412
 30
0.0
 40
0.2272200556125623
 50
299.00783848736961
 51
338.85007200527502
  0
ARC
  5
1215
  8
0
 10
3.9454094223166378
 20
9.9214046296500467
 30
0.0
 40
0.0815540664995113
 50
249.4234394036898
 51
298.6526061701137
  0
ARC
  5
1216
  8
0
 10
3.9526712306922671
 20
9.8967372831980782
 30
0.0
 40
0.0629428602435811
 50
190.75142536683981
 51
235.19739624552659
  0
ARC
  5
1217
  8
0
 10
4.2988248433076883
 20
9.9824194756631623
 30
0.0
 40
0.419462232691711
 50
182.03122582208621
 51
193.43013436657051
  0
ARC
  5
1218
  8
0
 10
-28.55749436889932
 20
10.601954503888869
 30
0.0
 40
33.148780091113593
 50
358.90170676274067
 51
1.0991788313349571
  0
ARC
  5
1219
  8
0
 10
3.672610259261972
 20
9.3713083889355602
 30
0.0
 40
0.0854532389899488
 50
98.529018210769138
 51
180.52510379380931
  0
ARC
  5
121A
  8
0
 10
3.6612090290137971
 20
9.5611861771872757
 30
0.0
 40
0.1053772689707162
 50
269.30817248746291
 51
309.50373882191388
  0
ARC
  5
121B
  8
0
 10
3.602985037229951
 20
9.6935849404983738
 30
0.0
 40
0.2477089541571929
 50
300.37543545566911
 51
344.05248276497753
  0
ARC
  5
121C
  8
0
 10
3.8633794860256438
 20
9.6264001284429028
 30
0.0
 40
0.0222360951606544
 50
95.726914961587156
 51
182.25491123535619
  0
LINE
  5
121D
  8
0
 10
3.861160609000009
 20
9.6485252389000014
 30
0.0
 11
3.8768140009499952
 21
9.6525467243549024
 31
0.0
  0
ARC
  5
121E
  8
0
 10
3.8227112437522321
 20
9.6765558572018886
 30
0.0
 40
0.0242382314676184
 50
146.73965400479119
 51
262.3129568552983
  0
ARC
  5
121F
  8
0
 10
3.902805731798983
 20
9.6672040162404151
 30
0.0
 40
0.1028852345646453
 50
109.05440853397231
 51
167.28502550463239
  0
ARC
  5
1220
  8
0
 10
3.8622382192482521
 20
9.7939099274301178
 30
0.0
 40
0.030273289201812
 50
283.32845715340352
 51
4.3901376050238756
  0
ARC
  5
1221
  8
0
 10
12.818296096098891
 20
10.55319209458608
 30
0.0
 40
8.9579133675075582
 50
183.89819657504219
 51
184.84740927649841
  0
ARC
  5
1222
  8
0
 10
3.9062644868905418
 20
9.9672124595764551
 30
0.0
 40
0.0266404745479863
 50
167.52043108216699
 51
179.26974610994381
  0
ARC
  5
1223
  8
0
 10
3.0357052724154179
 20
10.20744327215955
 30
0.0
 40
0.876492961751828
 50
344.48360880593452
 51
2.4175401581478391
  0
ARC
  5
1224
  8
0
 10
-12.866899066896391
 20
10.26955176176115
 30
0.0
 40
16.778336019987819
 50
359.91416153445772
 51
1.3001310001982731
  0
ARC
  5
1225
  8
0
 10
4.7590045172157831
 20
10.64193493319047
 30
0.0
 40
0.8519275607042834
 50
150.29547707744189
 51
179.441048398834
  0
ARC
  5
1226
  8
0
 10
12.281382076577771
 20
6.3519560416449483
 30
0.0
 40
9.5116090146697463
 50
149.14393219957219
 51
150.3033073918636
  0
ARC
  5
1227
  8
0
 10
4.0873975623553731
 20
11.245852998415289
 30
0.0
 40
0.0326112892451153
 50
331.51597006034751
 51
345.79688788735541
  0
ARC
  5
1228
  8
0
 10
3.656039757756929
 20
11.349337479465589
 30
0.0
 40
0.476206272420848
 50
346.4606682852957
 51
4.8040455256439847
  0
ARC
  5
1229
  8
0
 10
4.2546623629046714
 20
11.38042815979755
 30
0.0
 40
0.1244002572498801
 50
123.9437145516784
 51
175.94781872707389
  0
ARC
  5
122A
  8
0
 10
3.9971687682083639
 20
11.744975710120849
 30
0.0
 40
0.3219594225421083
 50
305.73388829541858
 51
16.878377950890432
  0
ARC
  5
122B
  8
0
 10
4.323906820640933
 20
21.07245765225133
 30
0.0
 40
9.8379537716239849
 50
269.20583967038613
 51
271.08599037650731
  0
ARC
  5
122C
  8
0
 10
4.1636605764673522
 20
11.53274361032534
 30
0.0
 40
0.2982530103957006
 50
261.39043704133712
 51
274.59421644409559
  0
ARC
  5
122D
  8
0
 10
-14.616751439304229
 20
19.055388743282169
 30
0.0
 40
20.42780497742568
 50
336.98363451500029
 51
337.49010533679308
  0
ARC
  5
122E
  8
0
 10
5.244527906752638
 20
10.637165068313349
 30
0.0
 40
1.1439918246631571
 50
157.86344058946111
 51
181.01216979511551
  0
ARC
  5
122F
  8
0
 10
-10.210617311891619
 20
10.297006560087899
 30
0.0
 40
14.31490791917658
 50
359.45905816854008
 51
1.2807151741898779
  0
ARC
  5
1230
  8
0
 10
6.7383310032335446
 20
9.8285631162590903
 30
0.0
 40
2.6556761743198081
 50
172.79019597305921
 51
177.0211758264563
  0
ARC
  5
1231
  8
0
 10
4.7083733391560063
 20
14.111377577537869
 30
0.0
 40
2.062032540060307
 50
266.53634345053422
 51
275.3118249422858
  0
ARC
  5
1232
  8
0
 10
4.4891486330086829
 20
13.251280045348761
 30
0.0
 40
1.201900688908867
 50
261.6533936991388
 51
274.5165524880473
  0
ARC
  5
1233
  8
0
 10
4.2618390297624709
 20
11.74391193200222
 30
0.0
 40
0.3225554534229456
 50
80.571418354238389
 51
90.339504064609557
  0
ATTDEF
  5
1534
  8
DEFPOINTS
 10
8.5769902348721292
 20
9.3299520871789792
 30
0.0
 40
0.001
  1
K-13491-4
  3

  2
MODELNUMBER
 70
     0
1001
ACDBATTR
1070
     0
1070
     1
  0
ATTDEF
  5
1535
  8
DEFPOINTS
 10
8.5769902348721292
 20
9.3282854205123158
 30
0.0
 40
0.001
  1
KELSTON
  3

  2
TRADENAME
 70
     0
1001
ACDBATTR
1070
     0
1070
     1
  0
ATTDEF
  5
1536
  8
DEFPOINTS
 10
8.5769902348721292
 20
9.3266187538456506
 30
0.0
 40
0.001
  1
BATHROOM SINK FAUCET
  3

  2
PRODUCT
 70
     0
1001
ACDBATTR
1070
     0
1070
     1
  0
ATTDEF
  5
1537
  8
DEFPOINTS
 10
8.5769902348721292
 20
9.3249520871789855
 30
0.0
 40
0.001
  1
METAL
  3

  2
MATERIAL
 70
     0
1001
ACDBATTR
1070
     0
1070
     1
  0
ENDSEC
  0
EOF
