  0
SECTION
  2
HEADER
  9
$ACADVER
  1
AC1009
  9
$INSBASE
 10
0.0
 20
0.0
 30
0.0
  9
$EXTMIN
 10
-103.2066961489618
 20
-23.15537853166461
 30
-1.9019864224101179
  9
$EXTMAX
 10
22542.22581107216
 20
128066.0853993385
 30
66.982275345886592
  9
$LIMMIN
 10
0.0
 20
0.0
  9
$LIMMAX
 10
12.0
 20
9.0
  9
$ORTHOMODE
 70
     0
  9
$REGENMODE
 70
     1
  9
$FILLMODE
 70
     1
  9
$QTEXTMODE
 70
     0
  9
$MIRRTEXT
 70
     0
  9
$DRAGMODE
 70
     2
  9
$LTSCALE
 40
1.0
  9
$OSMODE
 70
    37
  9
$ATTMODE
 70
     1
  9
$TEXTSIZE
 40
0.001
  9
$TRACEWID
 40
0.05
  9
$TEXTSTYLE
  7
STANDARD
  9
$CLAYER
  8
0
  9
$CELTYPE
  6
BYLAYER
  9
$CECOLOR
 62
   256
  9
$DIMSCALE
 40
1.0
  9
$DIMASZ
 40
0.18
  9
$DIMEXO
 40
0.0625
  9
$DIMDLI
 40
0.38
  9
$DIMRND
 40
0.0
  9
$DIMDLE
 40
0.0
  9
$DIMEXE
 40
0.18
  9
$DIMTP
 40
0.0
  9
$DIMTM
 40
0.0
  9
$DIMTXT
 40
0.18
  9
$DIMCEN
 40
0.09
  9
$DIMTSZ
 40
0.0
  9
$DIMTOL
 70
     0
  9
$DIMLIM
 70
     0
  9
$DIMTIH
 70
     1
  9
$DIMTOH
 70
     1
  9
$DIMSE1
 70
     0
  9
$DIMSE2
 70
     0
  9
$DIMTAD
 70
     0
  9
$DIMZIN
 70
     0
  9
$DIMBLK
  1

  9
$DIMASO
 70
     1
  9
$DIMSHO
 70
     1
  9
$DIMPOST
  1

  9
$DIMAPOST
  1

  9
$DIMALT
 70
     0
  9
$DIMALTD
 70
     2
  9
$DIMALTF
 40
25.399999999999999
  9
$DIMLFAC
 40
1.0
  9
$DIMTOFL
 70
     0
  9
$DIMTVP
 40
0.0
  9
$DIMTIX
 70
     0
  9
$DIMSOXD
 70
     0
  9
$DIMSAH
 70
     0
  9
$DIMBLK1
  1

  9
$DIMBLK2
  1

  9
$DIMSTYLE
  2
STANDARD
  9
$DIMCLRD
 70
     0
  9
$DIMCLRE
 70
     0
  9
$DIMCLRT
 70
     0
  9
$DIMTFAC
 40
1.0
  9
$DIMGAP
 40
0.09
  9
$LUNITS
 70
     2
  9
$LUPREC
 70
     4
  9
$SKETCHINC
 40
0.1
  9
$FILLETRAD
 40
2.0
  9
$AUNITS
 70
     0
  9
$AUPREC
 70
     0
  9
$MENU
  1
.
  9
$ELEVATION
 40
0.0
  9
$PELEVATION
 40
0.0
  9
$THICKNESS
 40
0.0
  9
$LIMCHECK
 70
     0
  9
$BLIPMODE
 70
     0
  9
$CHAMFERA
 40
0.0
  9
$CHAMFERB
 40
0.0
  9
$SKPOLY
 70
     0
  9
$TDCREATE
 40
2453376.249240764
  9
$TDUPDATE
 40
2453411.4600177198
  9
$TDINDWG
 40
0.3841236921
  9
$TDUSRTIMER
 40
0.3841235069
  9
$USRTIMER
 70
     1
  9
$ANGBASE
 50
0.0
  9
$ANGDIR
 70
     0
  9
$PDMODE
 70
     0
  9
$PDSIZE
 40
0.0
  9
$PLINEWID
 40
0.0
  9
$COORDS
 70
     1
  9
$SPLFRAME
 70
     0
  9
$SPLINETYPE
 70
     6
  9
$SPLINESEGS
 70
     8
  9
$ATTDIA
 70
     0
  9
$ATTREQ
 70
     1
  9
$HANDLING
 70
     1
  9
$HANDSEED
  5
1E400
  9
$SURFTAB1
 70
     6
  9
$SURFTAB2
 70
     6
  9
$SURFTYPE
 70
     6
  9
$SURFU
 70
     6
  9
$SURFV
 70
     6
  9
$UCSNAME
  2

  9
$UCSORG
 10
0.0
 20
0.0
 30
0.0
  9
$UCSXDIR
 10
1.0
 20
0.0
 30
0.0
  9
$UCSYDIR
 10
0.0
 20
1.0
 30
0.0
  9
$PUCSNAME
  2

  9
$PUCSORG
 10
0.0
 20
0.0
 30
0.0
  9
$PUCSXDIR
 10
1.0
 20
0.0
 30
0.0
  9
$PUCSYDIR
 10
0.0
 20
1.0
 30
0.0
  9
$USERI1
 70
     0
  9
$USERI2
 70
     0
  9
$USERI3
 70
     0
  9
$USERI4
 70
     0
  9
$USERI5
 70
     0
  9
$USERR1
 40
0.0
  9
$USERR2
 40
0.0
  9
$USERR3
 40
0.0
  9
$USERR4
 40
0.0
  9
$USERR5
 40
0.0
  9
$WORLDVIEW
 70
     1
  9
$SHADEDGE
 70
     3
  9
$SHADEDIF
 70
    70
  9
$TILEMODE
 70
     1
  9
$MAXACTVP
 70
    64
  9
$PLIMCHECK
 70
     0
  9
$PEXTMIN
 10
0.0
 20
0.0
 30
0.0
  9
$PEXTMAX
 10
0.0
 20
0.0
 30
0.0
  9
$PLIMMIN
 10
0.0
 20
0.0
  9
$PLIMMAX
 10
12.0
 20
9.0
  9
$UNITMODE
 70
     0
  9
$VISRETAIN
 70
     1
  9
$PLINEGEN
 70
     0
  9
$PSLTSCALE
 70
     1
  0
ENDSEC
  0
SECTION
  2
TABLES
  0
TABLE
  2
VPORT
 70
     2
  0
VPORT
  2
*ACTIVE
 70
     0
 10
0.0
 20
0.0
 11
1.0
 21
1.0
 12
11219.509557461601
 22
64021.465010403423
 13
0.0
 23
0.0
 14
0.5
 24
0.5
 15
0.5
 25
0.5
 16
0.0
 26
0.0
 36
1.0
 17
0.0
 27
0.0
 37
0.0
 40
129670.5894294488
 41
1.9608247422680409
 42
50.0
 43
0.0
 44
0.0
 50
0.0
 51
0.0
 71
     0
 72
 10000
 73
     1
 74
     3
 75
     0
 76
     0
 77
     0
 78
     0
  0
ENDTAB
  0
TABLE
  2
LTYPE
 70
     1
  0
LTYPE
  2
CONTINUOUS
 70
     0
  3
Solid line
 72
    65
 73
     0
 40
0.0
  0
ENDTAB
  0
TABLE
  2
LAYER
 70
     3
  0
LAYER
  2
0
 70
     0
 62
     7
  6
CONTINUOUS
  0
LAYER
  2
ASHADE
 70
     0
 62
     7
  6
CONTINUOUS
  0
LAYER
  2
DEFPOINTS
 70
     0
 62
     7
  6
CONTINUOUS
  0
ENDTAB
  0
TABLE
  2
STYLE
 70
     2
  0
STYLE
  2
STANDARD
 70
     0
 40
0.0
 41
1.0
 50
0.0
 71
     0
 42
0.001
  3
txt
  4

  0
STYLE
  2
ASHADE
 70
     0
 40
0.2
 41
1.0
 50
0.0
 71
     0
 42
0.2
  3
simplex
  4

  0
ENDTAB
  0
TABLE
  2
VIEW
 70
     0
  0
ENDTAB
  0
TABLE
  2
UCS
 70
     0
  0
ENDTAB
  0
TABLE
  2
APPID
 70
     6
  0
APPID
  2
ACAD
 70
     0
  0
APPID
  2
AVE_RENDER
 70
     0
  0
APPID
  2
AVE_ENTITY_MATERIAL
 70
     0
  0
APPID
  2
AVE_FINISH
 70
     0
  0
APPID
  2
AVE_MATERIAL
 70
     0
  0
APPID
  2
AVE_GLOBAL
 70
     0
  0
ENDTAB
  0
TABLE
  2
DIMSTYLE
 70
     1
  0
DIMSTYLE
  2
STANDARD
 70
     0
  3

  4

  5

  6

  7

 40
1.0
 41
0.18
 42
0.0625
 43
0.38
 44
0.18
 45
0.0
 46
0.0
 47
0.0
 48
0.0
140
0.18
141
0.09
142
0.0
143
25.399999999999999
144
1.0
145
0.0
146
1.0
147
0.09
 71
     0
 72
     0
 73
     1
 74
     1
 75
     0
 76
     0
 77
     0
 78
     0
170
     0
171
     2
172
     0
173
     0
174
     0
175
     0
176
     0
177
     0
178
     0
  0
ENDTAB
  0
ENDSEC
  0
SECTION
  2
BLOCKS
  0
BLOCK
  8
0
  2
$MODEL_SPACE
 70
     0
 10
0.0
 20
0.0
 30
0.0
  3
$MODEL_SPACE
  1

  0
ENDBLK
  5
1E278
  8
0
  0
BLOCK
 67
     1
  8
0
  2
$PAPER_SPACE
 70
     0
 10
0.0
 20
0.0
 30
0.0
  3
$PAPER_SPACE
  1

  0
ENDBLK
  5
1E274
 67
     1
  8
0
  0
BLOCK
  8
ASHADE
  2
AVE_RENDER
 70
     0
 10
0.0
 20
0.0
 30
0.0
  3
AVE_RENDER
  1
AVE_RENDER
  0
ENDBLK
  5
91
  8
0
  0
BLOCK
  8
ASHADE
  2
AVE_GLOBAL
 70
     0
 10
0.0
 20
0.0
 30
0.0
  3
AVE_GLOBAL
  1
AVE_GLOBAL
  0
ENDBLK
  5
9F
  8
0
  0
BLOCK
  8
ASHADE
  2
RM_SDB
 70
     2
 10
0.0
 20
0.0
 30
0.0
  3
RM_SDB
  1
RM_SDB
  0
ATTDEF
  5
1A183
  8
ASHADE
  6
CONTINUOUS
 62
     1
 10
0.0000000000000001
 20
-0.15
 30
0.0
 40
0.2
  1

 41
100.0
  7
ASHADE
 72
     1
 11
0.0000000000000001
 21
-0.15
 31
0.0
  3
Name
  2
NAME
 70
     0
  0
ENDBLK
  5
2CD
  8
0
  0
ENDSEC
  0
SECTION
  2
ENTITIES
  0
CIRCLE
  5
1DFD0
  8
ASHADE
 10
11220.45097522845
 20
88803.459823626006
 30
19.53753647511985
 40
4501.549661159509
  0
ATTDEF
  5
1E247
  8
0
 10
0.0
 20
0.0
 30
0.0
 40
0.001
  1
K-14404-4A
  3

  2
MODELNUMBER
 70
     8
  0
ATTDEF
  5
1E248
  8
0
 10
0.0
 20
-0.0016666666666667
 30
0.0
 40
0.001
  1
PURIST
  3

  2
TRADENAME
 70
     8
  0
ATTDEF
  5
1E249
  8
0
 10
0.0
 20
-0.0033333333333333
 30
0.0
 40
0.001
  1
FAUCETS
  3

  2
PRODUCT
 70
     8
  0
ATTDEF
  5
1E24A
  8
0
 10
0.0
 20
-0.005
 30
0.0
 40
0.001
  1
BRASS
  3

  2
MATERIAL
 70
     8
  0
POLYLINE
  5
1E2D1
  8
ASHADE
 66
     1
 10
0.0
 20
0.0
 30
66.171810073679808
  0
VERTEX
  5
1E35A
  8
ASHADE
 10
7271.7585076942642
 20
79282.683741513203
 30
66.171810073679808
  0
VERTEX
  5
1E35B
  8
ASHADE
 10
7275.7585076942623
 20
79159.683741513203
 30
66.171810073679808
  0
VERTEX
  5
1E35C
  8
ASHADE
 10
7290.7585076942614
 20
79036.683741513203
 30
66.171810073679808
  0
VERTEX
  5
1E35D
  8
ASHADE
 10
7313.7585076942614
 20
78913.683741513203
 30
66.171810073679808
  0
VERTEX
  5
1E35E
  8
ASHADE
 10
7347.7585076942623
 20
78792.683741513203
 30
66.171810073679808
  0
VERTEX
  5
1E35F
  8
ASHADE
 10
7389.7585076942642
 20
78672.683741513203
 30
66.171810073679808
  0
VERTEX
  5
1E360
  8
ASHADE
 10
7441.7585076942614
 20
78553.683741513203
 30
66.171810073679808
  0
VERTEX
  5
1E361
  8
ASHADE
 10
7502.7585076942614
 20
78436.683741513203
 30
66.171810073679808
  0
VERTEX
  5
1E362
  8
ASHADE
 10
7571.7585076942642
 20
78321.683741513203
 30
66.171810073679808
  0
VERTEX
  5
1E363
  8
ASHADE
 10
7650.7585076942623
 20
78208.683741513203
 30
66.171810073679808
  0
VERTEX
  5
1E364
  8
ASHADE
 10
7737.7585076942623
 20
78098.683741513203
 30
66.171810073679808
  0
VERTEX
  5
1E365
  8
ASHADE
 10
7833.7585076942623
 20
77991.683741513203
 30
66.171810073679808
  0
VERTEX
  5
1E366
  8
ASHADE
 10
7937.7585076942642
 20
77887.683741513203
 30
66.171810073679808
  0
VERTEX
  5
1E367
  8
ASHADE
 10
8049.7585076942623
 20
77786.683741513203
 30
66.171810073679808
  0
VERTEX
  5
1E368
  8
ASHADE
 10
8168.7585076942623
 20
77689.683741513203
 30
66.171810073679808
  0
VERTEX
  5
1E369
  8
ASHADE
 10
8295.7585076942614
 20
77595.683741513203
 30
66.171810073679808
  0
VERTEX
  5
1E36A
  8
ASHADE
 10
8428.7585076942614
 20
77506.683741513203
 30
66.171810073679808
  0
VERTEX
  5
1E36B
  8
ASHADE
 10
8569.7585076942614
 20
77421.683741513203
 30
66.171810073679808
  0
VERTEX
  5
1E36C
  8
ASHADE
 10
8716.7585076942614
 20
77341.683741513203
 30
66.171810073679808
  0
VERTEX
  5
1E36D
  8
ASHADE
 10
8869.7585076942614
 20
77265.683741513203
 30
66.171810073679808
  0
VERTEX
  5
1E36E
  8
ASHADE
 10
9027.7585076942632
 20
77194.683741513203
 30
66.171810073679808
  0
VERTEX
  5
1E36F
  8
ASHADE
 10
9191.7585076942632
 20
77128.683741513203
 30
66.171810073679808
  0
VERTEX
  5
1E370
  8
ASHADE
 10
9360.7585076942632
 20
77067.683741513203
 30
66.171810073679808
  0
VERTEX
  5
1E371
  8
ASHADE
 10
9534.7585076942632
 20
77012.683741513203
 30
66.171810073679808
  0
VERTEX
  5
1E372
  8
ASHADE
 10
9711.7585076942632
 20
76962.683741513203
 30
66.171810073679808
  0
VERTEX
  5
1E373
  8
ASHADE
 10
9892.7585076942632
 20
76917.683741513203
 30
66.171810073679808
  0
VERTEX
  5
1E374
  8
ASHADE
 10
10076.75850769426
 20
76879.683741513203
 30
66.171810073679808
  0
VERTEX
  5
1E375
  8
ASHADE
 10
10263.75850769426
 20
76846.683741513203
 30
66.171810073679808
  0
VERTEX
  5
1E376
  8
ASHADE
 10
10453.75850769426
 20
76819.683741513203
 30
66.171810073679808
  0
VERTEX
  5
1E377
  8
ASHADE
 10
10644.75850769426
 20
76798.683741513203
 30
66.171810073679808
  0
VERTEX
  5
1E378
  8
ASHADE
 10
10836.75850769426
 20
76783.683741513203
 30
66.171810073679808
  0
VERTEX
  5
1E379
  8
ASHADE
 10
11030.75850769426
 20
76774.683741513203
 30
66.171810073679808
  0
VERTEX
  5
1E37A
  8
ASHADE
 10
11224.75850769426
 20
76770.683741513203
 30
66.171810073679808
  0
VERTEX
  5
1E37B
  8
ASHADE
 10
11418.75850769426
 20
76774.683741513203
 30
66.171810073679808
  0
VERTEX
  5
1E37C
  8
ASHADE
 10
11611.75850769426
 20
76783.683741513203
 30
66.171810073679808
  0
VERTEX
  5
1E37D
  8
ASHADE
 10
11804.75850769426
 20
76798.683741513203
 30
66.171810073679808
  0
VERTEX
  5
1E37E
  8
ASHADE
 10
11995.75850769426
 20
76819.683741513203
 30
66.171810073679808
  0
VERTEX
  5
1E37F
  8
ASHADE
 10
12184.75850769426
 20
76846.683741513203
 30
66.171810073679808
  0
VERTEX
  5
1E380
  8
ASHADE
 10
12371.75850769426
 20
76879.683741513203
 30
66.171810073679808
  0
VERTEX
  5
1E381
  8
ASHADE
 10
12556.75850769426
 20
76917.683741513203
 30
66.171810073679808
  0
VERTEX
  5
1E382
  8
ASHADE
 10
12737.75850769426
 20
76962.683741513203
 30
66.171810073679808
  0
VERTEX
  5
1E383
  8
ASHADE
 10
12914.75850769426
 20
77012.683741513203
 30
66.171810073679808
  0
VERTEX
  5
1E384
  8
ASHADE
 10
13087.75850769426
 20
77067.683741513203
 30
66.171810073679808
  0
VERTEX
  5
1E385
  8
ASHADE
 10
13256.75850769426
 20
77128.683741513203
 30
66.171810073679808
  0
VERTEX
  5
1E386
  8
ASHADE
 10
13420.75850769426
 20
77194.683741513203
 30
66.171810073679808
  0
VERTEX
  5
1E387
  8
ASHADE
 10
13579.75850769426
 20
77265.683741513203
 30
66.171810073679808
  0
VERTEX
  5
1E388
  8
ASHADE
 10
13732.75850769426
 20
77341.683741513203
 30
66.171810073679808
  0
VERTEX
  5
1E389
  8
ASHADE
 10
13879.75850769426
 20
77421.683741513203
 30
66.171810073679808
  0
VERTEX
  5
1E38A
  8
ASHADE
 10
14019.75850769426
 20
77506.683741513203
 30
66.171810073679808
  0
VERTEX
  5
1E38B
  8
ASHADE
 10
14153.75850769426
 20
77595.683741513203
 30
66.171810073679808
  0
VERTEX
  5
1E38C
  8
ASHADE
 10
14280.75850769426
 20
77689.683741513203
 30
66.171810073679808
  0
VERTEX
  5
1E38D
  8
ASHADE
 10
14399.75850769426
 20
77786.683741513203
 30
66.171810073679808
  0
VERTEX
  5
1E38E
  8
ASHADE
 10
14511.75850769426
 20
77887.683741513203
 30
66.171810073679808
  0
VERTEX
  5
1E38F
  8
ASHADE
 10
14615.75850769426
 20
77991.683741513203
 30
66.171810073679808
  0
VERTEX
  5
1E390
  8
ASHADE
 10
14710.75850769426
 20
78098.683741513203
 30
66.171810073679808
  0
VERTEX
  5
1E391
  8
ASHADE
 10
14797.75850769426
 20
78208.683741513203
 30
66.171810073679808
  0
VERTEX
  5
1E392
  8
ASHADE
 10
14876.75850769426
 20
78321.683741513203
 30
66.171810073679808
  0
VERTEX
  5
1E393
  8
ASHADE
 10
14946.75850769426
 20
78436.683741513203
 30
66.171810073679808
  0
VERTEX
  5
1E394
  8
ASHADE
 10
15007.75850769426
 20
78553.683741513203
 30
66.171810073679808
  0
VERTEX
  5
1E395
  8
ASHADE
 10
15059.75850769426
 20
78672.683741513203
 30
66.171810073679808
  0
VERTEX
  5
1E396
  8
ASHADE
 10
15101.75850769426
 20
78792.683741513203
 30
66.171810073679808
  0
VERTEX
  5
1E397
  8
ASHADE
 10
15134.75850769426
 20
78913.683741513203
 30
66.171810073679808
  0
VERTEX
  5
1E398
  8
ASHADE
 10
15158.75850769426
 20
79036.683741513203
 30
66.171810073679808
  0
VERTEX
  5
1E399
  8
ASHADE
 10
15172.75850769426
 20
79159.683741513203
 30
66.171810073679808
  0
VERTEX
  5
1E39A
  8
ASHADE
 10
15177.75850769426
 20
79282.683741513203
 30
66.171810073679808
  0
VERTEX
  5
1E39B
  8
ASHADE
 10
15177.73217644493
 20
79283.33149024655
 30
66.171810073679808
  0
SEQEND
  5
1E39C
  8
ASHADE
  0
POLYLINE
  5
1E312
  8
ASHADE
 66
     1
 10
0.0
 20
0.0
 30
19.537536475105298
 70
     1
  0
VERTEX
  5
1E39D
  8
ASHADE
 10
11220.337220728399
 20
127557.08332349631
 30
19.537536475105298
 42
0.3852680740411106
  0
VERTEX
  5
1E39E
  8
ASHADE
 10
8779.0085992217064
 20
125115.75704862449
 30
19.537536475105298
 42
0.3852680740411107
  0
VERTEX
  5
1E39F
  8
ASHADE
 10
11220.33722072833
 20
122674.4307737527
 30
19.537536475105298
 42
0.3852680740411106
  0
VERTEX
  5
1E3A0
  8
ASHADE
 10
13661.665842235019
 20
125115.75704862449
 30
19.537536475105298
 42
0.3852680740411109
  0
SEQEND
  5
1E3A1
  8
ASHADE
  0
POLYLINE
  5
1E315
  8
ASHADE
 66
     1
 10
0.0
 20
0.0
 30
19.537536475105298
  0
VERTEX
  5
1E3A2
  8
ASHADE
 10
11219.511205255951
 20
106598.5833554444
 30
19.537536475105298
  0
VERTEX
  5
1E3A3
  8
ASHADE
 10
20270.755261778861
 20
106598.5833554444
 30
19.537536475105298
  0
VERTEX
  5
1E3A4
  8
ASHADE
 10
20471.460595130859
 20
106795.43316771361
 30
19.537536475105298
  0
VERTEX
  5
1E3A5
  8
ASHADE
 10
20471.464115083269
 20
113525.8400898156
 30
19.537536475105298
  0
VERTEX
  5
1E3A6
  8
ASHADE
 10
1967.5641620159311
 20
113525.84008981549
 30
19.537536475105298
 42
-0.2856728526175904
  0
VERTEX
  5
1E3A7
  8
ASHADE
 10
2529.5409727096562
 20
114077.01768686149
 30
19.537536475105298
  0
VERTEX
  5
1E3A8
  8
ASHADE
 10
6593.5370969770556
 20
114273.87219240041
 30
19.537536475105298
 42
0.2350110028000707
  0
VERTEX
  5
1E3A9
  8
ASHADE
 10
8778.1849303841627
 20
116439.2201273618
 30
19.537536475105298
  0
VERTEX
  5
1E3AA
  8
ASHADE
 10
8778.1849303841627
 20
118777.0081787285
 30
19.537536475105298
  0
VERTEX
  5
1E3AB
  8
ASHADE
 10
8894.4395682215963
 20
118973.8626842675
 30
19.537536475105298
  0
VERTEX
  5
1E3AC
  8
ASHADE
 10
8778.1849303840681
 20
119170.71708583851
 30
19.537536475105298
  0
VERTEX
  5
1E3AD
  8
ASHADE
 10
8778.1849303840681
 20
120079.193411368
 30
19.537536475105298
  0
VERTEX
  5
1E3AE
  8
ASHADE
 10
8779.0085992216773
 20
125115.75704862439
 30
19.537536475105298
  0
SEQEND
  5
1E3AF
  8
ASHADE
  0
POLYLINE
  5
1E317
  8
ASHADE
 66
     1
 10
0.0
 20
0.0
 30
19.537536475105298
  0
VERTEX
  5
1E3B0
  8
ASHADE
 10
13660.84100008017
 20
118777.0081787285
 30
19.537536475105298
  0
VERTEX
  5
1E3B1
  8
ASHADE
 10
13544.58753556016
 20
118973.8626842675
 30
19.537536475105298
  0
VERTEX
  5
1E3B2
  8
ASHADE
 10
13660.84217339757
 20
119170.7171898063
 30
19.537536475105298
  0
VERTEX
  5
1E3B3
  8
ASHADE
 10
13661.665842235059
 20
125115.75704862439
 30
19.537536475105298
  0
SEQEND
  5
1E3B4
  8
ASHADE
  0
POLYLINE
  5
1E31A
  8
ASHADE
 66
     1
 10
0.0
 20
0.0
 30
2244.0206680962351
210
1.0
220
0.0000000110956199
230
0.0
  0
VERTEX
  5
1E3B5
  8
ASHADE
 10
93305.004730665285
 20
19.650174948601489
 30
2244.0206680962351
  0
VERTEX
  5
1E3B6
  8
ASHADE
 10
3543.3952527083979
 20
0.0
 30
2244.0206680962351
  0
SEQEND
  5
1E3B7
  8
ASHADE
  0
POLYLINE
  5
1E31B
  8
ASHADE
 66
     1
 10
0.0
 20
0.0
 30
-15177.72249062286
210
-0.9999999999999925
220
0.0000001221671918
230
0.0
  0
VERTEX
  5
1E3B8
  8
ASHADE
 10
-79282.422494706523
 20
66.126451763564546
 30
-15177.72249062286
  0
VERTEX
  5
1E3B9
  8
ASHADE
 10
-86485.568396863484
 20
60.164825889522042
 30
-15177.72249062286
  0
SEQEND
  5
1E3BA
  8
ASHADE
  0
POLYLINE
  5
1E31C
  8
ASHADE
 66
     1
 10
0.0
 20
0.0
 30
-7271.2918794595671
210
-0.9999999999999925
220
0.0000001221671912
230
0.0
  0
VERTEX
  5
1E3BB
  8
ASHADE
 10
-79282.421528800085
 20
66.126451763564546
 30
-7271.2918794595671
  0
VERTEX
  5
1E3BC
  8
ASHADE
 10
-86485.567430957031
 20
60.164825889522042
 30
-7271.2918794595671
  0
SEQEND
  5
1E3BD
  8
ASHADE
  0
POLYLINE
  5
1E31D
  8
ASHADE
 66
     1
 10
0.0
 20
0.0
 30
20196.879209989991
210
0.9999999999999994
220
0.0000000339692111
230
0.0
  0
VERTEX
  5
1E3BE
  8
ASHADE
 10
12470.369665498691
 20
19.650174948616041
 30
20196.879209989991
  0
VERTEX
  5
1E3BF
  8
ASHADE
 10
3543.394591535146
 20
-0.0000011458105291
 30
20196.879209989991
  0
SEQEND
  5
1E3C0
  8
ASHADE
  0
POLYLINE
  5
1E323
  8
ASHADE
 66
     1
 10
0.0
 20
0.0
 30
19.537536475105298
  0
VERTEX
  5
1E3C1
  8
ASHADE
 10
8894.4395682215963
 20
118973.8626842675
 30
19.537536475105298
  0
VERTEX
  5
1E3C2
  8
ASHADE
 10
13544.58753556016
 20
118973.8626842675
 30
19.537536475105298
  0
SEQEND
  5
1E3C3
  8
ASHADE
  0
POLYLINE
  5
1E324
  8
ASHADE
 66
     1
 10
0.0
 20
0.0
 30
0.0
  0
VERTEX
  5
1E3C4
  8
ASHADE
 10
2244.0206287800679
 20
3543.3952776071978
 30
0.0
  0
VERTEX
  5
1E3C5
  8
ASHADE
 10
2671.4695559441761
 20
3346.5451720087158
 30
0.0
  0
VERTEX
  5
1E3C6
  8
ASHADE
 10
19769.430162459521
 20
3346.5451720087158
 30
0.0
  0
VERTEX
  5
1E3C7
  8
ASHADE
 10
20196.879089623661
 20
3543.3952776071978
 30
0.0
  0
SEQEND
  5
1E3C8
  8
ASHADE
  0
POLYLINE
  5
1E325
  8
ASHADE
 66
     1
 10
0.0
 20
0.0
 30
0.0
  0
VERTEX
  5
1E3C9
  8
ASHADE
 10
11220.448685884439
 20
0.0
 30
0.0
  0
VERTEX
  5
1E3CA
  8
ASHADE
 10
11220.449859201961
 20
0.0
 30
0.0
  0
VERTEX
  5
1E3CB
  8
ASHADE
 10
22440.899718403729
 20
0.0
 30
0.0
  0
VERTEX
  5
1E3CC
  8
ASHADE
 10
22440.899718403729
 20
1418.876295993977
 30
0.0
  0
VERTEX
  5
1E3CD
  8
ASHADE
 10
0.0
 20
1418.876295993977
 30
0.0
  0
VERTEX
  5
1E3CE
  8
ASHADE
 10
0.0
 20
0.0
 30
0.0
  0
VERTEX
  5
1E3CF
  8
ASHADE
 10
11220.449859201961
 20
0.0
 30
0.0
  0
VERTEX
  5
1E3D0
  8
ASHADE
 10
11220.45103251937
 20
0.0
 30
0.0
  0
SEQEND
  5
1E3D1
  8
ASHADE
  0
POLYLINE
  5
1E326
  8
ASHADE
 66
     1
 10
0.0
 20
0.0
 30
105354.2098193344
210
-0.0000000000000049
220
1.0
230
0.0
  0
VERTEX
  5
1E3D2
  8
ASHADE
 10
-2244.020042121836
 20
19.650174948601489
 30
105354.2098193344
  0
VERTEX
  5
1E3D3
  8
ASHADE
 10
-20196.87498301316
 20
19.65017380280187
 30
105354.2098193344
  0
SEQEND
  5
1E3D4
  8
ASHADE
  0
POLYLINE
  5
1E327
  8
ASHADE
 66
     1
 10
0.0
 20
0.0
 30
19.650174948601489
  0
VERTEX
  5
1E3D5
  8
ASHADE
 10
2244.0196328193711
 20
93305.004755564063
 30
19.650174948601489
  0
VERTEX
  5
1E3D6
  8
ASHADE
 10
2244.0200421214249
 20
105354.2098193345
 30
19.650174948601489
 42
-0.2856672522534689
  0
VERTEX
  5
1E3D7
  8
ASHADE
 10
2805.9980261326709
 20
105905.3874163804
 30
19.650174948601489
  0
VERTEX
  5
1E3D8
  8
ASHADE
 10
3798.7031862139988
 20
105905.3921096501
 30
19.650174948601489
  0
VERTEX
  5
1E3D9
  8
ASHADE
 10
4039.3060055374808
 20
106141.3697116551
 30
19.650174948601489
  0
VERTEX
  5
1E3DA
  8
ASHADE
 10
4039.3060055374808
 20
106598.5833554444
 30
19.650174948601489
  0
SEQEND
  5
1E3DB
  8
ASHADE
  0
POLYLINE
  5
1E32D
  8
ASHADE
 66
     1
 10
0.0
 20
0.0
 30
0.0
  0
VERTEX
  5
1E3DC
  8
ASHADE
 10
-0.0000000000090949
 20
1418.8762959940971
 30
0.0
 42
-0.2388289709773578
  0
VERTEX
  5
1E3DD
  8
ASHADE
 10
555.85092037922414
 20
2065.6553574380218
 30
0.0
 42
0.2498596821326003
  0
VERTEX
  5
1E3DE
  8
ASHADE
 10
2244.0206287800679
 20
3149.6950664101182
 30
0.0
  0
VERTEX
  5
1E3DF
  8
ASHADE
 10
2671.4695559441761
 20
3346.5451720087158
 30
0.0
  0
SEQEND
  5
1E3E0
  8
ASHADE
  0
POLYLINE
  5
1E333
  8
ASHADE
 66
     1
 10
0.0
 20
0.0
 30
19.53753647510166
  0
VERTEX
  5
1E3E1
  8
ASHADE
 10
11219.513551890879
 20
106598.5833554444
 30
19.53753647510166
  0
VERTEX
  5
1E3E2
  8
ASHADE
 10
2168.2694953680038
 20
106598.5833554444
 30
19.53753647510166
  0
VERTEX
  5
1E3E3
  8
ASHADE
 10
1967.5641620159729
 20
106795.43316771361
 30
19.53753647510166
  0
VERTEX
  5
1E3E4
  8
ASHADE
 10
1967.5641620159729
 20
113525.8400898156
 30
19.53753647510166
  0
SEQEND
  5
1E3E5
  8
ASHADE
  0
POLYLINE
  5
1E335
  8
ASHADE
 66
     1
 10
0.0
 20
0.0
 30
19.53753647510166
  0
VERTEX
  5
1E3E6
  8
ASHADE
 10
20471.464115083181
 20
113525.8400898157
 30
19.53753647510166
 42
0.2856714968240501
  0
VERTEX
  5
1E3E7
  8
ASHADE
 10
19909.486131072041
 20
114077.01768686149
 30
19.53753647510166
  0
VERTEX
  5
1E3E8
  8
ASHADE
 10
15845.488833487059
 20
114273.87219240041
 30
19.53753647510166
 42
-0.2350110028000704
  0
VERTEX
  5
1E3E9
  8
ASHADE
 10
13660.84100008015
 20
116439.2201273614
 30
19.53753647510166
  0
SEQEND
  5
1E3EA
  8
ASHADE
  0
POLYLINE
  5
1E338
  8
ASHADE
 66
     1
 10
0.0
 20
0.0
 30
19.537536475105298
  0
VERTEX
  5
1E3EB
  8
ASHADE
 10
13660.842368622571
 20
118777.0082826966
 30
19.537536475105298
  0
VERTEX
  5
1E3EC
  8
ASHADE
 10
13660.84352784516
 20
116439.21270378859
 30
19.537536475105298
  0
SEQEND
  5
1E3ED
  8
ASHADE
  0
POLYLINE
  5
1E33A
  8
ASHADE
 66
     1
 10
0.0
 20
0.0
 30
19.53753647510166
  0
VERTEX
  5
1E3EE
  8
ASHADE
 10
8778.1849303841627
 20
119170.71708583851
 30
19.53753647510166
  0
VERTEX
  5
1E3EF
  8
ASHADE
 10
8778.1849303841627
 20
119195.12219240041
 30
19.53753647510166
  0
SEQEND
  5
1E3F0
  8
ASHADE
  0
POLYLINE
  5
1E341
  8
ASHADE
 66
     1
 10
0.0
 20
0.0
 30
19.65017380280187
  0
VERTEX
  5
1E3F1
  8
ASHADE
 10
4039.3024855851531
 20
106598.5833554444
 30
19.65017380280187
  0
VERTEX
  5
1E3F2
  8
ASHADE
 10
4039.3024855851531
 20
106141.3697116551
 30
19.65017380280187
  0
SEQEND
  5
1E3F3
  8
ASHADE
  0
POLYLINE
  5
1E342
  8
ASHADE
 66
     1
 10
0.0
 20
0.0
 30
19.650174948601489
  0
VERTEX
  5
1E3F4
  8
ASHADE
 10
20196.87674298877
 20
12470.37035157074
 30
19.650174948601489
  0
VERTEX
  5
1E3F5
  8
ASHADE
 10
20196.874983012651
 20
105354.2098193345
 30
19.650174948601489
 42
0.2856672522534686
  0
VERTEX
  5
1E3F6
  8
ASHADE
 10
19634.896999001561
 20
105905.3874163804
 30
19.650174948601489
  0
VERTEX
  5
1E3F7
  8
ASHADE
 10
18642.19183892016
 20
105905.3921096501
 30
19.650174948601489
  0
VERTEX
  5
1E3F8
  8
ASHADE
 10
18401.58901959666
 20
106141.3697116551
 30
19.650174948601489
  0
VERTEX
  5
1E3F9
  8
ASHADE
 10
18401.58901959666
 20
106598.5833554444
 30
19.650174948601489
  0
SEQEND
  5
1E3FA
  8
ASHADE
  0
POLYLINE
  5
1E348
  8
ASHADE
 66
     1
 10
0.0
 20
0.0
 30
0.0
  0
VERTEX
  5
1E3FB
  8
ASHADE
 10
22440.89971840374
 20
1418.8762959940941
 30
0.0
 42
0.2388289709773579
  0
VERTEX
  5
1E3FC
  8
ASHADE
 10
21885.048798024611
 20
2065.6553574380218
 30
0.0
 42
-0.2498596821326013
  0
VERTEX
  5
1E3FD
  8
ASHADE
 10
20196.879089623661
 20
3149.6950664101182
 30
0.0
  0
VERTEX
  5
1E3FE
  8
ASHADE
 10
19769.430162459521
 20
3346.5451720087158
 30
0.0
  0
SEQEND
  5
1E3FF
  8
ASHADE
  0
ENDSEC
  0
EOF
