  0
SECTION
  2
HEADER
  9
$ACADVER
  1
AC1009
  9
$INSBASE
 10
0.0
 20
0.0
 30
0.0
  9
$EXTMIN
 10
-4.7645563884131397
 20
-0.0056866316940898
 30
-0.0001787800936333
  9
$EXTMAX
 10
2.6784165711166841
 20
12.813555761399719
 30
0.0020459220384863
  9
$LIMMIN
 10
0.0
 20
0.0
  9
$LIMMAX
 10
12.0
 20
9.0
  9
$ORTHOMODE
 70
     1
  9
$REGENMODE
 70
     1
  9
$FILLMODE
 70
     1
  9
$QTEXTMODE
 70
     0
  9
$MIRRTEXT
 70
     0
  9
$DRAGMODE
 70
     2
  9
$LTSCALE
 40
1.0
  9
$OSMODE
 70
    37
  9
$ATTMODE
 70
     1
  9
$TEXTSIZE
 40
0.001
  9
$TRACEWID
 40
0.05
  9
$TEXTSTYLE
  7
STANDARD
  9
$CLAYER
  8
0
  9
$CELTYPE
  6
BYLAYER
  9
$CECOLOR
 62
   256
  9
$DIMSCALE
 40
1.0
  9
$DIMASZ
 40
0.18
  9
$DIMEXO
 40
0.0625
  9
$DIMDLI
 40
0.38
  9
$DIMRND
 40
0.0
  9
$DIMDLE
 40
0.0
  9
$DIMEXE
 40
0.18
  9
$DIMTP
 40
0.0
  9
$DIMTM
 40
0.0
  9
$DIMTXT
 40
0.18
  9
$DIMCEN
 40
0.09
  9
$DIMTSZ
 40
0.0
  9
$DIMTOL
 70
     0
  9
$DIMLIM
 70
     0
  9
$DIMTIH
 70
     1
  9
$DIMTOH
 70
     1
  9
$DIMSE1
 70
     0
  9
$DIMSE2
 70
     0
  9
$DIMTAD
 70
     0
  9
$DIMZIN
 70
     0
  9
$DIMBLK
  1

  9
$DIMASO
 70
     1
  9
$DIMSHO
 70
     1
  9
$DIMPOST
  1

  9
$DIMAPOST
  1

  9
$DIMALT
 70
     0
  9
$DIMALTD
 70
     2
  9
$DIMALTF
 40
25.399999999999999
  9
$DIMLFAC
 40
1.0
  9
$DIMTOFL
 70
     0
  9
$DIMTVP
 40
0.0
  9
$DIMTIX
 70
     0
  9
$DIMSOXD
 70
     0
  9
$DIMSAH
 70
     0
  9
$DIMBLK1
  1

  9
$DIMBLK2
  1

  9
$DIMSTYLE
  2
STANDARD
  9
$DIMCLRD
 70
     0
  9
$DIMCLRE
 70
     0
  9
$DIMCLRT
 70
     0
  9
$DIMTFAC
 40
1.0
  9
$DIMGAP
 40
0.09
  9
$LUNITS
 70
     2
  9
$LUPREC
 70
     4
  9
$SKETCHINC
 40
0.1
  9
$FILLETRAD
 40
2.0
  9
$AUNITS
 70
     0
  9
$AUPREC
 70
     0
  9
$MENU
  1
.
  9
$ELEVATION
 40
0.0
  9
$PELEVATION
 40
0.0
  9
$THICKNESS
 40
0.0
  9
$LIMCHECK
 70
     0
  9
$BLIPMODE
 70
     0
  9
$CHAMFERA
 40
0.0
  9
$CHAMFERB
 40
0.0
  9
$SKPOLY
 70
     0
  9
$TDCREATE
 40
2453376.249240764
  9
$TDUPDATE
 40
2453411.4614771409
  9
$TDINDWG
 40
0.386249294
  9
$TDUSRTIMER
 40
0.3862491204
  9
$USRTIMER
 70
     1
  9
$ANGBASE
 50
0.0
  9
$ANGDIR
 70
     0
  9
$PDMODE
 70
     0
  9
$PDSIZE
 40
0.0
  9
$PLINEWID
 40
0.0
  9
$COORDS
 70
     1
  9
$SPLFRAME
 70
     0
  9
$SPLINETYPE
 70
     6
  9
$SPLINESEGS
 70
     8
  9
$ATTDIA
 70
     0
  9
$ATTREQ
 70
     1
  9
$HANDLING
 70
     1
  9
$HANDSEED
  5
1E2FA
  9
$SURFTAB1
 70
     6
  9
$SURFTAB2
 70
     6
  9
$SURFTYPE
 70
     6
  9
$SURFU
 70
     6
  9
$SURFV
 70
     6
  9
$UCSNAME
  2

  9
$UCSORG
 10
0.0
 20
0.0
 30
0.0
  9
$UCSXDIR
 10
1.0
 20
0.0
 30
0.0
  9
$UCSYDIR
 10
0.0
 20
1.0
 30
0.0
  9
$PUCSNAME
  2

  9
$PUCSORG
 10
0.0
 20
0.0
 30
0.0
  9
$PUCSXDIR
 10
1.0
 20
0.0
 30
0.0
  9
$PUCSYDIR
 10
0.0
 20
1.0
 30
0.0
  9
$USERI1
 70
     0
  9
$USERI2
 70
     0
  9
$USERI3
 70
     0
  9
$USERI4
 70
     0
  9
$USERI5
 70
     0
  9
$USERR1
 40
0.0
  9
$USERR2
 40
0.0
  9
$USERR3
 40
0.0
  9
$USERR4
 40
0.0
  9
$USERR5
 40
0.0
  9
$WORLDVIEW
 70
     1
  9
$SHADEDGE
 70
     3
  9
$SHADEDIF
 70
    70
  9
$TILEMODE
 70
     1
  9
$MAXACTVP
 70
    64
  9
$PLIMCHECK
 70
     0
  9
$PEXTMIN
 10
0.0
 20
0.0
 30
0.0
  9
$PEXTMAX
 10
0.0
 20
0.0
 30
0.0
  9
$PLIMMIN
 10
0.0
 20
0.0
  9
$PLIMMAX
 10
12.0
 20
9.0
  9
$UNITMODE
 70
     0
  9
$VISRETAIN
 70
     1
  9
$PLINEGEN
 70
     0
  9
$PSLTSCALE
 70
     1
  0
ENDSEC
  0
SECTION
  2
TABLES
  0
TABLE
  2
VPORT
 70
     2
  0
VPORT
  2
*ACTIVE
 70
     0
 10
0.0
 20
0.0
 11
1.0
 21
1.0
 12
3.6177218057934288
 22
6.4039345648528183
 13
0.0
 23
0.0
 14
0.5
 24
0.5
 15
0.5
 25
0.5
 16
0.0
 26
0.0
 36
1.0
 17
0.0
 27
0.0
 37
0.0
 40
12.977504644860399
 41
1.9608247422680409
 42
50.0
 43
0.0
 44
0.0
 50
0.0
 51
0.0
 71
     0
 72
 10000
 73
     1
 74
     3
 75
     0
 76
     0
 77
     0
 78
     0
  0
ENDTAB
  0
TABLE
  2
LTYPE
 70
     1
  0
LTYPE
  2
CONTINUOUS
 70
     0
  3
Solid line
 72
    65
 73
     0
 40
0.0
  0
ENDTAB
  0
TABLE
  2
LAYER
 70
     3
  0
LAYER
  2
0
 70
     0
 62
     7
  6
CONTINUOUS
  0
LAYER
  2
ASHADE
 70
     0
 62
     7
  6
CONTINUOUS
  0
LAYER
  2
DEFPOINTS
 70
     0
 62
     7
  6
CONTINUOUS
  0
ENDTAB
  0
TABLE
  2
STYLE
 70
     2
  0
STYLE
  2
STANDARD
 70
     0
 40
0.0
 41
1.0
 50
0.0
 71
     0
 42
0.001
  3
txt
  4

  0
STYLE
  2
ASHADE
 70
     0
 40
0.2
 41
1.0
 50
0.0
 71
     0
 42
0.2
  3
simplex
  4

  0
ENDTAB
  0
TABLE
  2
VIEW
 70
     0
  0
ENDTAB
  0
TABLE
  2
UCS
 70
     0
  0
ENDTAB
  0
TABLE
  2
APPID
 70
     6
  0
APPID
  2
ACAD
 70
     0
  0
APPID
  2
AVE_RENDER
 70
     0
  0
APPID
  2
AVE_ENTITY_MATERIAL
 70
     0
  0
APPID
  2
AVE_FINISH
 70
     0
  0
APPID
  2
AVE_MATERIAL
 70
     0
  0
APPID
  2
AVE_GLOBAL
 70
     0
  0
ENDTAB
  0
TABLE
  2
DIMSTYLE
 70
     1
  0
DIMSTYLE
  2
STANDARD
 70
     0
  3

  4

  5

  6

  7

 40
1.0
 41
0.18
 42
0.0625
 43
0.38
 44
0.18
 45
0.0
 46
0.0
 47
0.0
 48
0.0
140
0.18
141
0.09
142
0.0
143
25.399999999999999
144
1.0
145
0.0
146
1.0
147
0.09
 71
     0
 72
     0
 73
     1
 74
     1
 75
     0
 76
     0
 77
     0
 78
     0
170
     0
171
     2
172
     0
173
     0
174
     0
175
     0
176
     0
177
     0
178
     0
  0
ENDTAB
  0
ENDSEC
  0
SECTION
  2
BLOCKS
  0
BLOCK
  8
0
  2
$MODEL_SPACE
 70
     0
 10
0.0
 20
0.0
 30
0.0
  3
$MODEL_SPACE
  1

  0
ENDBLK
  5
1E201
  8
0
  0
BLOCK
 67
     1
  8
0
  2
$PAPER_SPACE
 70
     0
 10
0.0
 20
0.0
 30
0.0
  3
$PAPER_SPACE
  1

  0
ENDBLK
  5
1E1FD
 67
     1
  8
0
  0
BLOCK
  8
ASHADE
  2
AVE_RENDER
 70
     0
 10
0.0
 20
0.0
 30
0.0
  3
AVE_RENDER
  1
AVE_RENDER
  0
ENDBLK
  5
91
  8
0
  0
BLOCK
  8
ASHADE
  2
AVE_GLOBAL
 70
     0
 10
0.0
 20
0.0
 30
0.0
  3
AVE_GLOBAL
  1
AVE_GLOBAL
  0
ENDBLK
  5
9F
  8
0
  0
BLOCK
  8
ASHADE
  2
RM_SDB
 70
     2
 10
0.0
 20
0.0
 30
0.0
  3
RM_SDB
  1
RM_SDB
  0
ATTDEF
  5
1A183
  8
ASHADE
  6
CONTINUOUS
 62
     1
 10
0.0000000000000001
 20
-0.15
 30
0.0
 40
0.2
  1

 41
100.0
  7
ASHADE
 72
     1
 11
0.0000000000000001
 21
-0.15
 31
0.0
  3
Name
  2
NAME
 70
     0
  0
ENDBLK
  5
2CD
  8
0
  0
ENDSEC
  0
SECTION
  2
ENTITIES
  0
ATTDEF
  5
1E1CC
  8
0
 10
0.0
 20
0.0
 30
0.0
 40
0.001
  1
K-14404-4A
  3

  2
MODELNUMBER
 70
     8
  0
ATTDEF
  5
1E1CD
  8
0
 10
0.0
 20
-0.0016666666666667
 30
0.0
 40
0.001
  1
PURIST
  3

  2
TRADENAME
 70
     8
  0
ATTDEF
  5
1E1CE
  8
0
 10
0.0
 20
-0.0033333333333333
 30
0.0
 40
0.001
  1
FAUCETS
  3

  2
PRODUCT
 70
     8
  0
ATTDEF
  5
1E1CF
  8
0
 10
0.0
 20
-0.005
 30
0.0
 40
0.001
  1
BRASS
  3

  2
MATERIAL
 70
     8
  0
POLYLINE
  5
1E21B
  8
ASHADE
 66
     1
 10
0.0
 20
0.0
 30
-0.0000112638473531
  0
VERTEX
  5
1E27D
  8
ASHADE
 10
1.3660841000080151
 20
11.877700817872871
 30
-0.0000112638473531
  0
VERTEX
  5
1E27E
  8
ASHADE
 10
1.3544587535560151
 20
11.897386268426761
 30
-0.0000112638473531
  0
VERTEX
  5
1E27F
  8
ASHADE
 10
1.366084217339756
 20
11.91707171898064
 30
-0.0000112638473531
 42
0.234235652771776
  0
VERTEX
  5
1E280
  8
ASHADE
 10
1.140374022856359
 20
12.52866108398613
 30
-0.0000112638473531
 42
0.2132794378818128
  0
VERTEX
  5
1E281
  8
ASHADE
 10
0.6185300069451217
 20
12.75570833234964
 30
-0.0000112638473531
  0
VERTEX
  5
1E282
  8
ASHADE
 10
-2.1248246014714209
 20
12.755730860044331
 30
-0.0000112638473531
  0
SEQEND
  5
1E283
  8
ASHADE
  0
POLYLINE
  5
1E21D
  8
ASHADE
 66
     1
 10
0.0
 20
0.0
 30
0.000000002291634
  0
VERTEX
  5
1E284
  8
ASHADE
 10
-4.5488066633939681
 20
8.4091912155049773
 30
0.000000002291634
  0
VERTEX
  5
1E285
  8
ASHADE
 10
-3.9405363787412622
 20
7.9672574499743982
 30
0.000000002291634
  0
VERTEX
  5
1E286
  8
ASHADE
 10
-3.9137335846423649
 20
7.9721161574620458
 30
0.000000002291634
 42
-0.2432980147210435
  0
VERTEX
  5
1E287
  8
ASHADE
 10
-3.118265196919443
 20
8.485203646709305
 30
0.000000002291634
  0
VERTEX
  5
1E288
  8
ASHADE
 10
0.168217816293246
 20
8.4849105520146857
 30
0.000000002291634
 42
-0.2857189467459642
  0
VERTEX
  5
1E289
  8
ASHADE
 10
0.2244016522169172
 20
8.4287771687406057
 30
0.000000002291634
  0
VERTEX
  5
1E28A
  8
ASHADE
 10
0.2244020628780081
 20
0.3543395277607182
 30
0.000000002291634
  0
VERTEX
  5
1E28B
  8
ASHADE
 10
0.2671469555944181
 20
0.3346545172008692
 30
0.000000002291634
  0
VERTEX
  5
1E28C
  8
ASHADE
 10
1.976943016245956
 20
0.3346545172008692
 30
0.000000002291634
  0
VERTEX
  5
1E28D
  8
ASHADE
 10
2.0196879089623661
 20
0.3543395277607182
 30
0.000000002291634
  0
SEQEND
  5
1E28E
  8
ASHADE
  0
POLYLINE
  5
1E21E
  8
ASHADE
 66
     1
 10
0.0
 20
0.0
 30
2.019687940678669
210
0.9999999999999987
220
0.0000000497503538
230
0.0
  0
VERTEX
  5
1E28F
  8
ASHADE
 10
5.3543293521882251
 20
-0.0000000000000027
 30
2.019687940678669
  0
VERTEX
  5
1E290
  8
ASHADE
 10
1.247036934676877
 20
0.0019650174948613
 30
2.019687940678669
  0
SEQEND
  5
1E291
  8
ASHADE
  0
POLYLINE
  5
1E21F
  8
ASHADE
 66
     1
 10
0.0
 20
0.0
 30
2.0196879209989991
210
0.9999999999999994
220
0.0000000339692088
230
0.0
  0
VERTEX
  5
1E292
  8
ASHADE
 10
1.2470369665498651
 20
0.0019650174948613
 30
2.0196879209989991
  0
VERTEX
  5
1E293
  8
ASHADE
 10
0.3543394591535284
 20
-0.0000000001145821
 30
2.0196879209989991
  0
SEQEND
  5
1E294
  8
ASHADE
  0
POLYLINE
  5
1E220
  8
ASHADE
 66
     1
 10
0.0
 20
0.0
 30
-0.0000112638473531
 70
     1
  0
VERTEX
  5
1E295
  8
ASHADE
 10
2.0471464115083271
 20
11.352584008981561
 30
-0.0000112638473531
  0
VERTEX
  5
1E296
  8
ASHADE
 10
2.0471464115083271
 20
10.994317162920799
 30
-0.0000112638473531
  0
VERTEX
  5
1E297
  8
ASHADE
 10
2.0270757608413681
 20
10.974632181693879
 30
-0.0000112638473531
  0
VERTEX
  5
1E298
  8
ASHADE
 10
1.7679050171524251
 20
10.974632181693879
 30
-0.0000112638473531
  0
VERTEX
  5
1E299
  8
ASHADE
 10
1.1219513551890881
 20
10.65985833554444
 30
-0.0000112638473531
  0
VERTEX
  5
1E29A
  8
ASHADE
 10
0.2168269495367969
 20
10.65985833554444
 30
-0.0000112638473531
  0
VERTEX
  5
1E29B
  8
ASHADE
 10
0.1967564162015876
 20
10.67954331677136
 30
-0.0000112638473531
  0
VERTEX
  5
1E29C
  8
ASHADE
 10
0.1967564162015876
 20
11.352584008981561
 30
-0.0000112638473531
  0
SEQEND
  5
1E29D
  8
ASHADE
  0
POLYLINE
  5
1E221
  8
ASHADE
 66
     1
 10
0.0
 20
0.0
 30
-0.0000112638473531
  0
VERTEX
  5
1E29E
  8
ASHADE
 10
0.1967564162015942
 20
11.352584008981539
 30
-0.0000112638473531
 42
-0.2856728526175904
  0
VERTEX
  5
1E29F
  8
ASHADE
 10
0.2529540972709654
 20
11.407701768686159
 30
-0.0000112638473531
  0
VERTEX
  5
1E2A0
  8
ASHADE
 10
0.6593537096977067
 20
11.427387219240041
 30
-0.0000112638473531
 42
0.2350110028000707
  0
VERTEX
  5
1E2A1
  8
ASHADE
 10
0.8778184930384168
 20
11.643922012736191
 30
-0.0000112638473531
  0
VERTEX
  5
1E2A2
  8
ASHADE
 10
0.8778184930384168
 20
11.877700817872871
 30
-0.0000112638473531
  0
VERTEX
  5
1E2A3
  8
ASHADE
 10
0.8894439568221573
 20
11.897386268426761
 30
-0.0000112638473531
  0
VERTEX
  5
1E2A4
  8
ASHADE
 10
0.8778184930384168
 20
11.917071708583849
 30
-0.0000112638473531
  0
VERTEX
  5
1E2A5
  8
ASHADE
 10
0.8778184930384168
 20
11.91951221924004
 30
-0.0000112638473531
  0
SEQEND
  5
1E2A6
  8
ASHADE
  0
POLYLINE
  5
1E226
  8
ASHADE
 66
     1
 10
0.0
 20
0.0
 30
-0.0000112638473531
  0
VERTEX
  5
1E2A7
  8
ASHADE
 10
0.8894439568221573
 20
11.897386268426761
 30
-0.0000112638473531
  0
VERTEX
  5
1E2A8
  8
ASHADE
 10
1.3544587535560151
 20
11.897386268426761
 30
-0.0000112638473531
  0
SEQEND
  5
1E2A9
  8
ASHADE
  0
POLYLINE
  5
1E228
  8
ASHADE
 66
     1
 10
0.0
 20
0.0
 30
0.0
  0
VERTEX
  5
1E2AA
  8
ASHADE
 10
1.1220448685884461
 20
0.0
 30
0.0
  0
VERTEX
  5
1E2AB
  8
ASHADE
 10
1.1220449859201951
 20
0.0
 30
0.0
  0
VERTEX
  5
1E2AC
  8
ASHADE
 10
2.244089971840376
 20
0.0
 30
0.0
  0
VERTEX
  5
1E2AD
  8
ASHADE
 10
2.244089971840376
 20
0.1418876295993954
 30
0.0
  0
VERTEX
  5
1E2AE
  8
ASHADE
 10
0.0
 20
0.1418876295993954
 30
0.0
  0
VERTEX
  5
1E2AF
  8
ASHADE
 10
0.0
 20
0.0
 30
0.0
  0
VERTEX
  5
1E2B0
  8
ASHADE
 10
1.1220449859201951
 20
0.0
 30
0.0
  0
VERTEX
  5
1E2B1
  8
ASHADE
 10
1.1220451032519341
 20
0.0
 30
0.0
  0
SEQEND
  5
1E2B2
  8
ASHADE
  0
POLYLINE
  5
1E22A
  8
ASHADE
 66
     1
 10
0.0
 20
0.0
 30
0.000000002291634
  0
VERTEX
  5
1E2B3
  8
ASHADE
 10
0.224401652216917
 20
8.4287771687406092
 30
0.000000002291634
 42
0.2993960107147781
  0
VERTEX
  5
1E2B4
  8
ASHADE
 10
0.2244016522169147
 20
9.3305009484785622
 30
0.000000002291634
 42
-0.2857700019543209
  0
VERTEX
  5
1E2B5
  8
ASHADE
 10
0.1682178162932466
 20
9.2743670958775102
 30
0.000000002291634
  0
VERTEX
  5
1E2B6
  8
ASHADE
 10
-3.1182651969194519
 20
9.2746599559086231
 30
0.000000002291634
 42
0.229226905112617
  0
VERTEX
  5
1E2B7
  8
ASHADE
 10
-4.5524171957969699
 20
8.43614654087005
 30
0.000000002291634
  0
VERTEX
  5
1E2B8
  8
ASHADE
 10
-4.5524171957969699
 20
8.4091912155049773
 30
0.000000002291634
  0
VERTEX
  5
1E2B9
  8
ASHADE
 10
-4.5755587701797404
 20
8.4042956658500128
 30
0.000000002291634
  0
VERTEX
  5
1E2BA
  8
ASHADE
 10
-4.7531671152114798
 20
8.1598384987610277
 30
0.000000002291634
 42
0.2854583492988123
  0
VERTEX
  5
1E2BB
  8
ASHADE
 10
-4.7401432917119308
 20
8.0821951563257652
 30
0.000000002291634
  0
VERTEX
  5
1E2BC
  8
ASHADE
 10
-4.7159133480785922
 20
8.064588120271436
 30
0.000000002291634
  0
VERTEX
  5
1E2BD
  8
ASHADE
 10
-4.2168545113779317
 20
7.7020011194230458
 30
0.000000002291634
  0
VERTEX
  5
1E2BE
  8
ASHADE
 10
-4.1923429715633302
 20
7.6841953233974927
 30
0.000000002291634
 42
0.2854589290323352
  0
VERTEX
  5
1E2BF
  8
ASHADE
 10
-4.1144835040569241
 20
7.695808115352972
 30
0.000000002291634
  0
VERTEX
  5
1E2C0
  8
ASHADE
 10
-3.9368751590251811
 20
7.9402652824419571
 30
0.000000002291634
  0
VERTEX
  5
1E2C1
  8
ASHADE
 10
-3.9405363787412622
 20
7.9672574499743982
 30
0.000000002291634
  0
SEQEND
  5
1E2C2
  8
ASHADE
  0
POLYLINE
  5
1E22B
  8
ASHADE
 66
     1
 10
0.0
 20
0.0
 30
0.0
  0
VERTEX
  5
1E2C3
  8
ASHADE
 10
0.2244019632819469
 20
9.3305004755564287
 30
0.0
  0
VERTEX
  5
1E2C4
  8
ASHADE
 10
0.2244020042121395
 20
10.53542098193344
 30
0.0
  0
VERTEX
  5
1E2C5
  8
ASHADE
 10
2.019687498301268
 20
10.53542098193344
 30
0.0
  0
VERTEX
  5
1E2C6
  8
ASHADE
 10
2.0196876742988881
 20
5.3543294526684067
 30
0.0
  0
SEQEND
  5
1E2C7
  8
ASHADE
  0
POLYLINE
  5
1E22C
  8
ASHADE
 66
     1
 10
0.0
 20
0.0
 30
0.0019650174948613
  0
VERTEX
  5
1E2C8
  8
ASHADE
 10
2.019687878638138
 20
1.2470370351570641
 30
0.0019650174948613
  0
VERTEX
  5
1E2C9
  8
ASHADE
 10
2.657611305752777
 20
1.2470370351570641
 30
0.0019650174948613
  0
VERTEX
  5
1E2CA
  8
ASHADE
 10
2.6773619359233369
 20
1.2728380508321311
 30
0.0019650174948613
  0
VERTEX
  5
1E2CB
  8
ASHADE
 10
2.677361976256126
 20
1.6149357613521571
 30
0.0019650174948613
  0
VERTEX
  5
1E2CC
  8
ASHADE
 10
2.6576113497521661
 20
1.6407370116907081
 30
0.0019650174948613
  0
VERTEX
  5
1E2CD
  8
ASHADE
 10
2.0196878652644541
 20
1.6407370116907081
 30
0.0019650174948613
  0
SEQEND
  5
1E2CE
  8
ASHADE
  0
POLYLINE
  5
1E242
  8
ASHADE
 66
     1
 10
0.0
 20
0.0
 30
-0.0000112638473522
  0
VERTEX
  5
1E2CF
  8
ASHADE
 10
-2.1248350088986609
 20
12.26748780410141
 30
-0.0000112638473522
  0
VERTEX
  5
1E2D0
  8
ASHADE
 10
-2.1442655326723998
 20
12.29335180359063
 30
-0.0000112638473522
  0
VERTEX
  5
1E2D1
  8
ASHADE
 10
-2.1442655326723998
 20
12.729888601560241
 30
-0.0000112638473522
  0
VERTEX
  5
1E2D2
  8
ASHADE
 10
-2.1248354938011911
 20
12.75575274910438
 30
-0.0000112638473522
  0
SEQEND
  5
1E2D3
  8
ASHADE
  0
POLYLINE
  5
1E243
  8
ASHADE
 66
     1
 10
0.0
 20
0.0
 30
0.0
  0
VERTEX
  5
1E2D4
  8
ASHADE
 10
0.2244020042121479
 20
10.535420981933459
 30
0.0
 42
-0.2856672522534689
  0
VERTEX
  5
1E2D5
  8
ASHADE
 10
0.2805998026132652
 20
10.59053874163804
 30
0.0
  0
VERTEX
  5
1E2D6
  8
ASHADE
 10
0.379870318621407
 20
10.59053921096501
 30
0.0
  0
VERTEX
  5
1E2D7
  8
ASHADE
 10
0.4039306005537462
 20
10.614136971165509
 30
0.0
  0
VERTEX
  5
1E2D8
  8
ASHADE
 10
0.4039306005537462
 20
10.65985833554444
 30
0.0
  0
SEQEND
  5
1E2D9
  8
ASHADE
  0
POLYLINE
  5
1E249
  8
ASHADE
 66
     1
 10
0.0
 20
0.0
 30
0.0
  0
VERTEX
  5
1E2DA
  8
ASHADE
 10
0.0000000000000103
 20
0.1418876295994044
 30
0.0
 42
-0.2388289709773578
  0
VERTEX
  5
1E2DB
  8
ASHADE
 10
0.0555850920379235
 20
0.2065655357438022
 30
0.0
 42
0.2498596821326003
  0
VERTEX
  5
1E2DC
  8
ASHADE
 10
0.2244020628780081
 20
0.3149695066410096
 30
0.0
  0
VERTEX
  5
1E2DD
  8
ASHADE
 10
0.2671469555944181
 20
0.3346545172008692
 30
0.0
  0
SEQEND
  5
1E2DE
  8
ASHADE
  0
POLYLINE
  5
1E254
  8
ASHADE
 66
     1
 10
0.0
 20
0.0
 30
-0.0000112638473531
  0
VERTEX
  5
1E2DF
  8
ASHADE
 10
2.0471464115083169
 20
11.352584008981569
 30
-0.0000112638473531
 42
0.2856714968240501
  0
VERTEX
  5
1E2E0
  8
ASHADE
 10
1.9909486131072061
 20
11.407701768686159
 30
-0.0000112638473531
  0
VERTEX
  5
1E2E1
  8
ASHADE
 10
1.5845488833487089
 20
11.42738721924005
 30
-0.0000112638473531
 42
-0.2350110028000704
  0
VERTEX
  5
1E2E2
  8
ASHADE
 10
1.3660841000080179
 20
11.64392201273615
 30
-0.0000112638473531
  0
SEQEND
  5
1E2E3
  8
ASHADE
  0
POLYLINE
  5
1E257
  8
ASHADE
 66
     1
 10
0.0
 20
0.0
 30
-0.0000112638473531
  0
VERTEX
  5
1E2E4
  8
ASHADE
 10
1.3660842368622541
 20
11.87770082826966
 30
-0.0000112638473531
  0
VERTEX
  5
1E2E5
  8
ASHADE
 10
1.366084352784517
 20
11.643921270378859
 30
-0.0000112638473531
  0
SEQEND
  5
1E2E6
  8
ASHADE
  0
POLYLINE
  5
1E25B
  8
ASHADE
 66
     1
 10
0.0
 20
0.0
 30
-0.0000112638473522
  0
VERTEX
  5
1E2E7
  8
ASHADE
 10
0.8778184930384059
 20
11.917071708583849
 30
-0.0000112638473522
  0
VERTEX
  5
1E2E8
  8
ASHADE
 10
0.8778184930384071
 20
12.00791934113683
 30
-0.0000112638473522
 42
0.3900119038120055
  0
VERTEX
  5
1E2E9
  8
ASHADE
 10
0.6185302416086067
 20
12.267442608048301
 30
-0.0000112638473522
  0
VERTEX
  5
1E2EA
  8
ASHADE
 10
-2.1248246014714209
 20
12.26746560506998
 30
-0.0000112638473522
  0
SEQEND
  5
1E2EB
  8
ASHADE
  0
POLYLINE
  5
1E264
  8
ASHADE
 66
     1
 10
0.0
 20
0.0
 30
-0.0000000001145835
  0
VERTEX
  5
1E2EC
  8
ASHADE
 10
0.403930248558515
 20
10.65985833554444
 30
-0.0000000001145835
  0
VERTEX
  5
1E2ED
  8
ASHADE
 10
0.4039302485585276
 20
10.614136971165509
 30
-0.0000000001145835
  0
SEQEND
  5
1E2EE
  8
ASHADE
  0
POLYLINE
  5
1E265
  8
ASHADE
 66
     1
 10
0.0
 20
0.0
 30
0.0
  0
VERTEX
  5
1E2EF
  8
ASHADE
 10
2.0196874983012658
 20
10.535420981933459
 30
0.0
 42
0.2856672522534686
  0
VERTEX
  5
1E2F0
  8
ASHADE
 10
1.9634896999001521
 20
10.59053874163804
 30
0.0
  0
VERTEX
  5
1E2F1
  8
ASHADE
 10
1.864219183892013
 20
10.59053921096501
 30
0.0
  0
VERTEX
  5
1E2F2
  8
ASHADE
 10
1.840158901959668
 20
10.614136971165509
 30
0.0
  0
VERTEX
  5
1E2F3
  8
ASHADE
 10
1.840158901959668
 20
10.974632181693879
 30
0.0
  0
SEQEND
  5
1E2F4
  8
ASHADE
  0
POLYLINE
  5
1E26B
  8
ASHADE
 66
     1
 10
0.0
 20
0.0
 30
0.0
  0
VERTEX
  5
1E2F5
  8
ASHADE
 10
2.2440899718403711
 20
0.141887629599404
 30
0.0
 42
0.2388289709773579
  0
VERTEX
  5
1E2F6
  8
ASHADE
 10
2.1885048798024598
 20
0.2065655357438023
 30
0.0
 42
-0.2498596821326013
  0
VERTEX
  5
1E2F7
  8
ASHADE
 10
2.0196879089623661
 20
0.3149695066410096
 30
0.0
  0
VERTEX
  5
1E2F8
  8
ASHADE
 10
1.976943016245956
 20
0.3346545172008692
 30
0.0
  0
SEQEND
  5
1E2F9
  8
ASHADE
  0
ENDSEC
  0
EOF
