  0
SECTION
  2
HEADER
  9
$ACADVER
  1
AC1009
  9
$INSBASE
 10
0.0
 20
0.0
 30
0.0
  9
$EXTMIN
 10
-11.375
 20
-9.0
 30
0.0
  9
$EXTMAX
 10
11.375
 20
9.0
 30
0.0
  9
$LIMMIN
 10
0.0
 20
0.0
  9
$LIMMAX
 10
12.0
 20
9.0
  9
$ORTHOMODE
 70
     0
  9
$REGENMODE
 70
     1
  9
$FILLMODE
 70
     1
  9
$QTEXTMODE
 70
     0
  9
$MIRRTEXT
 70
     1
  9
$DRAGMODE
 70
     2
  9
$LTSCALE
 40
1.0
  9
$OSMODE
 70
    37
  9
$ATTMODE
 70
     1
  9
$TEXTSIZE
 40
0.001
  9
$TRACEWID
 40
0.05
  9
$TEXTSTYLE
  7
STANDARD
  9
$CLAYER
  8
DMB
  9
$CELTYPE
  6
BYLAYER
  9
$CECOLOR
 62
   256
  9
$DIMSCALE
 40
1.0
  9
$DIMASZ
 40
0.18
  9
$DIMEXO
 40
0.0625
  9
$DIMDLI
 40
0.38
  9
$DIMRND
 40
0.0
  9
$DIMDLE
 40
0.0
  9
$DIMEXE
 40
0.18
  9
$DIMTP
 40
0.0
  9
$DIMTM
 40
0.0
  9
$DIMTXT
 40
0.18
  9
$DIMCEN
 40
0.09
  9
$DIMTSZ
 40
0.0
  9
$DIMTOL
 70
     0
  9
$DIMLIM
 70
     0
  9
$DIMTIH
 70
     1
  9
$DIMTOH
 70
     1
  9
$DIMSE1
 70
     0
  9
$DIMSE2
 70
     0
  9
$DIMTAD
 70
     0
  9
$DIMZIN
 70
     0
  9
$DIMBLK
  1

  9
$DIMASO
 70
     1
  9
$DIMSHO
 70
     1
  9
$DIMPOST
  1

  9
$DIMAPOST
  1

  9
$DIMALT
 70
     0
  9
$DIMALTD
 70
     2
  9
$DIMALTF
 40
25.399999999999999
  9
$DIMLFAC
 40
1.0
  9
$DIMTOFL
 70
     0
  9
$DIMTVP
 40
0.0
  9
$DIMTIX
 70
     0
  9
$DIMSOXD
 70
     0
  9
$DIMSAH
 70
     0
  9
$DIMBLK1
  1

  9
$DIMBLK2
  1

  9
$DIMSTYLE
  2
STANDARD
  9
$DIMCLRD
 70
     0
  9
$DIMCLRE
 70
     0
  9
$DIMCLRT
 70
     0
  9
$DIMTFAC
 40
1.0
  9
$DIMGAP
 40
0.09
  9
$LUNITS
 70
     2
  9
$LUPREC
 70
     4
  9
$SKETCHINC
 40
0.1
  9
$FILLETRAD
 40
0.2664
  9
$AUNITS
 70
     0
  9
$AUPREC
 70
     0
  9
$MENU
  1
.
  9
$ELEVATION
 40
0.0
  9
$PELEVATION
 40
0.0
  9
$THICKNESS
 40
0.0
  9
$LIMCHECK
 70
     0
  9
$BLIPMODE
 70
     0
  9
$CHAMFERA
 40
0.5
  9
$CHAMFERB
 40
0.5
  9
$SKPOLY
 70
     0
  9
$TDCREATE
 40
2451380.555432396
  9
$TDUPDATE
 40
2456700.4536276851
  9
$TDINDWG
 40
3.2860525231
  9
$TDUSRTIMER
 40
3.2860434837999999
  9
$USRTIMER
 70
     1
  9
$ANGBASE
 50
0.0
  9
$ANGDIR
 70
     0
  9
$PDMODE
 70
     0
  9
$PDSIZE
 40
0.0
  9
$PLINEWID
 40
0.0
  9
$COORDS
 70
     1
  9
$SPLFRAME
 70
     0
  9
$SPLINETYPE
 70
     6
  9
$SPLINESEGS
 70
     8
  9
$ATTDIA
 70
     0
  9
$ATTREQ
 70
     1
  9
$HANDLING
 70
     1
  9
$HANDSEED
  5
CD7
  9
$SURFTAB1
 70
     6
  9
$SURFTAB2
 70
     6
  9
$SURFTYPE
 70
     6
  9
$SURFU
 70
     6
  9
$SURFV
 70
     6
  9
$UCSNAME
  2

  9
$UCSORG
 10
0.0
 20
0.0
 30
0.0
  9
$UCSXDIR
 10
1.0
 20
0.0
 30
0.0
  9
$UCSYDIR
 10
0.0
 20
1.0
 30
0.0
  9
$PUCSNAME
  2

  9
$PUCSORG
 10
0.0
 20
0.0
 30
0.0
  9
$PUCSXDIR
 10
1.0
 20
0.0
 30
0.0
  9
$PUCSYDIR
 10
0.0
 20
1.0
 30
0.0
  9
$USERI1
 70
     0
  9
$USERI2
 70
     0
  9
$USERI3
 70
     0
  9
$USERI4
 70
     0
  9
$USERI5
 70
     0
  9
$USERR1
 40
0.0
  9
$USERR2
 40
0.0
  9
$USERR3
 40
0.0
  9
$USERR4
 40
0.0
  9
$USERR5
 40
0.0
  9
$WORLDVIEW
 70
     1
  9
$SHADEDGE
 70
     3
  9
$SHADEDIF
 70
    70
  9
$TILEMODE
 70
     1
  9
$MAXACTVP
 70
    64
  9
$PLIMCHECK
 70
     0
  9
$PEXTMIN
 10
1.0000000000000000E+020
 20
1.0000000000000000E+020
 30
1.0000000000000000E+020
  9
$PEXTMAX
 10
-1.0000000000000000E+020
 20
-1.0000000000000000E+020
 30
-1.0000000000000000E+020
  9
$PLIMMIN
 10
0.0
 20
0.0
  9
$PLIMMAX
 10
12.0
 20
9.0
  9
$UNITMODE
 70
     0
  9
$VISRETAIN
 70
     1
  9
$PLINEGEN
 70
     0
  9
$PSLTSCALE
 70
     1
  0
ENDSEC
  0
SECTION
  2
TABLES
  0
TABLE
  2
VPORT
 70
     1
  0
VPORT
  2
*ACTIVE
 70
     0
 10
0.0
 20
0.0
 11
1.0
 21
1.0
 12
-1.9687689853911541
 22
4.7161137658986219
 13
0.0
 23
0.0
 14
0.5
 24
0.5
 15
0.5
 25
0.5
 16
0.0
 26
0.0
 36
1.0
 17
0.0
 27
0.0
 37
0.0
 40
49.10943777542937
 41
1.1829652996845419
 42
50.0
 43
0.0
 44
0.0
 50
0.0
 51
0.0
 71
     0
 72
  5500
 73
     1
 74
     1
 75
     0
 76
     0
 77
     0
 78
     0
  0
ENDTAB
  0
TABLE
  2
LTYPE
 70
     2
  0
LTYPE
  2
CONTINUOUS
 70
     0
  3
Solid line
 72
    65
 73
     0
 40
0.0
  0
LTYPE
  2
PHANTOM2
 70
     0
  3
Phantom (.5x) ___ _ _ ___ _ _ ___ _ _ ___ _ _
 72
    65
 73
     6
 40
1.25
 49
0.625
 49
-0.125
 49
0.125
 49
-0.125
 49
0.125
 49
-0.125
  0
ENDTAB
  0
TABLE
  2
LAYER
 70
     3
  0
LAYER
  2
0
 70
     0
 62
     7
  6
CONTINUOUS
  0
LAYER
  2
DEFPOINTS
 70
     0
 62
     7
  6
CONTINUOUS
  0
LAYER
  2
DMB
 70
     0
 62
   151
  6
CONTINUOUS
  0
ENDTAB
  0
TABLE
  2
STYLE
 70
     1
  0
STYLE
  2
STANDARD
 70
     0
 40
0.0
 41
1.0
 50
0.0
 71
     0
 42
0.001
  3
txt
  4

  0
ENDTAB
  0
TABLE
  2
VIEW
 70
     0
  0
ENDTAB
  0
TABLE
  2
UCS
 70
     0
  0
ENDTAB
  0
TABLE
  2
APPID
 70
     6
  0
APPID
  2
ACAD
 70
     0
  0
APPID
  2
ACAECLAYERSTANDARD
 70
     0
  0
APPID
  2
ACAD_NAV_VCDISPLAY
 70
     0
  0
APPID
  2
ACCMTRANSPARENCY
 70
     0
  0
APPID
  2
AcDbAttr
 70
     0
  0
APPID
  2
ACAD_MLEADERVER
 70
     0
  0
ENDTAB
  0
TABLE
  2
DIMSTYLE
 70
     1
  0
DIMSTYLE
  2
STANDARD
 70
     0
  3

  4

  5

  6

  7

 40
1.0
 41
0.18
 42
0.0625
 43
0.38
 44
0.18
 45
0.0
 46
0.0
 47
0.0
 48
0.0
140
0.18
141
0.09
142
0.0
143
25.399999999999999
144
1.0
145
0.0
146
1.0
147
0.09
 71
     0
 72
     0
 73
     1
 74
     1
 75
     0
 76
     0
 77
     0
 78
     0
170
     0
171
     2
172
     0
173
     0
174
     0
175
     0
176
     0
177
     0
178
     0
  0
ENDTAB
  0
ENDSEC
  0
SECTION
  2
BLOCKS
  0
BLOCK
  8
0
  2
$MODEL_SPACE
 70
     2
 10
0.0
 20
0.0
 30
0.0
  3
$MODEL_SPACE
  1

  0
ENDBLK
  5
16
  8
0
  0
BLOCK
 67
     1
  8
0
  2
$PAPER_SPACE
 70
     0
 10
0.0
 20
0.0
 30
0.0
  3
$PAPER_SPACE
  1

  0
ENDBLK
  5
1D
 67
     1
  8
0
  0
ENDSEC
  0
SECTION
  2
ENTITIES
  0
POLYLINE
  5
74
  8
0
 66
     1
 10
0.0
 20
0.0
 30
0.0
 70
     1
  0
VERTEX
  5
CD
  8
0
 10
10.043030618969849
 20
-7.5080327868852521
 30
0.0
  0
VERTEX
  5
CE
  8
0
 10
10.043030618969849
 20
7.5080327868852521
 30
0.0
 42
0.4142135623730951
  0
VERTEX
  5
CF
  8
0
 10
9.8830306189698547
 20
7.6680327868852478
 30
0.0
  0
VERTEX
  5
D0
  8
0
 10
-9.8830306189698547
 20
7.6680327868852478
 30
0.0
 42
0.4142135623730951
  0
VERTEX
  5
D1
  8
0
 10
-10.043030618969849
 20
7.5080327868852521
 30
0.0
  0
VERTEX
  5
D2
  8
0
 10
-10.043030618969849
 20
-7.5080327868852521
 30
0.0
 42
0.4142135623730951
  0
VERTEX
  5
D3
  8
0
 10
-9.8830306189698547
 20
-7.6680327868852478
 30
0.0
  0
VERTEX
  5
D4
  8
0
 10
9.8830306189698547
 20
-7.6680327868852478
 30
0.0
 42
0.4142135623730951
  0
SEQEND
  5
D5
  8
0
  0
POLYLINE
  5
75
  8
0
 66
     1
 10
0.0
 20
0.0
 30
0.0
 70
     1
  0
VERTEX
  5
D6
  8
0
 10
10.043036701406679
 20
-7.8544735100751382
 30
0.0
  0
VERTEX
  5
D7
  8
0
 10
-10.043036701406679
 20
-7.8544735100751382
 30
0.0
 42
-0.4142135623730872
  0
VERTEX
  5
D8
  8
0
 10
-10.256136701406669
 20
-7.6413735100751401
 30
0.0
  0
VERTEX
  5
D9
  8
0
 10
-10.256136701406669
 20
7.6413735100751259
 30
0.0
 42
-0.4142135623730872
  0
VERTEX
  5
DA
  8
0
 10
-10.043036701406679
 20
7.8544735100751231
 30
0.0
  0
VERTEX
  5
DB
  8
0
 10
10.043036701406679
 20
7.8544735100751231
 30
0.0
 42
-0.4142135623730872
  0
VERTEX
  5
DC
  8
0
 10
10.256136701406669
 20
7.6413735100751259
 30
0.0
  0
VERTEX
  5
DD
  8
0
 10
10.256136701406669
 20
-7.6413735100751401
 30
0.0
 42
-0.4142135623730951
  0
SEQEND
  5
DE
  8
0
  0
POLYLINE
  8
0
  5
131
  66
     1
 10
0.000000
 20
0.000000
 30
0.000000
  70
     8
  0
VERTEX
  8
0
  5
132
 10
0.000000
 20
3.77858
 30
0.000000
  70
    32
  0
VERTEX
  8
0
  5
133
 10
-0.0759966
 20
3.77858
 30
0.000000
  70
    32
  0
VERTEX
  8
0
  5
134
 10
-0.151993
 20
3.77858
 30
0.000000
  70
    32
  0
VERTEX
  8
0
  5
135
 10
-0.227990
 20
3.77858
 30
0.000000
  70
    32
  0
VERTEX
  8
0
  5
136
 10
-0.303986
 20
3.77858
 30
0.000000
  70
    32
  0
VERTEX
  8
0
  5
137
 10
-0.379983
 20
3.77858
 30
0.000000
  70
    32
  0
VERTEX
  8
0
  5
138
 10
-0.455980
 20
3.77858
 30
0.000000
  70
    32
  0
VERTEX
  8
0
  5
139
 10
-0.531976
 20
3.77858
 30
0.000000
  70
    32
  0
VERTEX
  8
0
  5
13A
 10
-0.607973
 20
3.77858
 30
0.000000
  70
    32
  0
VERTEX
  8
0
  5
13B
 10
-0.683970
 20
3.77858
 30
0.000000
  70
    32
  0
VERTEX
  8
0
  5
13C
 10
-0.759966
 20
3.77858
 30
0.000000
  70
    32
  0
VERTEX
  8
0
  5
13D
 10
-0.835963
 20
3.77858
 30
0.000000
  70
    32
  0
VERTEX
  8
0
  5
13E
 10
-0.911960
 20
3.77858
 30
0.000000
  70
    32
  0
VERTEX
  8
0
  5
13F
 10
-0.987957
 20
3.77858
 30
0.000000
  70
    32
  0
VERTEX
  8
0
  5
140
 10
-1.06395
 20
3.77858
 30
0.000000
  70
    32
  0
VERTEX
  8
0
  5
141
 10
-1.13995
 20
3.77858
 30
0.000000
  70
    32
  0
VERTEX
  8
0
  5
142
 10
-1.21595
 20
3.77858
 30
0.000000
  70
    32
  0
VERTEX
  8
0
  5
143
 10
-1.29194
 20
3.77858
 30
0.000000
  70
    32
  0
VERTEX
  8
0
  5
144
 10
-1.36794
 20
3.77858
 30
0.000000
  70
    32
  0
VERTEX
  8
0
  5
145
 10
-1.44394
 20
3.77858
 30
0.000000
  70
    32
  0
VERTEX
  8
0
  5
146
 10
-1.51994
 20
3.77858
 30
0.000000
  70
    32
  0
VERTEX
  8
0
  5
147
 10
-1.59593
 20
3.77858
 30
0.000000
  70
    32
  0
VERTEX
  8
0
  5
148
 10
-1.67193
 20
3.77858
 30
0.000000
  70
    32
  0
VERTEX
  8
0
  5
149
 10
-1.74793
 20
3.77858
 30
0.000000
  70
    32
  0
VERTEX
  8
0
  5
14A
 10
-1.82392
 20
3.77858
 30
0.000000
  70
    32
  0
VERTEX
  8
0
  5
14B
 10
-1.89992
 20
3.77858
 30
0.000000
  70
    32
  0
VERTEX
  8
0
  5
14C
 10
-1.97592
 20
3.77858
 30
0.000000
  70
    32
  0
VERTEX
  8
0
  5
14D
 10
-2.05192
 20
3.77858
 30
0.000000
  70
    32
  0
VERTEX
  8
0
  5
14E
 10
-2.12791
 20
3.77858
 30
0.000000
  70
    32
  0
VERTEX
  8
0
  5
14F
 10
-2.20391
 20
3.77858
 30
0.000000
  70
    32
  0
VERTEX
  8
0
  5
150
 10
-2.27991
 20
3.77858
 30
0.000000
  70
    32
  0
VERTEX
  8
0
  5
151
 10
-2.35590
 20
3.77858
 30
0.000000
  70
    32
  0
VERTEX
  8
0
  5
152
 10
-2.43190
 20
3.77858
 30
0.000000
  70
    32
  0
VERTEX
  8
0
  5
153
 10
-2.50790
 20
3.77858
 30
0.000000
  70
    32
  0
VERTEX
  8
0
  5
154
 10
-2.58390
 20
3.77858
 30
0.000000
  70
    32
  0
VERTEX
  8
0
  5
155
 10
-2.65989
 20
3.77858
 30
0.000000
  70
    32
  0
VERTEX
  8
0
  5
156
 10
-2.73589
 20
3.77858
 30
0.000000
  70
    32
  0
VERTEX
  8
0
  5
157
 10
-2.81189
 20
3.77858
 30
0.000000
  70
    32
  0
VERTEX
  8
0
  5
158
 10
-2.88789
 20
3.77858
 30
0.000000
  70
    32
  0
VERTEX
  8
0
  5
159
 10
-2.96388
 20
3.77858
 30
0.000000
  70
    32
  0
VERTEX
  8
0
  5
15A
 10
-3.03988
 20
3.77858
 30
0.000000
  70
    32
  0
VERTEX
  8
0
  5
15B
 10
-3.11588
 20
3.77858
 30
0.000000
  70
    32
  0
VERTEX
  8
0
  5
15C
 10
-3.19188
 20
3.77858
 30
0.000000
  70
    32
  0
VERTEX
  8
0
  5
15D
 10
-3.26788
 20
3.77858
 30
0.000000
  70
    32
  0
VERTEX
  8
0
  5
15E
 10
-3.34387
 20
3.77858
 30
0.000000
  70
    32
  0
VERTEX
  8
0
  5
15F
 10
-3.41987
 20
3.77858
 30
0.000000
  70
    32
  0
VERTEX
  8
0
  5
160
 10
-3.49587
 20
3.77858
 30
0.000000
  70
    32
  0
VERTEX
  8
0
  5
161
 10
-3.57187
 20
3.77858
 30
0.000000
  70
    32
  0
VERTEX
  8
0
  5
162
 10
-3.64787
 20
3.77858
 30
0.000000
  70
    32
  0
VERTEX
  8
0
  5
163
 10
-3.72386
 20
3.77858
 30
0.000000
  70
    32
  0
VERTEX
  8
0
  5
164
 10
-3.79986
 20
3.77858
 30
0.000000
  70
    32
  0
VERTEX
  8
0
  5
165
 10
-3.87586
 20
3.77858
 30
0.000000
  70
    32
  0
VERTEX
  8
0
  5
166
 10
-3.95186
 20
3.77858
 30
0.000000
  70
    32
  0
VERTEX
  8
0
  5
167
 10
-4.02786
 20
3.77858
 30
0.000000
  70
    32
  0
VERTEX
  8
0
  5
168
 10
-4.10385
 20
3.77858
 30
0.000000
  70
    32
  0
VERTEX
  8
0
  5
169
 10
-4.17985
 20
3.77858
 30
0.000000
  70
    32
  0
VERTEX
  8
0
  5
16A
 10
-4.25585
 20
3.77858
 30
0.000000
  70
    32
  0
VERTEX
  8
0
  5
16B
 10
-4.33185
 20
3.77858
 30
0.000000
  70
    32
  0
VERTEX
  8
0
  5
16C
 10
-4.40785
 20
3.77858
 30
0.000000
  70
    32
  0
VERTEX
  8
0
  5
16D
 10
-4.48385
 20
3.77858
 30
0.000000
  70
    32
  0
VERTEX
  8
0
  5
16E
 10
-4.55984
 20
3.77858
 30
0.000000
  70
    32
  0
VERTEX
  8
0
  5
16F
 10
-4.63584
 20
3.77858
 30
0.000000
  70
    32
  0
VERTEX
  8
0
  5
170
 10
-4.71184
 20
3.77858
 30
0.000000
  70
    32
  0
VERTEX
  8
0
  5
171
 10
-4.78784
 20
3.77858
 30
0.000000
  70
    32
  0
VERTEX
  8
0
  5
172
 10
-4.86384
 20
3.77858
 30
0.000000
  70
    32
  0
VERTEX
  8
0
  5
173
 10
-4.93984
 20
3.77858
 30
0.000000
  70
    32
  0
VERTEX
  8
0
  5
174
 10
-5.01584
 20
3.77858
 30
0.000000
  70
    32
  0
VERTEX
  8
0
  5
175
 10
-5.09184
 20
3.77858
 30
0.000000
  70
    32
  0
VERTEX
  8
0
  5
176
 10
-5.16784
 20
3.77858
 30
0.000000
  70
    32
  0
VERTEX
  8
0
  5
177
 10
-5.24383
 20
3.77858
 30
0.000000
  70
    32
  0
VERTEX
  8
0
  5
178
 10
-5.31983
 20
3.77858
 30
0.000000
  70
    32
  0
VERTEX
  8
0
  5
179
 10
-5.35835
 20
3.77858
 30
0.000000
  70
    32
  0
VERTEX
  8
0
  5
17A
 10
-5.37679
 20
3.77858
 30
0.000000
  70
    32
  0
VERTEX
  8
0
  5
17B
 10
-5.39523
 20
3.77858
 30
0.000000
  70
    32
  0
VERTEX
  8
0
  5
17C
 10
-5.41367
 20
3.77858
 30
0.000000
  70
    32
  0
VERTEX
  8
0
  5
17D
 10
-5.43211
 20
3.77858
 30
0.000000
  70
    32
  0
VERTEX
  8
0
  5
17E
 10
-5.45054
 20
3.77858
 30
0.000000
  70
    32
  0
VERTEX
  8
0
  5
17F
 10
-5.46898
 20
3.77858
 30
0.000000
  70
    32
  0
VERTEX
  8
0
  5
180
 10
-5.48742
 20
3.77858
 30
0.000000
  70
    32
  0
VERTEX
  8
0
  5
181
 10
-5.50586
 20
3.77858
 30
0.000000
  70
    32
  0
VERTEX
  8
0
  5
182
 10
-5.52430
 20
3.77858
 30
0.000000
  70
    32
  0
VERTEX
  8
0
  5
183
 10
-5.54274
 20
3.77858
 30
0.000000
  70
    32
  0
VERTEX
  8
0
  5
184
 10
-5.56118
 20
3.77858
 30
0.000000
  70
    32
  0
VERTEX
  8
0
  5
185
 10
-5.57962
 20
3.77858
 30
0.000000
  70
    32
  0
VERTEX
  8
0
  5
186
 10
-5.59806
 20
3.77858
 30
0.000000
  70
    32
  0
VERTEX
  8
0
  5
187
 10
-5.61649
 20
3.77858
 30
0.000000
  70
    32
  0
VERTEX
  8
0
  5
188
 10
-5.63493
 20
3.77858
 30
0.000000
  70
    32
  0
VERTEX
  8
0
  5
189
 10
-5.65337
 20
3.77858
 30
0.000000
  70
    32
  0
VERTEX
  8
0
  5
18A
 10
-5.67181
 20
3.77858
 30
0.000000
  70
    32
  0
VERTEX
  8
0
  5
18B
 10
-5.69025
 20
3.77858
 30
0.000000
  70
    32
  0
VERTEX
  8
0
  5
18C
 10
-5.70869
 20
3.77858
 30
0.000000
  70
    32
  0
VERTEX
  8
0
  5
18D
 10
-5.72713
 20
3.77858
 30
0.000000
  70
    32
  0
VERTEX
  8
0
  5
18E
 10
-5.74557
 20
3.77858
 30
0.000000
  70
    32
  0
VERTEX
  8
0
  5
18F
 10
-5.76401
 20
3.77858
 30
0.000000
  70
    32
  0
VERTEX
  8
0
  5
190
 10
-5.78245
 20
3.77858
 30
0.000000
  70
    32
  0
VERTEX
  8
0
  5
191
 10
-5.80089
 20
3.77858
 30
0.000000
  70
    32
  0
VERTEX
  8
0
  5
192
 10
-5.81934
 20
3.77858
 30
0.000000
  70
    32
  0
VERTEX
  8
0
  5
193
 10
-5.83778
 20
3.77858
 30
0.000000
  70
    32
  0
VERTEX
  8
0
  5
194
 10
-5.85622
 20
3.77858
 30
0.000000
  70
    32
  0
VERTEX
  8
0
  5
195
 10
-5.87466
 20
3.77858
 30
0.000000
  70
    32
  0
VERTEX
  8
0
  5
196
 10
-5.89310
 20
3.77858
 30
0.000000
  70
    32
  0
VERTEX
  8
0
  5
197
 10
-5.91154
 20
3.77858
 30
0.000000
  70
    32
  0
VERTEX
  8
0
  5
198
 10
-5.92998
 20
3.77858
 30
0.000000
  70
    32
  0
VERTEX
  8
0
  5
199
 10
-5.94842
 20
3.77858
 30
0.000000
  70
    32
  0
VERTEX
  8
0
  5
19A
 10
-5.96686
 20
3.77858
 30
0.000000
  70
    32
  0
VERTEX
  8
0
  5
19B
 10
-5.98530
 20
3.77858
 30
0.000000
  70
    32
  0
VERTEX
  8
0
  5
19C
 10
-6.00375
 20
3.77858
 30
0.000000
  70
    32
  0
VERTEX
  8
0
  5
19D
 10
-6.02219
 20
3.77858
 30
0.000000
  70
    32
  0
VERTEX
  8
0
  5
19E
 10
-6.04063
 20
3.77858
 30
0.000000
  70
    32
  0
VERTEX
  8
0
  5
19F
 10
-6.05907
 20
3.77858
 30
0.000000
  70
    32
  0
VERTEX
  8
0
  5
1A0
 10
-6.07751
 20
3.77858
 30
0.000000
  70
    32
  0
VERTEX
  8
0
  5
1A1
 10
-6.09595
 20
3.77858
 30
0.000000
  70
    32
  0
VERTEX
  8
0
  5
1A2
 10
-6.11439
 20
3.77858
 30
0.000000
  70
    32
  0
VERTEX
  8
0
  5
1A3
 10
-6.13284
 20
3.77858
 30
0.000000
  70
    32
  0
VERTEX
  8
0
  5
1A4
 10
-6.15128
 20
3.77858
 30
0.000000
  70
    32
  0
VERTEX
  8
0
  5
1A5
 10
-6.16972
 20
3.77858
 30
0.000000
  70
    32
  0
VERTEX
  8
0
  5
1A6
 10
-6.18816
 20
3.77858
 30
0.000000
  70
    32
  0
VERTEX
  8
0
  5
1A7
 10
-6.20660
 20
3.77858
 30
0.000000
  70
    32
  0
VERTEX
  8
0
  5
1A8
 10
-6.22504
 20
3.77858
 30
0.000000
  70
    32
  0
VERTEX
  8
0
  5
1A9
 10
-6.24349
 20
3.77858
 30
0.000000
  70
    32
  0
VERTEX
  8
0
  5
1AA
 10
-6.26193
 20
3.77858
 30
0.000000
  70
    32
  0
VERTEX
  8
0
  5
1AB
 10
-6.28037
 20
3.77858
 30
0.000000
  70
    32
  0
VERTEX
  8
0
  5
1AC
 10
-6.29881
 20
3.77858
 30
0.000000
  70
    32
  0
VERTEX
  8
0
  5
1AD
 10
-6.31725
 20
3.77858
 30
0.000000
  70
    32
  0
VERTEX
  8
0
  5
1AE
 10
-6.33570
 20
3.77858
 30
0.000000
  70
    32
  0
VERTEX
  8
0
  5
1AF
 10
-6.35414
 20
3.77858
 30
0.000000
  70
    32
  0
VERTEX
  8
0
  5
1B0
 10
-6.37258
 20
3.77858
 30
0.000000
  70
    32
  0
VERTEX
  8
0
  5
1B1
 10
-6.39102
 20
3.77858
 30
0.000000
  70
    32
  0
VERTEX
  8
0
  5
1B2
 10
-6.40946
 20
3.77858
 30
0.000000
  70
    32
  0
VERTEX
  8
0
  5
1B3
 10
-6.42790
 20
3.77858
 30
0.000000
  70
    32
  0
VERTEX
  8
0
  5
1B4
 10
-6.44635
 20
3.77858
 30
0.000000
  70
    32
  0
VERTEX
  8
0
  5
1B5
 10
-6.46479
 20
3.77858
 30
0.000000
  70
    32
  0
VERTEX
  8
0
  5
1B6
 10
-6.48323
 20
3.77858
 30
0.000000
  70
    32
  0
VERTEX
  8
0
  5
1B7
 10
-6.50167
 20
3.77858
 30
0.000000
  70
    32
  0
VERTEX
  8
0
  5
1B8
 10
-6.52011
 20
3.77858
 30
0.000000
  70
    32
  0
VERTEX
  8
0
  5
1B9
 10
-6.53856
 20
3.77858
 30
0.000000
  70
    32
  0
VERTEX
  8
0
  5
1BA
 10
-6.55700
 20
3.77858
 30
0.000000
  70
    32
  0
VERTEX
  8
0
  5
1BB
 10
-6.57544
 20
3.77858
 30
0.000000
  70
    32
  0
VERTEX
  8
0
  5
1BC
 10
-6.59388
 20
3.77858
 30
0.000000
  70
    32
  0
VERTEX
  8
0
  5
1BD
 10
-6.61232
 20
3.77858
 30
0.000000
  70
    32
  0
VERTEX
  8
0
  5
1BE
 10
-6.63076
 20
3.77858
 30
0.000000
  70
    32
  0
VERTEX
  8
0
  5
1BF
 10
-6.64921
 20
3.77858
 30
0.000000
  70
    32
  0
VERTEX
  8
0
  5
1C0
 10
-6.66765
 20
3.77858
 30
0.000000
  70
    32
  0
VERTEX
  8
0
  5
1C1
 10
-6.68609
 20
3.77858
 30
0.000000
  70
    32
  0
VERTEX
  8
0
  5
1C2
 10
-6.70453
 20
3.77858
 30
0.000000
  70
    32
  0
VERTEX
  8
0
  5
1C3
 10
-6.72297
 20
3.77858
 30
0.000000
  70
    32
  0
VERTEX
  8
0
  5
1C4
 10
-6.74141
 20
3.77858
 30
0.000000
  70
    32
  0
VERTEX
  8
0
  5
1C5
 10
-6.75985
 20
3.77858
 30
0.000000
  70
    32
  0
VERTEX
  8
0
  5
1C6
 10
-6.77829
 20
3.77858
 30
0.000000
  70
    32
  0
VERTEX
  8
0
  5
1C7
 10
-6.79674
 20
3.77858
 30
0.000000
  70
    32
  0
VERTEX
  8
0
  5
1C8
 10
-6.81518
 20
3.77858
 30
0.000000
  70
    32
  0
VERTEX
  8
0
  5
1C9
 10
-6.83362
 20
3.77858
 30
0.000000
  70
    32
  0
VERTEX
  8
0
  5
1CA
 10
-6.85206
 20
3.77858
 30
0.000000
  70
    32
  0
VERTEX
  8
0
  5
1CB
 10
-6.87050
 20
3.77858
 30
0.000000
  70
    32
  0
VERTEX
  8
0
  5
1CC
 10
-6.88894
 20
3.77858
 30
0.000000
  70
    32
  0
VERTEX
  8
0
  5
1CD
 10
-6.90738
 20
3.77858
 30
0.000000
  70
    32
  0
VERTEX
  8
0
  5
1CE
 10
-6.92582
 20
3.77858
 30
0.000000
  70
    32
  0
VERTEX
  8
0
  5
1CF
 10
-6.94426
 20
3.77858
 30
0.000000
  70
    32
  0
VERTEX
  8
0
  5
1D0
 10
-6.96270
 20
3.77858
 30
0.000000
  70
    32
  0
VERTEX
  8
0
  5
1D1
 10
-6.98114
 20
3.77858
 30
0.000000
  70
    32
  0
VERTEX
  8
0
  5
1D2
 10
-6.99958
 20
3.77858
 30
0.000000
  70
    32
  0
VERTEX
  8
0
  5
1D3
 10
-7.01802
 20
3.77858
 30
0.000000
  70
    32
  0
VERTEX
  8
0
  5
1D4
 10
-7.03646
 20
3.77858
 30
0.000000
  70
    32
  0
VERTEX
  8
0
  5
1D5
 10
-7.05490
 20
3.77858
 30
0.000000
  70
    32
  0
VERTEX
  8
0
  5
1D6
 10
-7.07334
 20
3.77858
 30
0.000000
  70
    32
  0
VERTEX
  8
0
  5
1D7
 10
-7.09178
 20
3.77858
 30
0.000000
  70
    32
  0
VERTEX
  8
0
  5
1D8
 10
-7.11022
 20
3.77858
 30
0.000000
  70
    32
  0
VERTEX
  8
0
  5
1D9
 10
-7.12866
 20
3.77858
 30
0.000000
  70
    32
  0
VERTEX
  8
0
  5
1DA
 10
-7.14710
 20
3.77858
 30
0.000000
  70
    32
  0
VERTEX
  8
0
  5
1DB
 10
-7.16554
 20
3.77858
 30
0.000000
  70
    32
  0
VERTEX
  8
0
  5
1DC
 10
-7.18398
 20
3.77858
 30
0.000000
  70
    32
  0
VERTEX
  8
0
  5
1DD
 10
-7.20242
 20
3.77858
 30
0.000000
  70
    32
  0
VERTEX
  8
0
  5
1DE
 10
-7.22086
 20
3.77858
 30
0.000000
  70
    32
  0
VERTEX
  8
0
  5
1DF
 10
-7.23929
 20
3.77858
 30
0.000000
  70
    32
  0
VERTEX
  8
0
  5
1E0
 10
-7.25773
 20
3.77858
 30
0.000000
  70
    32
  0
VERTEX
  8
0
  5
1E1
 10
-7.27617
 20
3.77858
 30
0.000000
  70
    32
  0
VERTEX
  8
0
  5
1E2
 10
-7.29461
 20
3.77858
 30
0.000000
  70
    32
  0
VERTEX
  8
0
  5
1E3
 10
-7.31305
 20
3.77858
 30
0.000000
  70
    32
  0
VERTEX
  8
0
  5
1E4
 10
-7.33149
 20
3.77858
 30
0.000000
  70
    32
  0
VERTEX
  8
0
  5
1E5
 10
-7.34992
 20
3.77858
 30
0.000000
  70
    32
  0
VERTEX
  8
0
  5
1E6
 10
-7.36836
 20
3.77858
 30
0.000000
  70
    32
  0
VERTEX
  8
0
  5
1E7
 10
-7.38020
 20
3.77858
 30
0.000000
  70
    32
  0
VERTEX
  8
0
  5
1E8
 10
-7.38513
 20
3.77858
 30
0.000000
  70
    32
  0
VERTEX
  8
0
  5
1E9
 10
-7.39005
 20
3.77858
 30
0.000000
  70
    32
  0
VERTEX
  8
0
  5
1EA
 10
-7.39498
 20
3.77858
 30
0.000000
  70
    32
  0
VERTEX
  8
0
  5
1EB
 10
-7.39991
 20
3.77858
 30
0.000000
  70
    32
  0
VERTEX
  8
0
  5
1EC
 10
-7.40483
 20
3.77858
 30
0.000000
  70
    32
  0
VERTEX
  8
0
  5
1ED
 10
-7.40976
 20
3.77858
 30
0.000000
  70
    32
  0
VERTEX
  8
0
  5
1EE
 10
-7.41469
 20
3.77858
 30
0.000000
  70
    32
  0
VERTEX
  8
0
  5
1EF
 10
-7.41961
 20
3.77858
 30
0.000000
  70
    32
  0
VERTEX
  8
0
  5
1F0
 10
-7.42454
 20
3.77858
 30
0.000000
  70
    32
  0
VERTEX
  8
0
  5
1F1
 10
-7.42947
 20
3.77858
 30
0.000000
  70
    32
  0
VERTEX
  8
0
  5
1F2
 10
-7.43439
 20
3.77858
 30
0.000000
  70
    32
  0
VERTEX
  8
0
  5
1F3
 10
-7.43932
 20
3.77858
 30
0.000000
  70
    32
  0
VERTEX
  8
0
  5
1F4
 10
-7.44425
 20
3.77858
 30
0.000000
  70
    32
  0
VERTEX
  8
0
  5
1F5
 10
-7.44917
 20
3.77858
 30
0.000000
  70
    32
  0
VERTEX
  8
0
  5
1F6
 10
-7.45410
 20
3.77858
 30
0.000000
  70
    32
  0
VERTEX
  8
0
  5
1F7
 10
-7.45903
 20
3.77858
 30
0.000000
  70
    32
  0
VERTEX
  8
0
  5
1F8
 10
-7.46395
 20
3.77858
 30
0.000000
  70
    32
  0
VERTEX
  8
0
  5
1F9
 10
-7.46888
 20
3.77858
 30
0.000000
  70
    32
  0
VERTEX
  8
0
  5
1FA
 10
-7.47381
 20
3.77858
 30
0.000000
  70
    32
  0
VERTEX
  8
0
  5
1FB
 10
-7.47873
 20
3.77858
 30
0.000000
  70
    32
  0
VERTEX
  8
0
  5
1FC
 10
-7.48366
 20
3.77858
 30
0.000000
  70
    32
  0
VERTEX
  8
0
  5
1FD
 10
-7.48859
 20
3.77858
 30
0.000000
  70
    32
  0
VERTEX
  8
0
  5
1FE
 10
-7.49351
 20
3.77858
 30
0.000000
  70
    32
  0
VERTEX
  8
0
  5
1FF
 10
-7.49844
 20
3.77858
 30
0.000000
  70
    32
  0
VERTEX
  8
0
  5
200
 10
-7.50337
 20
3.77858
 30
0.000000
  70
    32
  0
VERTEX
  8
0
  5
201
 10
-7.50829
 20
3.77858
 30
0.000000
  70
    32
  0
VERTEX
  8
0
  5
202
 10
-7.51322
 20
3.77858
 30
0.000000
  70
    32
  0
VERTEX
  8
0
  5
203
 10
-7.51814
 20
3.77858
 30
0.000000
  70
    32
  0
VERTEX
  8
0
  5
204
 10
-7.52307
 20
3.77858
 30
0.000000
  70
    32
  0
VERTEX
  8
0
  5
205
 10
-7.52800
 20
3.77858
 30
0.000000
  70
    32
  0
VERTEX
  8
0
  5
206
 10
-7.53292
 20
3.77858
 30
0.000000
  70
    32
  0
VERTEX
  8
0
  5
207
 10
-7.53785
 20
3.77858
 30
0.000000
  70
    32
  0
VERTEX
  8
0
  5
208
 10
-7.54278
 20
3.77858
 30
0.000000
  70
    32
  0
VERTEX
  8
0
  5
209
 10
-7.54770
 20
3.77858
 30
0.000000
  70
    32
  0
VERTEX
  8
0
  5
20A
 10
-7.55263
 20
3.77858
 30
0.000000
  70
    32
  0
VERTEX
  8
0
  5
20B
 10
-7.55755
 20
3.77858
 30
0.000000
  70
    32
  0
VERTEX
  8
0
  5
20C
 10
-7.56248
 20
3.77858
 30
0.000000
  70
    32
  0
VERTEX
  8
0
  5
20D
 10
-7.56741
 20
3.77858
 30
0.000000
  70
    32
  0
VERTEX
  8
0
  5
20E
 10
-7.57233
 20
3.77858
 30
0.000000
  70
    32
  0
VERTEX
  8
0
  5
20F
 10
-7.57726
 20
3.77858
 30
0.000000
  70
    32
  0
VERTEX
  8
0
  5
210
 10
-7.58218
 20
3.77858
 30
0.000000
  70
    32
  0
VERTEX
  8
0
  5
211
 10
-7.58711
 20
3.77858
 30
0.000000
  70
    32
  0
VERTEX
  8
0
  5
212
 10
-7.59204
 20
3.77858
 30
0.000000
  70
    32
  0
VERTEX
  8
0
  5
213
 10
-7.59696
 20
3.77858
 30
0.000000
  70
    32
  0
VERTEX
  8
0
  5
214
 10
-7.60189
 20
3.77858
 30
0.000000
  70
    32
  0
VERTEX
  8
0
  5
215
 10
-7.60681
 20
3.77858
 30
0.000000
  70
    32
  0
VERTEX
  8
0
  5
216
 10
-7.61174
 20
3.77858
 30
0.000000
  70
    32
  0
VERTEX
  8
0
  5
217
 10
-7.61666
 20
3.77858
 30
0.000000
  70
    32
  0
VERTEX
  8
0
  5
218
 10
-7.62159
 20
3.77858
 30
0.000000
  70
    32
  0
VERTEX
  8
0
  5
219
 10
-7.62651
 20
3.77858
 30
0.000000
  70
    32
  0
VERTEX
  8
0
  5
21A
 10
-7.63144
 20
3.77858
 30
0.000000
  70
    32
  0
VERTEX
  8
0
  5
21B
 10
-7.63637
 20
3.77858
 30
0.000000
  70
    32
  0
VERTEX
  8
0
  5
21C
 10
-7.64129
 20
3.77858
 30
0.000000
  70
    32
  0
VERTEX
  8
0
  5
21D
 10
-7.64622
 20
3.77858
 30
0.000000
  70
    32
  0
VERTEX
  8
0
  5
21E
 10
-7.65114
 20
3.77858
 30
0.000000
  70
    32
  0
VERTEX
  8
0
  5
21F
 10
-7.65607
 20
3.77858
 30
0.000000
  70
    32
  0
VERTEX
  8
0
  5
220
 10
-7.66099
 20
3.77858
 30
0.000000
  70
    32
  0
VERTEX
  8
0
  5
221
 10
-7.66592
 20
3.77858
 30
0.000000
  70
    32
  0
VERTEX
  8
0
  5
222
 10
-7.67084
 20
3.77858
 30
0.000000
  70
    32
  0
VERTEX
  8
0
  5
223
 10
-7.67577
 20
3.77858
 30
0.000000
  70
    32
  0
VERTEX
  8
0
  5
224
 10
-7.68069
 20
3.77858
 30
0.000000
  70
    32
  0
VERTEX
  8
0
  5
225
 10
-7.68562
 20
3.77858
 30
0.000000
  70
    32
  0
VERTEX
  8
0
  5
226
 10
-7.69054
 20
3.77858
 30
0.000000
  70
    32
  0
VERTEX
  8
0
  5
227
 10
-7.69547
 20
3.77858
 30
0.000000
  70
    32
  0
VERTEX
  8
0
  5
228
 10
-7.70039
 20
3.77858
 30
0.000000
  70
    32
  0
VERTEX
  8
0
  5
229
 10
-7.70531
 20
3.77858
 30
0.000000
  70
    32
  0
VERTEX
  8
0
  5
22A
 10
-7.71024
 20
3.77858
 30
0.000000
  70
    32
  0
VERTEX
  8
0
  5
22B
 10
-7.71516
 20
3.77858
 30
0.000000
  70
    32
  0
VERTEX
  8
0
  5
22C
 10
-7.72009
 20
3.77858
 30
0.000000
  70
    32
  0
VERTEX
  8
0
  5
22D
 10
-7.72501
 20
3.77858
 30
0.000000
  70
    32
  0
VERTEX
  8
0
  5
22E
 10
-7.72994
 20
3.77858
 30
0.000000
  70
    32
  0
VERTEX
  8
0
  5
22F
 10
-7.73486
 20
3.77858
 30
0.000000
  70
    32
  0
VERTEX
  8
0
  5
230
 10
-7.73979
 20
3.77858
 30
0.000000
  70
    32
  0
VERTEX
  8
0
  5
231
 10
-7.74471
 20
3.77858
 30
0.000000
  70
    32
  0
VERTEX
  8
0
  5
232
 10
-7.74963
 20
3.77858
 30
0.000000
  70
    32
  0
VERTEX
  8
0
  5
233
 10
-7.75456
 20
3.77858
 30
0.000000
  70
    32
  0
VERTEX
  8
0
  5
234
 10
-7.75948
 20
3.77858
 30
0.000000
  70
    32
  0
VERTEX
  8
0
  5
235
 10
-7.76440
 20
3.77858
 30
0.000000
  70
    32
  0
VERTEX
  8
0
  5
236
 10
-7.76933
 20
3.77858
 30
0.000000
  70
    32
  0
VERTEX
  8
0
  5
237
 10
-7.77425
 20
3.77858
 30
0.000000
  70
    32
  0
VERTEX
  8
0
  5
238
 10
-7.77918
 20
3.77858
 30
0.000000
  70
    32
  0
VERTEX
  8
0
  5
239
 10
-7.78410
 20
3.77858
 30
0.000000
  70
    32
  0
VERTEX
  8
0
  5
23A
 10
-7.78902
 20
3.77858
 30
0.000000
  70
    32
  0
VERTEX
  8
0
  5
23B
 10
-7.79395
 20
3.77858
 30
0.000000
  70
    32
  0
VERTEX
  8
0
  5
23C
 10
-7.79887
 20
3.77858
 30
0.000000
  70
    32
  0
VERTEX
  8
0
  5
23D
 10
-7.80379
 20
3.77858
 30
0.000000
  70
    32
  0
VERTEX
  8
0
  5
23E
 10
-7.80871
 20
3.77858
 30
0.000000
  70
    32
  0
VERTEX
  8
0
  5
23F
 10
-7.81364
 20
3.77858
 30
0.000000
  70
    32
  0
VERTEX
  8
0
  5
240
 10
-7.81856
 20
3.77858
 30
0.000000
  70
    32
  0
VERTEX
  8
0
  5
241
 10
-7.82348
 20
3.77858
 30
0.000000
  70
    32
  0
VERTEX
  8
0
  5
242
 10
-7.82841
 20
3.77858
 30
0.000000
  70
    32
  0
VERTEX
  8
0
  5
243
 10
-7.83333
 20
3.77858
 30
0.000000
  70
    32
  0
VERTEX
  8
0
  5
244
 10
-7.83825
 20
3.77858
 30
0.000000
  70
    32
  0
VERTEX
  8
0
  5
245
 10
-7.84317
 20
3.77858
 30
0.000000
  70
    32
  0
VERTEX
  8
0
  5
246
 10
-7.84810
 20
3.77858
 30
0.000000
  70
    32
  0
VERTEX
  8
0
  5
247
 10
-7.85302
 20
3.77858
 30
0.000000
  70
    32
  0
VERTEX
  8
0
  5
248
 10
-7.85794
 20
3.77858
 30
0.000000
  70
    32
  0
VERTEX
  8
0
  5
249
 10
-7.86286
 20
3.77858
 30
0.000000
  70
    32
  0
VERTEX
  8
0
  5
24A
 10
-7.86778
 20
3.77858
 30
0.000000
  70
    32
  0
VERTEX
  8
0
  5
24B
 10
-7.87271
 20
3.77858
 30
0.000000
  70
    32
  0
VERTEX
  8
0
  5
24C
 10
-7.87763
 20
3.77858
 30
0.000000
  70
    32
  0
VERTEX
  8
0
  5
24D
 10
-7.88255
 20
3.77858
 30
0.000000
  70
    32
  0
VERTEX
  8
0
  5
24E
 10
-7.88747
 20
3.77858
 30
0.000000
  70
    32
  0
VERTEX
  8
0
  5
24F
 10
-7.89239
 20
3.77858
 30
0.000000
  70
    32
  0
VERTEX
  8
0
  5
250
 10
-7.89731
 20
3.77858
 30
0.000000
  70
    32
  0
VERTEX
  8
0
  5
251
 10
-7.90223
 20
3.77858
 30
0.000000
  70
    32
  0
VERTEX
  8
0
  5
252
 10
-7.90716
 20
3.77858
 30
0.000000
  70
    32
  0
VERTEX
  8
0
  5
253
 10
-7.91208
 20
3.77858
 30
0.000000
  70
    32
  0
VERTEX
  8
0
  5
254
 10
-7.91700
 20
3.77858
 30
0.000000
  70
    32
  0
VERTEX
  8
0
  5
255
 10
-7.92161
 20
3.77858
 30
0.000000
  70
    32
  0
VERTEX
  8
0
  5
256
 10
-7.92553
 20
3.77858
 30
0.000000
  70
    32
  0
VERTEX
  8
0
  5
257
 10
-7.92939
 20
3.77858
 30
0.000000
  70
    32
  0
VERTEX
  8
0
  5
258
 10
-7.93317
 20
3.77859
 30
0.000000
  70
    32
  0
VERTEX
  8
0
  5
259
 10
-7.93688
 20
3.77860
 30
0.000000
  70
    32
  0
VERTEX
  8
0
  5
25A
 10
-7.94053
 20
3.77861
 30
0.000000
  70
    32
  0
VERTEX
  8
0
  5
25B
 10
-7.94410
 20
3.77862
 30
0.000000
  70
    32
  0
VERTEX
  8
0
  5
25C
 10
-7.94762
 20
3.77864
 30
0.000000
  70
    32
  0
VERTEX
  8
0
  5
25D
 10
-7.95106
 20
3.77865
 30
0.000000
  70
    32
  0
VERTEX
  8
0
  5
25E
 10
-7.95444
 20
3.77866
 30
0.000000
  70
    32
  0
VERTEX
  8
0
  5
25F
 10
-7.95777
 20
3.77866
 30
0.000000
  70
    32
  0
VERTEX
  8
0
  5
260
 10
-7.96102
 20
3.77867
 30
0.000000
  70
    32
  0
VERTEX
  8
0
  5
261
 10
-7.96422
 20
3.77867
 30
0.000000
  70
    32
  0
VERTEX
  8
0
  5
262
 10
-7.96736
 20
3.77867
 30
0.000000
  70
    32
  0
VERTEX
  8
0
  5
263
 10
-7.97045
 20
3.77867
 30
0.000000
  70
    32
  0
VERTEX
  8
0
  5
264
 10
-7.97347
 20
3.77866
 30
0.000000
  70
    32
  0
VERTEX
  8
0
  5
265
 10
-7.97644
 20
3.77864
 30
0.000000
  70
    32
  0
VERTEX
  8
0
  5
266
 10
-7.97936
 20
3.77862
 30
0.000000
  70
    32
  0
VERTEX
  8
0
  5
267
 10
-7.98223
 20
3.77860
 30
0.000000
  70
    32
  0
VERTEX
  8
0
  5
268
 10
-7.98504
 20
3.77856
 30
0.000000
  70
    32
  0
VERTEX
  8
0
  5
269
 10
-7.98780
 20
3.77852
 30
0.000000
  70
    32
  0
VERTEX
  8
0
  5
26A
 10
-7.99051
 20
3.77847
 30
0.000000
  70
    32
  0
VERTEX
  8
0
  5
26B
 10
-7.99318
 20
3.77841
 30
0.000000
  70
    32
  0
VERTEX
  8
0
  5
26C
 10
-7.99580
 20
3.77835
 30
0.000000
  70
    32
  0
VERTEX
  8
0
  5
26D
 10
-7.99837
 20
3.77827
 30
0.000000
  70
    32
  0
VERTEX
  8
0
  5
26E
 10
-8.00089
 20
3.77818
 30
0.000000
  70
    32
  0
VERTEX
  8
0
  5
26F
 10
-8.00338
 20
3.77808
 30
0.000000
  70
    32
  0
VERTEX
  8
0
  5
270
 10
-8.00582
 20
3.77797
 30
0.000000
  70
    32
  0
VERTEX
  8
0
  5
271
 10
-8.00822
 20
3.77785
 30
0.000000
  70
    32
  0
VERTEX
  8
0
  5
272
 10
-8.01058
 20
3.77772
 30
0.000000
  70
    32
  0
VERTEX
  8
0
  5
273
 10
-8.01290
 20
3.77757
 30
0.000000
  70
    32
  0
VERTEX
  8
0
  5
274
 10
-8.01519
 20
3.77741
 30
0.000000
  70
    32
  0
VERTEX
  8
0
  5
275
 10
-8.01744
 20
3.77723
 30
0.000000
  70
    32
  0
VERTEX
  8
0
  5
276
 10
-8.01965
 20
3.77704
 30
0.000000
  70
    32
  0
VERTEX
  8
0
  5
277
 10
-8.02183
 20
3.77683
 30
0.000000
  70
    32
  0
VERTEX
  8
0
  5
278
 10
-8.02398
 20
3.77661
 30
0.000000
  70
    32
  0
VERTEX
  8
0
  5
279
 10
-8.02609
 20
3.77637
 30
0.000000
  70
    32
  0
VERTEX
  8
0
  5
27A
 10
-8.02818
 20
3.77611
 30
0.000000
  70
    32
  0
VERTEX
  8
0
  5
27B
 10
-8.03023
 20
3.77584
 30
0.000000
  70
    32
  0
VERTEX
  8
0
  5
27C
 10
-8.03226
 20
3.77555
 30
0.000000
  70
    32
  0
VERTEX
  8
0
  5
27D
 10
-8.03426
 20
3.77523
 30
0.000000
  70
    32
  0
VERTEX
  8
0
  5
27E
 10
-8.03624
 20
3.77490
 30
0.000000
  70
    32
  0
VERTEX
  8
0
  5
27F
 10
-8.03819
 20
3.77455
 30
0.000000
  70
    32
  0
VERTEX
  8
0
  5
280
 10
-8.04012
 20
3.77418
 30
0.000000
  70
    32
  0
VERTEX
  8
0
  5
281
 10
-8.04203
 20
3.77378
 30
0.000000
  70
    32
  0
VERTEX
  8
0
  5
282
 10
-8.04391
 20
3.77337
 30
0.000000
  70
    32
  0
VERTEX
  8
0
  5
283
 10
-8.04578
 20
3.77293
 30
0.000000
  70
    32
  0
VERTEX
  8
0
  5
284
 10
-8.04763
 20
3.77246
 30
0.000000
  70
    32
  0
VERTEX
  8
0
  5
285
 10
-8.04946
 20
3.77198
 30
0.000000
  70
    32
  0
VERTEX
  8
0
  5
286
 10
-8.05127
 20
3.77147
 30
0.000000
  70
    32
  0
VERTEX
  8
0
  5
287
 10
-8.05307
 20
3.77093
 30
0.000000
  70
    32
  0
VERTEX
  8
0
  5
288
 10
-8.05486
 20
3.77037
 30
0.000000
  70
    32
  0
VERTEX
  8
0
  5
289
 10
-8.05663
 20
3.76979
 30
0.000000
  70
    32
  0
VERTEX
  8
0
  5
28A
 10
-8.05839
 20
3.76918
 30
0.000000
  70
    32
  0
VERTEX
  8
0
  5
28B
 10
-8.06014
 20
3.76854
 30
0.000000
  70
    32
  0
VERTEX
  8
0
  5
28C
 10
-8.06189
 20
3.76787
 30
0.000000
  70
    32
  0
VERTEX
  8
0
  5
28D
 10
-8.06362
 20
3.76717
 30
0.000000
  70
    32
  0
VERTEX
  8
0
  5
28E
 10
-8.06535
 20
3.76645
 30
0.000000
  70
    32
  0
VERTEX
  8
0
  5
28F
 10
-8.06707
 20
3.76569
 30
0.000000
  70
    32
  0
VERTEX
  8
0
  5
290
 10
-8.06879
 20
3.76491
 30
0.000000
  70
    32
  0
VERTEX
  8
0
  5
291
 10
-8.07051
 20
3.76410
 30
0.000000
  70
    32
  0
VERTEX
  8
0
  5
292
 10
-8.07222
 20
3.76325
 30
0.000000
  70
    32
  0
VERTEX
  8
0
  5
293
 10
-8.07394
 20
3.76237
 30
0.000000
  70
    32
  0
VERTEX
  8
0
  5
294
 10
-8.07565
 20
3.76146
 30
0.000000
  70
    32
  0
VERTEX
  8
0
  5
295
 10
-8.07737
 20
3.76052
 30
0.000000
  70
    32
  0
VERTEX
  8
0
  5
296
 10
-8.07909
 20
3.75954
 30
0.000000
  70
    32
  0
VERTEX
  8
0
  5
297
 10
-8.08081
 20
3.75853
 30
0.000000
  70
    32
  0
VERTEX
  8
0
  5
298
 10
-8.08254
 20
3.75749
 30
0.000000
  70
    32
  0
VERTEX
  8
0
  5
299
 10
-8.08427
 20
3.75641
 30
0.000000
  70
    32
  0
VERTEX
  8
0
  5
29A
 10
-8.08602
 20
3.75529
 30
0.000000
  70
    32
  0
VERTEX
  8
0
  5
29B
 10
-8.08777
 20
3.75414
 30
0.000000
  70
    32
  0
VERTEX
  8
0
  5
29C
 10
-8.08953
 20
3.75295
 30
0.000000
  70
    32
  0
VERTEX
  8
0
  5
29D
 10
-8.09131
 20
3.75173
 30
0.000000
  70
    32
  0
VERTEX
  8
0
  5
29E
 10
-8.09309
 20
3.75046
 30
0.000000
  70
    32
  0
VERTEX
  8
0
  5
29F
 10
-8.09489
 20
3.74916
 30
0.000000
  70
    32
  0
VERTEX
  8
0
  5
2A0
 10
-8.09671
 20
3.74782
 30
0.000000
  70
    32
  0
VERTEX
  8
0
  5
2A1
 10
-8.09854
 20
3.74643
 30
0.000000
  70
    32
  0
VERTEX
  8
0
  5
2A2
 10
-8.10038
 20
3.74501
 30
0.000000
  70
    32
  0
VERTEX
  8
0
  5
2A3
 10
-8.10225
 20
3.74355
 30
0.000000
  70
    32
  0
VERTEX
  8
0
  5
2A4
 10
-8.10414
 20
3.74204
 30
0.000000
  70
    32
  0
VERTEX
  8
0
  5
2A5
 10
-8.10604
 20
3.74050
 30
0.000000
  70
    32
  0
VERTEX
  8
0
  5
2A6
 10
-8.10797
 20
3.73891
 30
0.000000
  70
    32
  0
VERTEX
  8
0
  5
2A7
 10
-8.10992
 20
3.73727
 30
0.000000
  70
    32
  0
VERTEX
  8
0
  5
2A8
 10
-8.11190
 20
3.73559
 30
0.000000
  70
    32
  0
VERTEX
  8
0
  5
2A9
 10
-8.11390
 20
3.73387
 30
0.000000
  70
    32
  0
VERTEX
  8
0
  5
2AA
 10
-8.11593
 20
3.73211
 30
0.000000
  70
    32
  0
VERTEX
  8
0
  5
2AB
 10
-8.11798
 20
3.73029
 30
0.000000
  70
    32
  0
VERTEX
  8
0
  5
2AC
 10
-8.12007
 20
3.72844
 30
0.000000
  70
    32
  0
VERTEX
  8
0
  5
2AD
 10
-8.12219
 20
3.72653
 30
0.000000
  70
    32
  0
VERTEX
  8
0
  5
2AE
 10
-8.12433
 20
3.72458
 30
0.000000
  70
    32
  0
VERTEX
  8
0
  5
2AF
 10
-8.12651
 20
3.72258
 30
0.000000
  70
    32
  0
VERTEX
  8
0
  5
2B0
 10
-8.12873
 20
3.72053
 30
0.000000
  70
    32
  0
VERTEX
  8
0
  5
2B1
 10
-8.13097
 20
3.71843
 30
0.000000
  70
    32
  0
VERTEX
  8
0
  5
2B2
 10
-8.13326
 20
3.71628
 30
0.000000
  70
    32
  0
VERTEX
  8
0
  5
2B3
 10
-8.13558
 20
3.71409
 30
0.000000
  70
    32
  0
VERTEX
  8
0
  5
2B4
 10
-8.13794
 20
3.71184
 30
0.000000
  70
    32
  0
VERTEX
  8
0
  5
2B5
 10
-8.14034
 20
3.70954
 30
0.000000
  70
    32
  0
VERTEX
  8
0
  5
2B6
 10
-8.14279
 20
3.70719
 30
0.000000
  70
    32
  0
VERTEX
  8
0
  5
2B7
 10
-8.14527
 20
3.70478
 30
0.000000
  70
    32
  0
VERTEX
  8
0
  5
2B8
 10
-8.14780
 20
3.70232
 30
0.000000
  70
    32
  0
VERTEX
  8
0
  5
2B9
 10
-8.15037
 20
3.69981
 30
0.000000
  70
    32
  0
VERTEX
  8
0
  5
2BA
 10
-8.15299
 20
3.69725
 30
0.000000
  70
    32
  0
VERTEX
  8
0
  5
2BB
 10
-8.15565
 20
3.69463
 30
0.000000
  70
    32
  0
VERTEX
  8
0
  5
2BC
 10
-8.15837
 20
3.69195
 30
0.000000
  70
    32
  0
VERTEX
  8
0
  5
2BD
 10
-8.16113
 20
3.68922
 30
0.000000
  70
    32
  0
VERTEX
  8
0
  5
2BE
 10
-8.16394
 20
3.68643
 30
0.000000
  70
    32
  0
VERTEX
  8
0
  5
2BF
 10
-8.16681
 20
3.68359
 30
0.000000
  70
    32
  0
VERTEX
  8
0
  5
2C0
 10
-8.16972
 20
3.68069
 30
0.000000
  70
    32
  0
VERTEX
  8
0
  5
2C1
 10
-8.17269
 20
3.67773
 30
0.000000
  70
    32
  0
VERTEX
  8
0
  5
2C2
 10
-8.17572
 20
3.67471
 30
0.000000
  70
    32
  0
VERTEX
  8
0
  5
2C3
 10
-8.17856
 20
3.67198
 30
0.000000
  70
    32
  0
VERTEX
  8
0
  5
2C4
 10
-8.18012
 20
3.67102
 30
0.000000
  70
    32
  0
VERTEX
  8
0
  5
2C5
 10
-8.18167
 20
3.67006
 30
0.000000
  70
    32
  0
VERTEX
  8
0
  5
2C6
 10
-8.18318
 20
3.66907
 30
0.000000
  70
    32
  0
VERTEX
  8
0
  5
2C7
 10
-8.18468
 20
3.66808
 30
0.000000
  70
    32
  0
VERTEX
  8
0
  5
2C8
 10
-8.18615
 20
3.66707
 30
0.000000
  70
    32
  0
VERTEX
  8
0
  5
2C9
 10
-8.18759
 20
3.66605
 30
0.000000
  70
    32
  0
VERTEX
  8
0
  5
2CA
 10
-8.18901
 20
3.66502
 30
0.000000
  70
    32
  0
VERTEX
  8
0
  5
2CB
 10
-8.19040
 20
3.66397
 30
0.000000
  70
    32
  0
VERTEX
  8
0
  5
2CC
 10
-8.19177
 20
3.66291
 30
0.000000
  70
    32
  0
VERTEX
  8
0
  5
2CD
 10
-8.19312
 20
3.66183
 30
0.000000
  70
    32
  0
VERTEX
  8
0
  5
2CE
 10
-8.19444
 20
3.66075
 30
0.000000
  70
    32
  0
VERTEX
  8
0
  5
2CF
 10
-8.19574
 20
3.65965
 30
0.000000
  70
    32
  0
VERTEX
  8
0
  5
2D0
 10
-8.19701
 20
3.65854
 30
0.000000
  70
    32
  0
VERTEX
  8
0
  5
2D1
 10
-8.19826
 20
3.65742
 30
0.000000
  70
    32
  0
VERTEX
  8
0
  5
2D2
 10
-8.19949
 20
3.65628
 30
0.000000
  70
    32
  0
VERTEX
  8
0
  5
2D3
 10
-8.20069
 20
3.65513
 30
0.000000
  70
    32
  0
VERTEX
  8
0
  5
2D4
 10
-8.20187
 20
3.65398
 30
0.000000
  70
    32
  0
VERTEX
  8
0
  5
2D5
 10
-8.20303
 20
3.65281
 30
0.000000
  70
    32
  0
VERTEX
  8
0
  5
2D6
 10
-8.20417
 20
3.65162
 30
0.000000
  70
    32
  0
VERTEX
  8
0
  5
2D7
 10
-8.20528
 20
3.65043
 30
0.000000
  70
    32
  0
VERTEX
  8
0
  5
2D8
 10
-8.20637
 20
3.64922
 30
0.000000
  70
    32
  0
VERTEX
  8
0
  5
2D9
 10
-8.20744
 20
3.64801
 30
0.000000
  70
    32
  0
VERTEX
  8
0
  5
2DA
 10
-8.20848
 20
3.64678
 30
0.000000
  70
    32
  0
VERTEX
  8
0
  5
2DB
 10
-8.20951
 20
3.64554
 30
0.000000
  70
    32
  0
VERTEX
  8
0
  5
2DC
 10
-8.21051
 20
3.64429
 30
0.000000
  70
    32
  0
VERTEX
  8
0
  5
2DD
 10
-8.21149
 20
3.64304
 30
0.000000
  70
    32
  0
VERTEX
  8
0
  5
2DE
 10
-8.21245
 20
3.64177
 30
0.000000
  70
    32
  0
VERTEX
  8
0
  5
2DF
 10
-8.21338
 20
3.64048
 30
0.000000
  70
    32
  0
VERTEX
  8
0
  5
2E0
 10
-8.21430
 20
3.63919
 30
0.000000
  70
    32
  0
VERTEX
  8
0
  5
2E1
 10
-8.21519
 20
3.63789
 30
0.000000
  70
    32
  0
VERTEX
  8
0
  5
2E2
 10
-8.21607
 20
3.63658
 30
0.000000
  70
    32
  0
VERTEX
  8
0
  5
2E3
 10
-8.21692
 20
3.63526
 30
0.000000
  70
    32
  0
VERTEX
  8
0
  5
2E4
 10
-8.21775
 20
3.63393
 30
0.000000
  70
    32
  0
VERTEX
  8
0
  5
2E5
 10
-8.21856
 20
3.63259
 30
0.000000
  70
    32
  0
VERTEX
  8
0
  5
2E6
 10
-8.21936
 20
3.63124
 30
0.000000
  70
    32
  0
VERTEX
  8
0
  5
2E7
 10
-8.22013
 20
3.62988
 30
0.000000
  70
    32
  0
VERTEX
  8
0
  5
2E8
 10
-8.22088
 20
3.62851
 30
0.000000
  70
    32
  0
VERTEX
  8
0
  5
2E9
 10
-8.22161
 20
3.62713
 30
0.000000
  70
    32
  0
VERTEX
  8
0
  5
2EA
 10
-8.22232
 20
3.62575
 30
0.000000
  70
    32
  0
VERTEX
  8
0
  5
2EB
 10
-8.22301
 20
3.62435
 30
0.000000
  70
    32
  0
VERTEX
  8
0
  5
2EC
 10
-8.22368
 20
3.62295
 30
0.000000
  70
    32
  0
VERTEX
  8
0
  5
2ED
 10
-8.22434
 20
3.62154
 30
0.000000
  70
    32
  0
VERTEX
  8
0
  5
2EE
 10
-8.22497
 20
3.62011
 30
0.000000
  70
    32
  0
VERTEX
  8
0
  5
2EF
 10
-8.22558
 20
3.61868
 30
0.000000
  70
    32
  0
VERTEX
  8
0
  5
2F0
 10
-8.22618
 20
3.61725
 30
0.000000
  70
    32
  0
VERTEX
  8
0
  5
2F1
 10
-8.22676
 20
3.61580
 30
0.000000
  70
    32
  0
VERTEX
  8
0
  5
2F2
 10
-8.22732
 20
3.61435
 30
0.000000
  70
    32
  0
VERTEX
  8
0
  5
2F3
 10
-8.22786
 20
3.61289
 30
0.000000
  70
    32
  0
VERTEX
  8
0
  5
2F4
 10
-8.22838
 20
3.61142
 30
0.000000
  70
    32
  0
VERTEX
  8
0
  5
2F5
 10
-8.22888
 20
3.60994
 30
0.000000
  70
    32
  0
VERTEX
  8
0
  5
2F6
 10
-8.22937
 20
3.60845
 30
0.000000
  70
    32
  0
VERTEX
  8
0
  5
2F7
 10
-8.22984
 20
3.60696
 30
0.000000
  70
    32
  0
VERTEX
  8
0
  5
2F8
 10
-8.23029
 20
3.60546
 30
0.000000
  70
    32
  0
VERTEX
  8
0
  5
2F9
 10
-8.23072
 20
3.60396
 30
0.000000
  70
    32
  0
VERTEX
  8
0
  5
2FA
 10
-8.23113
 20
3.60244
 30
0.000000
  70
    32
  0
VERTEX
  8
0
  5
2FB
 10
-8.23153
 20
3.60093
 30
0.000000
  70
    32
  0
VERTEX
  8
0
  5
2FC
 10
-8.23191
 20
3.59940
 30
0.000000
  70
    32
  0
VERTEX
  8
0
  5
2FD
 10
-8.23228
 20
3.59787
 30
0.000000
  70
    32
  0
VERTEX
  8
0
  5
2FE
 10
-8.23262
 20
3.59633
 30
0.000000
  70
    32
  0
VERTEX
  8
0
  5
2FF
 10
-8.23296
 20
3.59478
 30
0.000000
  70
    32
  0
VERTEX
  8
0
  5
300
 10
-8.23327
 20
3.59323
 30
0.000000
  70
    32
  0
VERTEX
  8
0
  5
301
 10
-8.23357
 20
3.59167
 30
0.000000
  70
    32
  0
VERTEX
  8
0
  5
302
 10
-8.23385
 20
3.59011
 30
0.000000
  70
    32
  0
VERTEX
  8
0
  5
303
 10
-8.23411
 20
3.58854
 30
0.000000
  70
    32
  0
VERTEX
  8
0
  5
304
 10
-8.23436
 20
3.58696
 30
0.000000
  70
    32
  0
VERTEX
  8
0
  5
305
 10
-8.23460
 20
3.58538
 30
0.000000
  70
    32
  0
VERTEX
  8
0
  5
306
 10
-8.23482
 20
3.58380
 30
0.000000
  70
    32
  0
VERTEX
  8
0
  5
307
 10
-8.23502
 20
3.58221
 30
0.000000
  70
    32
  0
VERTEX
  8
0
  5
308
 10
-8.23521
 20
3.58061
 30
0.000000
  70
    32
  0
VERTEX
  8
0
  5
309
 10
-8.23538
 20
3.57901
 30
0.000000
  70
    32
  0
VERTEX
  8
0
  5
30A
 10
-8.23554
 20
3.57740
 30
0.000000
  70
    32
  0
VERTEX
  8
0
  5
30B
 10
-8.23568
 20
3.57579
 30
0.000000
  70
    32
  0
VERTEX
  8
0
  5
30C
 10
-8.23581
 20
3.57418
 30
0.000000
  70
    32
  0
VERTEX
  8
0
  5
30D
 10
-8.23592
 20
3.57256
 30
0.000000
  70
    32
  0
VERTEX
  8
0
  5
30E
 10
-8.23602
 20
3.57093
 30
0.000000
  70
    32
  0
VERTEX
  8
0
  5
30F
 10
-8.23611
 20
3.56930
 30
0.000000
  70
    32
  0
VERTEX
  8
0
  5
310
 10
-8.23618
 20
3.56767
 30
0.000000
  70
    32
  0
VERTEX
  8
0
  5
311
 10
-8.23624
 20
3.56603
 30
0.000000
  70
    32
  0
VERTEX
  8
0
  5
312
 10
-8.23628
 20
3.56439
 30
0.000000
  70
    32
  0
VERTEX
  8
0
  5
313
 10
-8.23631
 20
3.56275
 30
0.000000
  70
    32
  0
VERTEX
  8
0
  5
314
 10
-8.23633
 20
3.56110
 30
0.000000
  70
    32
  0
VERTEX
  8
0
  5
315
 10
-8.23633
 20
3.55945
 30
0.000000
  70
    32
  0
VERTEX
  8
0
  5
316
 10
-8.23632
 20
3.55780
 30
0.000000
  70
    32
  0
VERTEX
  8
0
  5
317
 10
-8.23630
 20
3.55614
 30
0.000000
  70
    32
  0
VERTEX
  8
0
  5
318
 10
-8.23626
 20
3.55448
 30
0.000000
  70
    32
  0
VERTEX
  8
0
  5
319
 10
-8.23621
 20
3.55282
 30
0.000000
  70
    32
  0
VERTEX
  8
0
  5
31A
 10
-8.23615
 20
3.55115
 30
0.000000
  70
    32
  0
VERTEX
  8
0
  5
31B
 10
-8.23608
 20
3.54948
 30
0.000000
  70
    32
  0
VERTEX
  8
0
  5
31C
 10
-8.23599
 20
3.54781
 30
0.000000
  70
    32
  0
VERTEX
  8
0
  5
31D
 10
-8.23590
 20
3.54614
 30
0.000000
  70
    32
  0
VERTEX
  8
0
  5
31E
 10
-8.23579
 20
3.54446
 30
0.000000
  70
    32
  0
VERTEX
  8
0
  5
31F
 10
-8.23567
 20
3.54278
 30
0.000000
  70
    32
  0
VERTEX
  8
0
  5
320
 10
-8.23553
 20
3.54110
 30
0.000000
  70
    32
  0
VERTEX
  8
0
  5
321
 10
-8.23539
 20
3.53942
 30
0.000000
  70
    32
  0
VERTEX
  8
0
  5
322
 10
-8.23523
 20
3.53773
 30
0.000000
  70
    32
  0
VERTEX
  8
0
  5
323
 10
-8.23506
 20
3.53605
 30
0.000000
  70
    32
  0
VERTEX
  8
0
  5
324
 10
-8.23489
 20
3.53436
 30
0.000000
  70
    32
  0
VERTEX
  8
0
  5
325
 10
-8.23470
 20
3.53267
 30
0.000000
  70
    32
  0
VERTEX
  8
0
  5
326
 10
-8.23450
 20
3.53098
 30
0.000000
  70
    32
  0
VERTEX
  8
0
  5
327
 10
-8.23429
 20
3.52929
 30
0.000000
  70
    32
  0
VERTEX
  8
0
  5
328
 10
-8.23406
 20
3.52760
 30
0.000000
  70
    32
  0
VERTEX
  8
0
  5
329
 10
-8.23383
 20
3.52591
 30
0.000000
  70
    32
  0
VERTEX
  8
0
  5
32A
 10
-8.23359
 20
3.52422
 30
0.000000
  70
    32
  0
VERTEX
  8
0
  5
32B
 10
-8.23334
 20
3.52252
 30
0.000000
  70
    32
  0
VERTEX
  8
0
  5
32C
 10
-8.23308
 20
3.52083
 30
0.000000
  70
    32
  0
VERTEX
  8
0
  5
32D
 10
-8.23281
 20
3.51913
 30
0.000000
  70
    32
  0
VERTEX
  8
0
  5
32E
 10
-8.23253
 20
3.51744
 30
0.000000
  70
    32
  0
VERTEX
  8
0
  5
32F
 10
-8.23224
 20
3.51575
 30
0.000000
  70
    32
  0
VERTEX
  8
0
  5
330
 10
-8.23194
 20
3.51405
 30
0.000000
  70
    32
  0
VERTEX
  8
0
  5
331
 10
-8.23163
 20
3.51236
 30
0.000000
  70
    32
  0
SEQEND
  8
0
  5
332
  0
POLYLINE
  5
77
  8
0
 66
     1
 10
0.0
 20
0.0
 30
0.0
 70
     1
  0
VERTEX
  5
DF
  8
0
 10
8.8708929676827211
 20
-6.7120452580686409
 30
0.0
  0
VERTEX
  5
E0
  8
0
 10
8.8708929676827211
 20
4.0481108318391392
 30
0.0
 42
0.4142135623730951
  0
VERTEX
  5
E1
  8
0
 10
8.5008929676827165
 20
4.4181108318391429
 30
0.0
  0
VERTEX
  5
E2
  8
0
 10
-8.5008929676827165
 20
4.4181108318391429
 30
0.0
 42
0.4142135623730951
  0
VERTEX
  5
E3
  8
0
 10
-8.8708929676827211
 20
4.0481108318391392
 30
0.0
  0
VERTEX
  5
E4
  8
0
 10
-8.8708929676827211
 20
-6.7120452580686409
 30
0.0
 42
0.4142135623730951
  0
VERTEX
  5
E5
  8
0
 10
-8.5008929676827165
 20
-7.0820452580686464
 30
0.0
  0
VERTEX
  5
E6
  8
0
 10
8.5008929676827165
 20
-7.0820452580686464
 30
0.0
 42
0.4142135623730951
  0
SEQEND
  5
E7
  8
0
  0
POLYLINE
  5
78
  8
0
 66
     1
 10
0.0
 20
0.0
 30
0.0
 70
     1
  0
VERTEX
  5
E8
  8
0
 10
10.84206218782019
 20
-8.6271185536202211
 30
0.0
 42
0.4142135623730951
  0
VERTEX
  5
E9
  8
0
 10
11.002062187820179
 20
-8.4671185536202245
 30
0.0
  0
VERTEX
  5
EA
  8
0
 10
11.002062187820179
 20
8.4671185536202245
 30
0.0
 42
0.4142135623730951
  0
VERTEX
  5
EB
  8
0
 10
10.84206218782019
 20
8.6271185536202211
 30
0.0
  0
VERTEX
  5
EC
  8
0
 10
-10.84206218782017
 20
8.6271185536202211
 30
0.0
 42
0.4142135623730951
  0
VERTEX
  5
ED
  8
0
 10
-11.002062187820171
 20
8.4671185536202245
 30
0.0
  0
VERTEX
  5
EE
  8
0
 10
-11.002062187820171
 20
-8.4671185536202245
 30
0.0
 42
0.4142135623730951
  0
VERTEX
  5
EF
  8
0
 10
-10.84206218782017
 20
-8.6271185536202211
 30
0.0
  0
SEQEND
  5
F0
  8
0
  0
CIRCLE
  5
79
  8
0
 10
0.0
 20
0.875
 30
0.0
 40
0.875
  0
CIRCLE
  5
7A
  8
0
 10
0.0
 20
0.875
 30
0.0
 40
1.4375
  0
POLYLINE
  5
7B
  8
0
 66
     1
 10
0.0
 20
0.0
 30
0.0
 70
     1
  0
VERTEX
  5
F1
  8
0
 10
-11.161899999999999
 20
-9.0
 30
0.0
  0
VERTEX
  5
F2
  8
0
 10
11.161899999999999
 20
-9.0
 30
0.0
 42
0.4142135623730951
  0
VERTEX
  5
F3
  8
0
 10
11.375
 20
-8.7869000000000028
 30
0.0
  0
VERTEX
  5
F4
  8
0
 10
11.375
 20
8.7869000000000028
 30
0.0
 42
0.4142135623730951
  0
VERTEX
  5
F5
  8
0
 10
11.161899999999999
 20
9.0
 30
0.0
  0
VERTEX
  5
F6
  8
0
 10
-11.161899999999999
 20
9.0
 30
0.0
 42
0.4142135623730951
  0
VERTEX
  5
F7
  8
0
 10
-11.375
 20
8.7869000000000028
 30
0.0
  0
VERTEX
  5
F8
  8
0
 10
-11.375
 20
-8.7869000000000028
 30
0.0
 42
0.4142135623730951
  0
SEQEND
  5
F9
  8
0
  0
POINT
  5
7C
  8
DEFPOINTS
 10
-4.0
 20
6.5
 30
0.0
  0
POINT
  5
7E
  8
DEFPOINTS
 10
0.0
 20
6.5
 30
0.0
  0
POINT
  5
7F
  8
DEFPOINTS
 10
4.0
 20
6.5
 30
0.0
  0
POLYLINE
  5
80
  8
0
 66
     1
 10
0.0
 20
0.0
 30
0.0
  0
VERTEX
  5
FA
  8
0
 10
-8.2316289182569164
 20
3.5123557835980099
 30
0.0
  0
VERTEX
  5
FB
  8
0
 10
-8.2316289182569164
 20
-6.176327010758186
 30
0.0
 42
0.4142135623730951
  0
VERTEX
  5
FC
  8
0
 10
-7.965228918256912
 20
-6.4427270107581904
 30
0.0
  0
VERTEX
  5
FD
  8
0
 10
7.965228918256912
 20
-6.4427270107581904
 30
0.0
 42
0.4142135623730951
  0
VERTEX
  5
FE
  8
0
 10
8.2316289182569164
 20
-6.176327010758186
 30
0.0
  0
VERTEX
  5
FF
  8
0
 10
8.2316289182569164
 20
3.5123557835980099
 30
0.0
  0
SEQEND
  5
100
  8
0
  0
POLYLINE
  8
0
  5
333
  66
     1
 10
0.000000
 20
0.000000
 30
0.000000
  70
     8
  0
VERTEX
  8
0
  5
334
 10
0.000000
 20
3.77858
 30
0.000000
  70
    32
  0
VERTEX
  8
0
  5
335
 10
0.0759966
 20
3.77858
 30
0.000000
  70
    32
  0
VERTEX
  8
0
  5
336
 10
0.151993
 20
3.77858
 30
0.000000
  70
    32
  0
VERTEX
  8
0
  5
337
 10
0.227990
 20
3.77858
 30
0.000000
  70
    32
  0
VERTEX
  8
0
  5
338
 10
0.303986
 20
3.77858
 30
0.000000
  70
    32
  0
VERTEX
  8
0
  5
339
 10
0.379983
 20
3.77858
 30
0.000000
  70
    32
  0
VERTEX
  8
0
  5
33A
 10
0.455980
 20
3.77858
 30
0.000000
  70
    32
  0
VERTEX
  8
0
  5
33B
 10
0.531976
 20
3.77858
 30
0.000000
  70
    32
  0
VERTEX
  8
0
  5
33C
 10
0.607973
 20
3.77858
 30
0.000000
  70
    32
  0
VERTEX
  8
0
  5
33D
 10
0.683970
 20
3.77858
 30
0.000000
  70
    32
  0
VERTEX
  8
0
  5
33E
 10
0.759966
 20
3.77858
 30
0.000000
  70
    32
  0
VERTEX
  8
0
  5
33F
 10
0.835963
 20
3.77858
 30
0.000000
  70
    32
  0
VERTEX
  8
0
  5
340
 10
0.911960
 20
3.77858
 30
0.000000
  70
    32
  0
VERTEX
  8
0
  5
341
 10
0.987957
 20
3.77858
 30
0.000000
  70
    32
  0
VERTEX
  8
0
  5
342
 10
1.06395
 20
3.77858
 30
0.000000
  70
    32
  0
VERTEX
  8
0
  5
343
 10
1.13995
 20
3.77858
 30
0.000000
  70
    32
  0
VERTEX
  8
0
  5
344
 10
1.21595
 20
3.77858
 30
0.000000
  70
    32
  0
VERTEX
  8
0
  5
345
 10
1.29194
 20
3.77858
 30
0.000000
  70
    32
  0
VERTEX
  8
0
  5
346
 10
1.36794
 20
3.77858
 30
0.000000
  70
    32
  0
VERTEX
  8
0
  5
347
 10
1.44394
 20
3.77858
 30
0.000000
  70
    32
  0
VERTEX
  8
0
  5
348
 10
1.51994
 20
3.77858
 30
0.000000
  70
    32
  0
VERTEX
  8
0
  5
349
 10
1.59593
 20
3.77858
 30
0.000000
  70
    32
  0
VERTEX
  8
0
  5
34A
 10
1.67193
 20
3.77858
 30
0.000000
  70
    32
  0
VERTEX
  8
0
  5
34B
 10
1.74793
 20
3.77858
 30
0.000000
  70
    32
  0
VERTEX
  8
0
  5
34C
 10
1.82392
 20
3.77858
 30
0.000000
  70
    32
  0
VERTEX
  8
0
  5
34D
 10
1.89992
 20
3.77858
 30
0.000000
  70
    32
  0
VERTEX
  8
0
  5
34E
 10
1.97592
 20
3.77858
 30
0.000000
  70
    32
  0
VERTEX
  8
0
  5
34F
 10
2.05192
 20
3.77858
 30
0.000000
  70
    32
  0
VERTEX
  8
0
  5
350
 10
2.12791
 20
3.77858
 30
0.000000
  70
    32
  0
VERTEX
  8
0
  5
351
 10
2.20391
 20
3.77858
 30
0.000000
  70
    32
  0
VERTEX
  8
0
  5
352
 10
2.27991
 20
3.77858
 30
0.000000
  70
    32
  0
VERTEX
  8
0
  5
353
 10
2.35590
 20
3.77858
 30
0.000000
  70
    32
  0
VERTEX
  8
0
  5
354
 10
2.43190
 20
3.77858
 30
0.000000
  70
    32
  0
VERTEX
  8
0
  5
355
 10
2.50790
 20
3.77858
 30
0.000000
  70
    32
  0
VERTEX
  8
0
  5
356
 10
2.58390
 20
3.77858
 30
0.000000
  70
    32
  0
VERTEX
  8
0
  5
357
 10
2.65989
 20
3.77858
 30
0.000000
  70
    32
  0
VERTEX
  8
0
  5
358
 10
2.73589
 20
3.77858
 30
0.000000
  70
    32
  0
VERTEX
  8
0
  5
359
 10
2.81189
 20
3.77858
 30
0.000000
  70
    32
  0
VERTEX
  8
0
  5
35A
 10
2.88789
 20
3.77858
 30
0.000000
  70
    32
  0
VERTEX
  8
0
  5
35B
 10
2.96388
 20
3.77858
 30
0.000000
  70
    32
  0
VERTEX
  8
0
  5
35C
 10
3.03988
 20
3.77858
 30
0.000000
  70
    32
  0
VERTEX
  8
0
  5
35D
 10
3.11588
 20
3.77858
 30
0.000000
  70
    32
  0
VERTEX
  8
0
  5
35E
 10
3.19188
 20
3.77858
 30
0.000000
  70
    32
  0
VERTEX
  8
0
  5
35F
 10
3.26788
 20
3.77858
 30
0.000000
  70
    32
  0
VERTEX
  8
0
  5
360
 10
3.34387
 20
3.77858
 30
0.000000
  70
    32
  0
VERTEX
  8
0
  5
361
 10
3.41987
 20
3.77858
 30
0.000000
  70
    32
  0
VERTEX
  8
0
  5
362
 10
3.49587
 20
3.77858
 30
0.000000
  70
    32
  0
VERTEX
  8
0
  5
363
 10
3.57187
 20
3.77858
 30
0.000000
  70
    32
  0
VERTEX
  8
0
  5
364
 10
3.64787
 20
3.77858
 30
0.000000
  70
    32
  0
VERTEX
  8
0
  5
365
 10
3.72386
 20
3.77858
 30
0.000000
  70
    32
  0
VERTEX
  8
0
  5
366
 10
3.79986
 20
3.77858
 30
0.000000
  70
    32
  0
VERTEX
  8
0
  5
367
 10
3.87586
 20
3.77858
 30
0.000000
  70
    32
  0
VERTEX
  8
0
  5
368
 10
3.95186
 20
3.77858
 30
0.000000
  70
    32
  0
VERTEX
  8
0
  5
369
 10
4.02786
 20
3.77858
 30
0.000000
  70
    32
  0
VERTEX
  8
0
  5
36A
 10
4.10385
 20
3.77858
 30
0.000000
  70
    32
  0
VERTEX
  8
0
  5
36B
 10
4.17985
 20
3.77858
 30
0.000000
  70
    32
  0
VERTEX
  8
0
  5
36C
 10
4.25585
 20
3.77858
 30
0.000000
  70
    32
  0
VERTEX
  8
0
  5
36D
 10
4.33185
 20
3.77858
 30
0.000000
  70
    32
  0
VERTEX
  8
0
  5
36E
 10
4.40785
 20
3.77858
 30
0.000000
  70
    32
  0
VERTEX
  8
0
  5
36F
 10
4.48385
 20
3.77858
 30
0.000000
  70
    32
  0
VERTEX
  8
0
  5
370
 10
4.55984
 20
3.77858
 30
0.000000
  70
    32
  0
VERTEX
  8
0
  5
371
 10
4.63584
 20
3.77858
 30
0.000000
  70
    32
  0
VERTEX
  8
0
  5
372
 10
4.71184
 20
3.77858
 30
0.000000
  70
    32
  0
VERTEX
  8
0
  5
373
 10
4.78784
 20
3.77858
 30
0.000000
  70
    32
  0
VERTEX
  8
0
  5
374
 10
4.86384
 20
3.77858
 30
0.000000
  70
    32
  0
VERTEX
  8
0
  5
375
 10
4.93984
 20
3.77858
 30
0.000000
  70
    32
  0
VERTEX
  8
0
  5
376
 10
5.01584
 20
3.77858
 30
0.000000
  70
    32
  0
VERTEX
  8
0
  5
377
 10
5.09184
 20
3.77858
 30
0.000000
  70
    32
  0
VERTEX
  8
0
  5
378
 10
5.16784
 20
3.77858
 30
0.000000
  70
    32
  0
VERTEX
  8
0
  5
379
 10
5.24383
 20
3.77858
 30
0.000000
  70
    32
  0
VERTEX
  8
0
  5
37A
 10
5.31983
 20
3.77858
 30
0.000000
  70
    32
  0
VERTEX
  8
0
  5
37B
 10
5.35835
 20
3.77858
 30
0.000000
  70
    32
  0
VERTEX
  8
0
  5
37C
 10
5.37679
 20
3.77858
 30
0.000000
  70
    32
  0
VERTEX
  8
0
  5
37D
 10
5.39523
 20
3.77858
 30
0.000000
  70
    32
  0
VERTEX
  8
0
  5
37E
 10
5.41367
 20
3.77858
 30
0.000000
  70
    32
  0
VERTEX
  8
0
  5
37F
 10
5.43211
 20
3.77858
 30
0.000000
  70
    32
  0
VERTEX
  8
0
  5
380
 10
5.45054
 20
3.77858
 30
0.000000
  70
    32
  0
VERTEX
  8
0
  5
381
 10
5.46898
 20
3.77858
 30
0.000000
  70
    32
  0
VERTEX
  8
0
  5
382
 10
5.48742
 20
3.77858
 30
0.000000
  70
    32
  0
VERTEX
  8
0
  5
383
 10
5.50586
 20
3.77858
 30
0.000000
  70
    32
  0
VERTEX
  8
0
  5
384
 10
5.52430
 20
3.77858
 30
0.000000
  70
    32
  0
VERTEX
  8
0
  5
385
 10
5.54274
 20
3.77858
 30
0.000000
  70
    32
  0
VERTEX
  8
0
  5
386
 10
5.56118
 20
3.77858
 30
0.000000
  70
    32
  0
VERTEX
  8
0
  5
387
 10
5.57962
 20
3.77858
 30
0.000000
  70
    32
  0
VERTEX
  8
0
  5
388
 10
5.59806
 20
3.77858
 30
0.000000
  70
    32
  0
VERTEX
  8
0
  5
389
 10
5.61649
 20
3.77858
 30
0.000000
  70
    32
  0
VERTEX
  8
0
  5
38A
 10
5.63493
 20
3.77858
 30
0.000000
  70
    32
  0
VERTEX
  8
0
  5
38B
 10
5.65337
 20
3.77858
 30
0.000000
  70
    32
  0
VERTEX
  8
0
  5
38C
 10
5.67181
 20
3.77858
 30
0.000000
  70
    32
  0
VERTEX
  8
0
  5
38D
 10
5.69025
 20
3.77858
 30
0.000000
  70
    32
  0
VERTEX
  8
0
  5
38E
 10
5.70869
 20
3.77858
 30
0.000000
  70
    32
  0
VERTEX
  8
0
  5
38F
 10
5.72713
 20
3.77858
 30
0.000000
  70
    32
  0
VERTEX
  8
0
  5
390
 10
5.74557
 20
3.77858
 30
0.000000
  70
    32
  0
VERTEX
  8
0
  5
391
 10
5.76401
 20
3.77858
 30
0.000000
  70
    32
  0
VERTEX
  8
0
  5
392
 10
5.78245
 20
3.77858
 30
0.000000
  70
    32
  0
VERTEX
  8
0
  5
393
 10
5.80089
 20
3.77858
 30
0.000000
  70
    32
  0
VERTEX
  8
0
  5
394
 10
5.81934
 20
3.77858
 30
0.000000
  70
    32
  0
VERTEX
  8
0
  5
395
 10
5.83778
 20
3.77858
 30
0.000000
  70
    32
  0
VERTEX
  8
0
  5
396
 10
5.85622
 20
3.77858
 30
0.000000
  70
    32
  0
VERTEX
  8
0
  5
397
 10
5.87466
 20
3.77858
 30
0.000000
  70
    32
  0
VERTEX
  8
0
  5
398
 10
5.89310
 20
3.77858
 30
0.000000
  70
    32
  0
VERTEX
  8
0
  5
399
 10
5.91154
 20
3.77858
 30
0.000000
  70
    32
  0
VERTEX
  8
0
  5
39A
 10
5.92998
 20
3.77858
 30
0.000000
  70
    32
  0
VERTEX
  8
0
  5
39B
 10
5.94842
 20
3.77858
 30
0.000000
  70
    32
  0
VERTEX
  8
0
  5
39C
 10
5.96686
 20
3.77858
 30
0.000000
  70
    32
  0
VERTEX
  8
0
  5
39D
 10
5.98530
 20
3.77858
 30
0.000000
  70
    32
  0
VERTEX
  8
0
  5
39E
 10
6.00375
 20
3.77858
 30
0.000000
  70
    32
  0
VERTEX
  8
0
  5
39F
 10
6.02219
 20
3.77858
 30
0.000000
  70
    32
  0
VERTEX
  8
0
  5
3A0
 10
6.04063
 20
3.77858
 30
0.000000
  70
    32
  0
VERTEX
  8
0
  5
3A1
 10
6.05907
 20
3.77858
 30
0.000000
  70
    32
  0
VERTEX
  8
0
  5
3A2
 10
6.07751
 20
3.77858
 30
0.000000
  70
    32
  0
VERTEX
  8
0
  5
3A3
 10
6.09595
 20
3.77858
 30
0.000000
  70
    32
  0
VERTEX
  8
0
  5
3A4
 10
6.11439
 20
3.77858
 30
0.000000
  70
    32
  0
VERTEX
  8
0
  5
3A5
 10
6.13284
 20
3.77858
 30
0.000000
  70
    32
  0
VERTEX
  8
0
  5
3A6
 10
6.15128
 20
3.77858
 30
0.000000
  70
    32
  0
VERTEX
  8
0
  5
3A7
 10
6.16972
 20
3.77858
 30
0.000000
  70
    32
  0
VERTEX
  8
0
  5
3A8
 10
6.18816
 20
3.77858
 30
0.000000
  70
    32
  0
VERTEX
  8
0
  5
3A9
 10
6.20660
 20
3.77858
 30
0.000000
  70
    32
  0
VERTEX
  8
0
  5
3AA
 10
6.22504
 20
3.77858
 30
0.000000
  70
    32
  0
VERTEX
  8
0
  5
3AB
 10
6.24349
 20
3.77858
 30
0.000000
  70
    32
  0
VERTEX
  8
0
  5
3AC
 10
6.26193
 20
3.77858
 30
0.000000
  70
    32
  0
VERTEX
  8
0
  5
3AD
 10
6.28037
 20
3.77858
 30
0.000000
  70
    32
  0
VERTEX
  8
0
  5
3AE
 10
6.29881
 20
3.77858
 30
0.000000
  70
    32
  0
VERTEX
  8
0
  5
3AF
 10
6.31725
 20
3.77858
 30
0.000000
  70
    32
  0
VERTEX
  8
0
  5
3B0
 10
6.33570
 20
3.77858
 30
0.000000
  70
    32
  0
VERTEX
  8
0
  5
3B1
 10
6.35414
 20
3.77858
 30
0.000000
  70
    32
  0
VERTEX
  8
0
  5
3B2
 10
6.37258
 20
3.77858
 30
0.000000
  70
    32
  0
VERTEX
  8
0
  5
3B3
 10
6.39102
 20
3.77858
 30
0.000000
  70
    32
  0
VERTEX
  8
0
  5
3B4
 10
6.40946
 20
3.77858
 30
0.000000
  70
    32
  0
VERTEX
  8
0
  5
3B5
 10
6.42790
 20
3.77858
 30
0.000000
  70
    32
  0
VERTEX
  8
0
  5
3B6
 10
6.44635
 20
3.77858
 30
0.000000
  70
    32
  0
VERTEX
  8
0
  5
3B7
 10
6.46479
 20
3.77858
 30
0.000000
  70
    32
  0
VERTEX
  8
0
  5
3B8
 10
6.48323
 20
3.77858
 30
0.000000
  70
    32
  0
VERTEX
  8
0
  5
3B9
 10
6.50167
 20
3.77858
 30
0.000000
  70
    32
  0
VERTEX
  8
0
  5
3BA
 10
6.52011
 20
3.77858
 30
0.000000
  70
    32
  0
VERTEX
  8
0
  5
3BB
 10
6.53856
 20
3.77858
 30
0.000000
  70
    32
  0
VERTEX
  8
0
  5
3BC
 10
6.55700
 20
3.77858
 30
0.000000
  70
    32
  0
VERTEX
  8
0
  5
3BD
 10
6.57544
 20
3.77858
 30
0.000000
  70
    32
  0
VERTEX
  8
0
  5
3BE
 10
6.59388
 20
3.77858
 30
0.000000
  70
    32
  0
VERTEX
  8
0
  5
3BF
 10
6.61232
 20
3.77858
 30
0.000000
  70
    32
  0
VERTEX
  8
0
  5
3C0
 10
6.63076
 20
3.77858
 30
0.000000
  70
    32
  0
VERTEX
  8
0
  5
3C1
 10
6.64921
 20
3.77858
 30
0.000000
  70
    32
  0
VERTEX
  8
0
  5
3C2
 10
6.66765
 20
3.77858
 30
0.000000
  70
    32
  0
VERTEX
  8
0
  5
3C3
 10
6.68609
 20
3.77858
 30
0.000000
  70
    32
  0
VERTEX
  8
0
  5
3C4
 10
6.70453
 20
3.77858
 30
0.000000
  70
    32
  0
VERTEX
  8
0
  5
3C5
 10
6.72297
 20
3.77858
 30
0.000000
  70
    32
  0
VERTEX
  8
0
  5
3C6
 10
6.74141
 20
3.77858
 30
0.000000
  70
    32
  0
VERTEX
  8
0
  5
3C7
 10
6.75985
 20
3.77858
 30
0.000000
  70
    32
  0
VERTEX
  8
0
  5
3C8
 10
6.77829
 20
3.77858
 30
0.000000
  70
    32
  0
VERTEX
  8
0
  5
3C9
 10
6.79674
 20
3.77858
 30
0.000000
  70
    32
  0
VERTEX
  8
0
  5
3CA
 10
6.81518
 20
3.77858
 30
0.000000
  70
    32
  0
VERTEX
  8
0
  5
3CB
 10
6.83362
 20
3.77858
 30
0.000000
  70
    32
  0
VERTEX
  8
0
  5
3CC
 10
6.85206
 20
3.77858
 30
0.000000
  70
    32
  0
VERTEX
  8
0
  5
3CD
 10
6.87050
 20
3.77858
 30
0.000000
  70
    32
  0
VERTEX
  8
0
  5
3CE
 10
6.88894
 20
3.77858
 30
0.000000
  70
    32
  0
VERTEX
  8
0
  5
3CF
 10
6.90738
 20
3.77858
 30
0.000000
  70
    32
  0
VERTEX
  8
0
  5
3D0
 10
6.92582
 20
3.77858
 30
0.000000
  70
    32
  0
VERTEX
  8
0
  5
3D1
 10
6.94426
 20
3.77858
 30
0.000000
  70
    32
  0
VERTEX
  8
0
  5
3D2
 10
6.96270
 20
3.77858
 30
0.000000
  70
    32
  0
VERTEX
  8
0
  5
3D3
 10
6.98114
 20
3.77858
 30
0.000000
  70
    32
  0
VERTEX
  8
0
  5
3D4
 10
6.99958
 20
3.77858
 30
0.000000
  70
    32
  0
VERTEX
  8
0
  5
3D5
 10
7.01802
 20
3.77858
 30
0.000000
  70
    32
  0
VERTEX
  8
0
  5
3D6
 10
7.03646
 20
3.77858
 30
0.000000
  70
    32
  0
VERTEX
  8
0
  5
3D7
 10
7.05490
 20
3.77858
 30
0.000000
  70
    32
  0
VERTEX
  8
0
  5
3D8
 10
7.07334
 20
3.77858
 30
0.000000
  70
    32
  0
VERTEX
  8
0
  5
3D9
 10
7.09178
 20
3.77858
 30
0.000000
  70
    32
  0
VERTEX
  8
0
  5
3DA
 10
7.11022
 20
3.77858
 30
0.000000
  70
    32
  0
VERTEX
  8
0
  5
3DB
 10
7.12866
 20
3.77858
 30
0.000000
  70
    32
  0
VERTEX
  8
0
  5
3DC
 10
7.14710
 20
3.77858
 30
0.000000
  70
    32
  0
VERTEX
  8
0
  5
3DD
 10
7.16554
 20
3.77858
 30
0.000000
  70
    32
  0
VERTEX
  8
0
  5
3DE
 10
7.18398
 20
3.77858
 30
0.000000
  70
    32
  0
VERTEX
  8
0
  5
3DF
 10
7.20242
 20
3.77858
 30
0.000000
  70
    32
  0
VERTEX
  8
0
  5
3E0
 10
7.22086
 20
3.77858
 30
0.000000
  70
    32
  0
VERTEX
  8
0
  5
3E1
 10
7.23929
 20
3.77858
 30
0.000000
  70
    32
  0
VERTEX
  8
0
  5
3E2
 10
7.25773
 20
3.77858
 30
0.000000
  70
    32
  0
VERTEX
  8
0
  5
3E3
 10
7.27617
 20
3.77858
 30
0.000000
  70
    32
  0
VERTEX
  8
0
  5
3E4
 10
7.29461
 20
3.77858
 30
0.000000
  70
    32
  0
VERTEX
  8
0
  5
3E5
 10
7.31305
 20
3.77858
 30
0.000000
  70
    32
  0
VERTEX
  8
0
  5
3E6
 10
7.33149
 20
3.77858
 30
0.000000
  70
    32
  0
VERTEX
  8
0
  5
3E7
 10
7.34992
 20
3.77858
 30
0.000000
  70
    32
  0
VERTEX
  8
0
  5
3E8
 10
7.36836
 20
3.77858
 30
0.000000
  70
    32
  0
VERTEX
  8
0
  5
3E9
 10
7.38020
 20
3.77858
 30
0.000000
  70
    32
  0
VERTEX
  8
0
  5
3EA
 10
7.38513
 20
3.77858
 30
0.000000
  70
    32
  0
VERTEX
  8
0
  5
3EB
 10
7.39005
 20
3.77858
 30
0.000000
  70
    32
  0
VERTEX
  8
0
  5
3EC
 10
7.39498
 20
3.77858
 30
0.000000
  70
    32
  0
VERTEX
  8
0
  5
3ED
 10
7.39991
 20
3.77858
 30
0.000000
  70
    32
  0
VERTEX
  8
0
  5
3EE
 10
7.40483
 20
3.77858
 30
0.000000
  70
    32
  0
VERTEX
  8
0
  5
3EF
 10
7.40976
 20
3.77858
 30
0.000000
  70
    32
  0
VERTEX
  8
0
  5
3F0
 10
7.41469
 20
3.77858
 30
0.000000
  70
    32
  0
VERTEX
  8
0
  5
3F1
 10
7.41961
 20
3.77858
 30
0.000000
  70
    32
  0
VERTEX
  8
0
  5
3F2
 10
7.42454
 20
3.77858
 30
0.000000
  70
    32
  0
VERTEX
  8
0
  5
3F3
 10
7.42947
 20
3.77858
 30
0.000000
  70
    32
  0
VERTEX
  8
0
  5
3F4
 10
7.43439
 20
3.77858
 30
0.000000
  70
    32
  0
VERTEX
  8
0
  5
3F5
 10
7.43932
 20
3.77858
 30
0.000000
  70
    32
  0
VERTEX
  8
0
  5
3F6
 10
7.44425
 20
3.77858
 30
0.000000
  70
    32
  0
VERTEX
  8
0
  5
3F7
 10
7.44917
 20
3.77858
 30
0.000000
  70
    32
  0
VERTEX
  8
0
  5
3F8
 10
7.45410
 20
3.77858
 30
0.000000
  70
    32
  0
VERTEX
  8
0
  5
3F9
 10
7.45903
 20
3.77858
 30
0.000000
  70
    32
  0
VERTEX
  8
0
  5
3FA
 10
7.46395
 20
3.77858
 30
0.000000
  70
    32
  0
VERTEX
  8
0
  5
3FB
 10
7.46888
 20
3.77858
 30
0.000000
  70
    32
  0
VERTEX
  8
0
  5
3FC
 10
7.47381
 20
3.77858
 30
0.000000
  70
    32
  0
VERTEX
  8
0
  5
3FD
 10
7.47873
 20
3.77858
 30
0.000000
  70
    32
  0
VERTEX
  8
0
  5
3FE
 10
7.48366
 20
3.77858
 30
0.000000
  70
    32
  0
VERTEX
  8
0
  5
3FF
 10
7.48859
 20
3.77858
 30
0.000000
  70
    32
  0
VERTEX
  8
0
  5
400
 10
7.49351
 20
3.77858
 30
0.000000
  70
    32
  0
VERTEX
  8
0
  5
401
 10
7.49844
 20
3.77858
 30
0.000000
  70
    32
  0
VERTEX
  8
0
  5
402
 10
7.50337
 20
3.77858
 30
0.000000
  70
    32
  0
VERTEX
  8
0
  5
403
 10
7.50829
 20
3.77858
 30
0.000000
  70
    32
  0
VERTEX
  8
0
  5
404
 10
7.51322
 20
3.77858
 30
0.000000
  70
    32
  0
VERTEX
  8
0
  5
405
 10
7.51814
 20
3.77858
 30
0.000000
  70
    32
  0
VERTEX
  8
0
  5
406
 10
7.52307
 20
3.77858
 30
0.000000
  70
    32
  0
VERTEX
  8
0
  5
407
 10
7.52800
 20
3.77858
 30
0.000000
  70
    32
  0
VERTEX
  8
0
  5
408
 10
7.53292
 20
3.77858
 30
0.000000
  70
    32
  0
VERTEX
  8
0
  5
409
 10
7.53785
 20
3.77858
 30
0.000000
  70
    32
  0
VERTEX
  8
0
  5
40A
 10
7.54278
 20
3.77858
 30
0.000000
  70
    32
  0
VERTEX
  8
0
  5
40B
 10
7.54770
 20
3.77858
 30
0.000000
  70
    32
  0
VERTEX
  8
0
  5
40C
 10
7.55263
 20
3.77858
 30
0.000000
  70
    32
  0
VERTEX
  8
0
  5
40D
 10
7.55755
 20
3.77858
 30
0.000000
  70
    32
  0
VERTEX
  8
0
  5
40E
 10
7.56248
 20
3.77858
 30
0.000000
  70
    32
  0
VERTEX
  8
0
  5
40F
 10
7.56741
 20
3.77858
 30
0.000000
  70
    32
  0
VERTEX
  8
0
  5
410
 10
7.57233
 20
3.77858
 30
0.000000
  70
    32
  0
VERTEX
  8
0
  5
411
 10
7.57726
 20
3.77858
 30
0.000000
  70
    32
  0
VERTEX
  8
0
  5
412
 10
7.58218
 20
3.77858
 30
0.000000
  70
    32
  0
VERTEX
  8
0
  5
413
 10
7.58711
 20
3.77858
 30
0.000000
  70
    32
  0
VERTEX
  8
0
  5
414
 10
7.59204
 20
3.77858
 30
0.000000
  70
    32
  0
VERTEX
  8
0
  5
415
 10
7.59696
 20
3.77858
 30
0.000000
  70
    32
  0
VERTEX
  8
0
  5
416
 10
7.60189
 20
3.77858
 30
0.000000
  70
    32
  0
VERTEX
  8
0
  5
417
 10
7.60681
 20
3.77858
 30
0.000000
  70
    32
  0
VERTEX
  8
0
  5
418
 10
7.61174
 20
3.77858
 30
0.000000
  70
    32
  0
VERTEX
  8
0
  5
419
 10
7.61666
 20
3.77858
 30
0.000000
  70
    32
  0
VERTEX
  8
0
  5
41A
 10
7.62159
 20
3.77858
 30
0.000000
  70
    32
  0
VERTEX
  8
0
  5
41B
 10
7.62651
 20
3.77858
 30
0.000000
  70
    32
  0
VERTEX
  8
0
  5
41C
 10
7.63144
 20
3.77858
 30
0.000000
  70
    32
  0
VERTEX
  8
0
  5
41D
 10
7.63637
 20
3.77858
 30
0.000000
  70
    32
  0
VERTEX
  8
0
  5
41E
 10
7.64129
 20
3.77858
 30
0.000000
  70
    32
  0
VERTEX
  8
0
  5
41F
 10
7.64622
 20
3.77858
 30
0.000000
  70
    32
  0
VERTEX
  8
0
  5
420
 10
7.65114
 20
3.77858
 30
0.000000
  70
    32
  0
VERTEX
  8
0
  5
421
 10
7.65607
 20
3.77858
 30
0.000000
  70
    32
  0
VERTEX
  8
0
  5
422
 10
7.66099
 20
3.77858
 30
0.000000
  70
    32
  0
VERTEX
  8
0
  5
423
 10
7.66592
 20
3.77858
 30
0.000000
  70
    32
  0
VERTEX
  8
0
  5
424
 10
7.67084
 20
3.77858
 30
0.000000
  70
    32
  0
VERTEX
  8
0
  5
425
 10
7.67577
 20
3.77858
 30
0.000000
  70
    32
  0
VERTEX
  8
0
  5
426
 10
7.68069
 20
3.77858
 30
0.000000
  70
    32
  0
VERTEX
  8
0
  5
427
 10
7.68562
 20
3.77858
 30
0.000000
  70
    32
  0
VERTEX
  8
0
  5
428
 10
7.69054
 20
3.77858
 30
0.000000
  70
    32
  0
VERTEX
  8
0
  5
429
 10
7.69547
 20
3.77858
 30
0.000000
  70
    32
  0
VERTEX
  8
0
  5
42A
 10
7.70039
 20
3.77858
 30
0.000000
  70
    32
  0
VERTEX
  8
0
  5
42B
 10
7.70531
 20
3.77858
 30
0.000000
  70
    32
  0
VERTEX
  8
0
  5
42C
 10
7.71024
 20
3.77858
 30
0.000000
  70
    32
  0
VERTEX
  8
0
  5
42D
 10
7.71516
 20
3.77858
 30
0.000000
  70
    32
  0
VERTEX
  8
0
  5
42E
 10
7.72009
 20
3.77858
 30
0.000000
  70
    32
  0
VERTEX
  8
0
  5
42F
 10
7.72501
 20
3.77858
 30
0.000000
  70
    32
  0
VERTEX
  8
0
  5
430
 10
7.72994
 20
3.77858
 30
0.000000
  70
    32
  0
VERTEX
  8
0
  5
431
 10
7.73486
 20
3.77858
 30
0.000000
  70
    32
  0
VERTEX
  8
0
  5
432
 10
7.73979
 20
3.77858
 30
0.000000
  70
    32
  0
VERTEX
  8
0
  5
433
 10
7.74471
 20
3.77858
 30
0.000000
  70
    32
  0
VERTEX
  8
0
  5
434
 10
7.74963
 20
3.77858
 30
0.000000
  70
    32
  0
VERTEX
  8
0
  5
435
 10
7.75456
 20
3.77858
 30
0.000000
  70
    32
  0
VERTEX
  8
0
  5
436
 10
7.75948
 20
3.77858
 30
0.000000
  70
    32
  0
VERTEX
  8
0
  5
437
 10
7.76440
 20
3.77858
 30
0.000000
  70
    32
  0
VERTEX
  8
0
  5
438
 10
7.76933
 20
3.77858
 30
0.000000
  70
    32
  0
VERTEX
  8
0
  5
439
 10
7.77425
 20
3.77858
 30
0.000000
  70
    32
  0
VERTEX
  8
0
  5
43A
 10
7.77918
 20
3.77858
 30
0.000000
  70
    32
  0
VERTEX
  8
0
  5
43B
 10
7.78410
 20
3.77858
 30
0.000000
  70
    32
  0
VERTEX
  8
0
  5
43C
 10
7.78902
 20
3.77858
 30
0.000000
  70
    32
  0
VERTEX
  8
0
  5
43D
 10
7.79395
 20
3.77858
 30
0.000000
  70
    32
  0
VERTEX
  8
0
  5
43E
 10
7.79887
 20
3.77858
 30
0.000000
  70
    32
  0
VERTEX
  8
0
  5
43F
 10
7.80379
 20
3.77858
 30
0.000000
  70
    32
  0
VERTEX
  8
0
  5
440
 10
7.80871
 20
3.77858
 30
0.000000
  70
    32
  0
VERTEX
  8
0
  5
441
 10
7.81364
 20
3.77858
 30
0.000000
  70
    32
  0
VERTEX
  8
0
  5
442
 10
7.81856
 20
3.77858
 30
0.000000
  70
    32
  0
VERTEX
  8
0
  5
443
 10
7.82348
 20
3.77858
 30
0.000000
  70
    32
  0
VERTEX
  8
0
  5
444
 10
7.82841
 20
3.77858
 30
0.000000
  70
    32
  0
VERTEX
  8
0
  5
445
 10
7.83333
 20
3.77858
 30
0.000000
  70
    32
  0
VERTEX
  8
0
  5
446
 10
7.83825
 20
3.77858
 30
0.000000
  70
    32
  0
VERTEX
  8
0
  5
447
 10
7.84317
 20
3.77858
 30
0.000000
  70
    32
  0
VERTEX
  8
0
  5
448
 10
7.84810
 20
3.77858
 30
0.000000
  70
    32
  0
VERTEX
  8
0
  5
449
 10
7.85302
 20
3.77858
 30
0.000000
  70
    32
  0
VERTEX
  8
0
  5
44A
 10
7.85794
 20
3.77858
 30
0.000000
  70
    32
  0
VERTEX
  8
0
  5
44B
 10
7.86286
 20
3.77858
 30
0.000000
  70
    32
  0
VERTEX
  8
0
  5
44C
 10
7.86778
 20
3.77858
 30
0.000000
  70
    32
  0
VERTEX
  8
0
  5
44D
 10
7.87271
 20
3.77858
 30
0.000000
  70
    32
  0
VERTEX
  8
0
  5
44E
 10
7.87763
 20
3.77858
 30
0.000000
  70
    32
  0
VERTEX
  8
0
  5
44F
 10
7.88255
 20
3.77858
 30
0.000000
  70
    32
  0
VERTEX
  8
0
  5
450
 10
7.88747
 20
3.77858
 30
0.000000
  70
    32
  0
VERTEX
  8
0
  5
451
 10
7.89239
 20
3.77858
 30
0.000000
  70
    32
  0
VERTEX
  8
0
  5
452
 10
7.89731
 20
3.77858
 30
0.000000
  70
    32
  0
VERTEX
  8
0
  5
453
 10
7.90223
 20
3.77858
 30
0.000000
  70
    32
  0
VERTEX
  8
0
  5
454
 10
7.90716
 20
3.77858
 30
0.000000
  70
    32
  0
VERTEX
  8
0
  5
455
 10
7.91208
 20
3.77858
 30
0.000000
  70
    32
  0
VERTEX
  8
0
  5
456
 10
7.91700
 20
3.77858
 30
0.000000
  70
    32
  0
VERTEX
  8
0
  5
457
 10
7.92161
 20
3.77858
 30
0.000000
  70
    32
  0
VERTEX
  8
0
  5
458
 10
7.92553
 20
3.77858
 30
0.000000
  70
    32
  0
VERTEX
  8
0
  5
459
 10
7.92939
 20
3.77858
 30
0.000000
  70
    32
  0
VERTEX
  8
0
  5
45A
 10
7.93317
 20
3.77859
 30
0.000000
  70
    32
  0
VERTEX
  8
0
  5
45B
 10
7.93688
 20
3.77860
 30
0.000000
  70
    32
  0
VERTEX
  8
0
  5
45C
 10
7.94053
 20
3.77861
 30
0.000000
  70
    32
  0
VERTEX
  8
0
  5
45D
 10
7.94410
 20
3.77862
 30
0.000000
  70
    32
  0
VERTEX
  8
0
  5
45E
 10
7.94762
 20
3.77864
 30
0.000000
  70
    32
  0
VERTEX
  8
0
  5
45F
 10
7.95106
 20
3.77865
 30
0.000000
  70
    32
  0
VERTEX
  8
0
  5
460
 10
7.95444
 20
3.77866
 30
0.000000
  70
    32
  0
VERTEX
  8
0
  5
461
 10
7.95777
 20
3.77866
 30
0.000000
  70
    32
  0
VERTEX
  8
0
  5
462
 10
7.96102
 20
3.77867
 30
0.000000
  70
    32
  0
VERTEX
  8
0
  5
463
 10
7.96422
 20
3.77867
 30
0.000000
  70
    32
  0
VERTEX
  8
0
  5
464
 10
7.96736
 20
3.77867
 30
0.000000
  70
    32
  0
VERTEX
  8
0
  5
465
 10
7.97045
 20
3.77867
 30
0.000000
  70
    32
  0
VERTEX
  8
0
  5
466
 10
7.97347
 20
3.77866
 30
0.000000
  70
    32
  0
VERTEX
  8
0
  5
467
 10
7.97644
 20
3.77864
 30
0.000000
  70
    32
  0
VERTEX
  8
0
  5
468
 10
7.97936
 20
3.77862
 30
0.000000
  70
    32
  0
VERTEX
  8
0
  5
469
 10
7.98223
 20
3.77860
 30
0.000000
  70
    32
  0
VERTEX
  8
0
  5
46A
 10
7.98504
 20
3.77856
 30
0.000000
  70
    32
  0
VERTEX
  8
0
  5
46B
 10
7.98780
 20
3.77852
 30
0.000000
  70
    32
  0
VERTEX
  8
0
  5
46C
 10
7.99051
 20
3.77847
 30
0.000000
  70
    32
  0
VERTEX
  8
0
  5
46D
 10
7.99318
 20
3.77841
 30
0.000000
  70
    32
  0
VERTEX
  8
0
  5
46E
 10
7.99580
 20
3.77835
 30
0.000000
  70
    32
  0
VERTEX
  8
0
  5
46F
 10
7.99837
 20
3.77827
 30
0.000000
  70
    32
  0
VERTEX
  8
0
  5
470
 10
8.00089
 20
3.77818
 30
0.000000
  70
    32
  0
VERTEX
  8
0
  5
471
 10
8.00338
 20
3.77808
 30
0.000000
  70
    32
  0
VERTEX
  8
0
  5
472
 10
8.00582
 20
3.77797
 30
0.000000
  70
    32
  0
VERTEX
  8
0
  5
473
 10
8.00822
 20
3.77785
 30
0.000000
  70
    32
  0
VERTEX
  8
0
  5
474
 10
8.01058
 20
3.77772
 30
0.000000
  70
    32
  0
VERTEX
  8
0
  5
475
 10
8.01290
 20
3.77757
 30
0.000000
  70
    32
  0
VERTEX
  8
0
  5
476
 10
8.01519
 20
3.77741
 30
0.000000
  70
    32
  0
VERTEX
  8
0
  5
477
 10
8.01744
 20
3.77723
 30
0.000000
  70
    32
  0
VERTEX
  8
0
  5
478
 10
8.01965
 20
3.77704
 30
0.000000
  70
    32
  0
VERTEX
  8
0
  5
479
 10
8.02183
 20
3.77683
 30
0.000000
  70
    32
  0
VERTEX
  8
0
  5
47A
 10
8.02398
 20
3.77661
 30
0.000000
  70
    32
  0
VERTEX
  8
0
  5
47B
 10
8.02609
 20
3.77637
 30
0.000000
  70
    32
  0
VERTEX
  8
0
  5
47C
 10
8.02818
 20
3.77611
 30
0.000000
  70
    32
  0
VERTEX
  8
0
  5
47D
 10
8.03023
 20
3.77584
 30
0.000000
  70
    32
  0
VERTEX
  8
0
  5
47E
 10
8.03226
 20
3.77555
 30
0.000000
  70
    32
  0
VERTEX
  8
0
  5
47F
 10
8.03426
 20
3.77523
 30
0.000000
  70
    32
  0
VERTEX
  8
0
  5
480
 10
8.03624
 20
3.77490
 30
0.000000
  70
    32
  0
VERTEX
  8
0
  5
481
 10
8.03819
 20
3.77455
 30
0.000000
  70
    32
  0
VERTEX
  8
0
  5
482
 10
8.04012
 20
3.77418
 30
0.000000
  70
    32
  0
VERTEX
  8
0
  5
483
 10
8.04203
 20
3.77378
 30
0.000000
  70
    32
  0
VERTEX
  8
0
  5
484
 10
8.04391
 20
3.77337
 30
0.000000
  70
    32
  0
VERTEX
  8
0
  5
485
 10
8.04578
 20
3.77293
 30
0.000000
  70
    32
  0
VERTEX
  8
0
  5
486
 10
8.04763
 20
3.77246
 30
0.000000
  70
    32
  0
VERTEX
  8
0
  5
487
 10
8.04946
 20
3.77198
 30
0.000000
  70
    32
  0
VERTEX
  8
0
  5
488
 10
8.05127
 20
3.77147
 30
0.000000
  70
    32
  0
VERTEX
  8
0
  5
489
 10
8.05307
 20
3.77093
 30
0.000000
  70
    32
  0
VERTEX
  8
0
  5
48A
 10
8.05486
 20
3.77037
 30
0.000000
  70
    32
  0
VERTEX
  8
0
  5
48B
 10
8.05663
 20
3.76979
 30
0.000000
  70
    32
  0
VERTEX
  8
0
  5
48C
 10
8.05839
 20
3.76918
 30
0.000000
  70
    32
  0
VERTEX
  8
0
  5
48D
 10
8.06014
 20
3.76854
 30
0.000000
  70
    32
  0
VERTEX
  8
0
  5
48E
 10
8.06189
 20
3.76787
 30
0.000000
  70
    32
  0
VERTEX
  8
0
  5
48F
 10
8.06362
 20
3.76717
 30
0.000000
  70
    32
  0
VERTEX
  8
0
  5
490
 10
8.06535
 20
3.76645
 30
0.000000
  70
    32
  0
VERTEX
  8
0
  5
491
 10
8.06707
 20
3.76569
 30
0.000000
  70
    32
  0
VERTEX
  8
0
  5
492
 10
8.06879
 20
3.76491
 30
0.000000
  70
    32
  0
VERTEX
  8
0
  5
493
 10
8.07051
 20
3.76410
 30
0.000000
  70
    32
  0
VERTEX
  8
0
  5
494
 10
8.07222
 20
3.76325
 30
0.000000
  70
    32
  0
VERTEX
  8
0
  5
495
 10
8.07394
 20
3.76237
 30
0.000000
  70
    32
  0
VERTEX
  8
0
  5
496
 10
8.07565
 20
3.76146
 30
0.000000
  70
    32
  0
VERTEX
  8
0
  5
497
 10
8.07737
 20
3.76052
 30
0.000000
  70
    32
  0
VERTEX
  8
0
  5
498
 10
8.07909
 20
3.75954
 30
0.000000
  70
    32
  0
VERTEX
  8
0
  5
499
 10
8.08081
 20
3.75853
 30
0.000000
  70
    32
  0
VERTEX
  8
0
  5
49A
 10
8.08254
 20
3.75749
 30
0.000000
  70
    32
  0
VERTEX
  8
0
  5
49B
 10
8.08427
 20
3.75641
 30
0.000000
  70
    32
  0
VERTEX
  8
0
  5
49C
 10
8.08602
 20
3.75529
 30
0.000000
  70
    32
  0
VERTEX
  8
0
  5
49D
 10
8.08777
 20
3.75414
 30
0.000000
  70
    32
  0
VERTEX
  8
0
  5
49E
 10
8.08953
 20
3.75295
 30
0.000000
  70
    32
  0
VERTEX
  8
0
  5
49F
 10
8.09131
 20
3.75173
 30
0.000000
  70
    32
  0
VERTEX
  8
0
  5
4A0
 10
8.09309
 20
3.75046
 30
0.000000
  70
    32
  0
VERTEX
  8
0
  5
4A1
 10
8.09489
 20
3.74916
 30
0.000000
  70
    32
  0
VERTEX
  8
0
  5
4A2
 10
8.09671
 20
3.74782
 30
0.000000
  70
    32
  0
VERTEX
  8
0
  5
4A3
 10
8.09854
 20
3.74643
 30
0.000000
  70
    32
  0
VERTEX
  8
0
  5
4A4
 10
8.10038
 20
3.74501
 30
0.000000
  70
    32
  0
VERTEX
  8
0
  5
4A5
 10
8.10225
 20
3.74355
 30
0.000000
  70
    32
  0
VERTEX
  8
0
  5
4A6
 10
8.10414
 20
3.74204
 30
0.000000
  70
    32
  0
VERTEX
  8
0
  5
4A7
 10
8.10604
 20
3.74050
 30
0.000000
  70
    32
  0
VERTEX
  8
0
  5
4A8
 10
8.10797
 20
3.73891
 30
0.000000
  70
    32
  0
VERTEX
  8
0
  5
4A9
 10
8.10992
 20
3.73727
 30
0.000000
  70
    32
  0
VERTEX
  8
0
  5
4AA
 10
8.11190
 20
3.73559
 30
0.000000
  70
    32
  0
VERTEX
  8
0
  5
4AB
 10
8.11390
 20
3.73387
 30
0.000000
  70
    32
  0
VERTEX
  8
0
  5
4AC
 10
8.11593
 20
3.73211
 30
0.000000
  70
    32
  0
VERTEX
  8
0
  5
4AD
 10
8.11798
 20
3.73029
 30
0.000000
  70
    32
  0
VERTEX
  8
0
  5
4AE
 10
8.12007
 20
3.72844
 30
0.000000
  70
    32
  0
VERTEX
  8
0
  5
4AF
 10
8.12219
 20
3.72653
 30
0.000000
  70
    32
  0
VERTEX
  8
0
  5
4B0
 10
8.12433
 20
3.72458
 30
0.000000
  70
    32
  0
VERTEX
  8
0
  5
4B1
 10
8.12651
 20
3.72258
 30
0.000000
  70
    32
  0
VERTEX
  8
0
  5
4B2
 10
8.12873
 20
3.72053
 30
0.000000
  70
    32
  0
VERTEX
  8
0
  5
4B3
 10
8.13097
 20
3.71843
 30
0.000000
  70
    32
  0
VERTEX
  8
0
  5
4B4
 10
8.13326
 20
3.71628
 30
0.000000
  70
    32
  0
VERTEX
  8
0
  5
4B5
 10
8.13558
 20
3.71409
 30
0.000000
  70
    32
  0
VERTEX
  8
0
  5
4B6
 10
8.13794
 20
3.71184
 30
0.000000
  70
    32
  0
VERTEX
  8
0
  5
4B7
 10
8.14034
 20
3.70954
 30
0.000000
  70
    32
  0
VERTEX
  8
0
  5
4B8
 10
8.14279
 20
3.70719
 30
0.000000
  70
    32
  0
VERTEX
  8
0
  5
4B9
 10
8.14527
 20
3.70478
 30
0.000000
  70
    32
  0
VERTEX
  8
0
  5
4BA
 10
8.14780
 20
3.70232
 30
0.000000
  70
    32
  0
VERTEX
  8
0
  5
4BB
 10
8.15037
 20
3.69981
 30
0.000000
  70
    32
  0
VERTEX
  8
0
  5
4BC
 10
8.15299
 20
3.69725
 30
0.000000
  70
    32
  0
VERTEX
  8
0
  5
4BD
 10
8.15565
 20
3.69463
 30
0.000000
  70
    32
  0
VERTEX
  8
0
  5
4BE
 10
8.15837
 20
3.69195
 30
0.000000
  70
    32
  0
VERTEX
  8
0
  5
4BF
 10
8.16113
 20
3.68922
 30
0.000000
  70
    32
  0
VERTEX
  8
0
  5
4C0
 10
8.16394
 20
3.68643
 30
0.000000
  70
    32
  0
VERTEX
  8
0
  5
4C1
 10
8.16681
 20
3.68359
 30
0.000000
  70
    32
  0
VERTEX
  8
0
  5
4C2
 10
8.16972
 20
3.68069
 30
0.000000
  70
    32
  0
VERTEX
  8
0
  5
4C3
 10
8.17269
 20
3.67773
 30
0.000000
  70
    32
  0
VERTEX
  8
0
  5
4C4
 10
8.17572
 20
3.67471
 30
0.000000
  70
    32
  0
VERTEX
  8
0
  5
4C5
 10
8.17856
 20
3.67198
 30
0.000000
  70
    32
  0
VERTEX
  8
0
  5
4C6
 10
8.18012
 20
3.67102
 30
0.000000
  70
    32
  0
VERTEX
  8
0
  5
4C7
 10
8.18167
 20
3.67006
 30
0.000000
  70
    32
  0
VERTEX
  8
0
  5
4C8
 10
8.18318
 20
3.66907
 30
0.000000
  70
    32
  0
VERTEX
  8
0
  5
4C9
 10
8.18468
 20
3.66808
 30
0.000000
  70
    32
  0
VERTEX
  8
0
  5
4CA
 10
8.18615
 20
3.66707
 30
0.000000
  70
    32
  0
VERTEX
  8
0
  5
4CB
 10
8.18759
 20
3.66605
 30
0.000000
  70
    32
  0
VERTEX
  8
0
  5
4CC
 10
8.18901
 20
3.66502
 30
0.000000
  70
    32
  0
VERTEX
  8
0
  5
4CD
 10
8.19040
 20
3.66397
 30
0.000000
  70
    32
  0
VERTEX
  8
0
  5
4CE
 10
8.19177
 20
3.66291
 30
0.000000
  70
    32
  0
VERTEX
  8
0
  5
4CF
 10
8.19312
 20
3.66183
 30
0.000000
  70
    32
  0
VERTEX
  8
0
  5
4D0
 10
8.19444
 20
3.66075
 30
0.000000
  70
    32
  0
VERTEX
  8
0
  5
4D1
 10
8.19574
 20
3.65965
 30
0.000000
  70
    32
  0
VERTEX
  8
0
  5
4D2
 10
8.19701
 20
3.65854
 30
0.000000
  70
    32
  0
VERTEX
  8
0
  5
4D3
 10
8.19826
 20
3.65742
 30
0.000000
  70
    32
  0
VERTEX
  8
0
  5
4D4
 10
8.19949
 20
3.65628
 30
0.000000
  70
    32
  0
VERTEX
  8
0
  5
4D5
 10
8.20069
 20
3.65513
 30
0.000000
  70
    32
  0
VERTEX
  8
0
  5
4D6
 10
8.20187
 20
3.65398
 30
0.000000
  70
    32
  0
VERTEX
  8
0
  5
4D7
 10
8.20303
 20
3.65281
 30
0.000000
  70
    32
  0
VERTEX
  8
0
  5
4D8
 10
8.20417
 20
3.65162
 30
0.000000
  70
    32
  0
VERTEX
  8
0
  5
4D9
 10
8.20528
 20
3.65043
 30
0.000000
  70
    32
  0
VERTEX
  8
0
  5
4DA
 10
8.20637
 20
3.64922
 30
0.000000
  70
    32
  0
VERTEX
  8
0
  5
4DB
 10
8.20744
 20
3.64801
 30
0.000000
  70
    32
  0
VERTEX
  8
0
  5
4DC
 10
8.20848
 20
3.64678
 30
0.000000
  70
    32
  0
VERTEX
  8
0
  5
4DD
 10
8.20951
 20
3.64554
 30
0.000000
  70
    32
  0
VERTEX
  8
0
  5
4DE
 10
8.21051
 20
3.64429
 30
0.000000
  70
    32
  0
VERTEX
  8
0
  5
4DF
 10
8.21149
 20
3.64304
 30
0.000000
  70
    32
  0
VERTEX
  8
0
  5
4E0
 10
8.21245
 20
3.64177
 30
0.000000
  70
    32
  0
VERTEX
  8
0
  5
4E1
 10
8.21338
 20
3.64048
 30
0.000000
  70
    32
  0
VERTEX
  8
0
  5
4E2
 10
8.21430
 20
3.63919
 30
0.000000
  70
    32
  0
VERTEX
  8
0
  5
4E3
 10
8.21519
 20
3.63789
 30
0.000000
  70
    32
  0
VERTEX
  8
0
  5
4E4
 10
8.21607
 20
3.63658
 30
0.000000
  70
    32
  0
VERTEX
  8
0
  5
4E5
 10
8.21692
 20
3.63526
 30
0.000000
  70
    32
  0
VERTEX
  8
0
  5
4E6
 10
8.21775
 20
3.63393
 30
0.000000
  70
    32
  0
VERTEX
  8
0
  5
4E7
 10
8.21856
 20
3.63259
 30
0.000000
  70
    32
  0
VERTEX
  8
0
  5
4E8
 10
8.21936
 20
3.63124
 30
0.000000
  70
    32
  0
VERTEX
  8
0
  5
4E9
 10
8.22013
 20
3.62988
 30
0.000000
  70
    32
  0
VERTEX
  8
0
  5
4EA
 10
8.22088
 20
3.62851
 30
0.000000
  70
    32
  0
VERTEX
  8
0
  5
4EB
 10
8.22161
 20
3.62713
 30
0.000000
  70
    32
  0
VERTEX
  8
0
  5
4EC
 10
8.22232
 20
3.62575
 30
0.000000
  70
    32
  0
VERTEX
  8
0
  5
4ED
 10
8.22301
 20
3.62435
 30
0.000000
  70
    32
  0
VERTEX
  8
0
  5
4EE
 10
8.22368
 20
3.62295
 30
0.000000
  70
    32
  0
VERTEX
  8
0
  5
4EF
 10
8.22434
 20
3.62154
 30
0.000000
  70
    32
  0
VERTEX
  8
0
  5
4F0
 10
8.22497
 20
3.62011
 30
0.000000
  70
    32
  0
VERTEX
  8
0
  5
4F1
 10
8.22558
 20
3.61868
 30
0.000000
  70
    32
  0
VERTEX
  8
0
  5
4F2
 10
8.22618
 20
3.61725
 30
0.000000
  70
    32
  0
VERTEX
  8
0
  5
4F3
 10
8.22676
 20
3.61580
 30
0.000000
  70
    32
  0
VERTEX
  8
0
  5
4F4
 10
8.22732
 20
3.61435
 30
0.000000
  70
    32
  0
VERTEX
  8
0
  5
4F5
 10
8.22786
 20
3.61289
 30
0.000000
  70
    32
  0
VERTEX
  8
0
  5
4F6
 10
8.22838
 20
3.61142
 30
0.000000
  70
    32
  0
VERTEX
  8
0
  5
4F7
 10
8.22888
 20
3.60994
 30
0.000000
  70
    32
  0
VERTEX
  8
0
  5
4F8
 10
8.22937
 20
3.60845
 30
0.000000
  70
    32
  0
VERTEX
  8
0
  5
4F9
 10
8.22984
 20
3.60696
 30
0.000000
  70
    32
  0
VERTEX
  8
0
  5
4FA
 10
8.23029
 20
3.60546
 30
0.000000
  70
    32
  0
VERTEX
  8
0
  5
4FB
 10
8.23072
 20
3.60396
 30
0.000000
  70
    32
  0
VERTEX
  8
0
  5
4FC
 10
8.23113
 20
3.60244
 30
0.000000
  70
    32
  0
VERTEX
  8
0
  5
4FD
 10
8.23153
 20
3.60093
 30
0.000000
  70
    32
  0
VERTEX
  8
0
  5
4FE
 10
8.23191
 20
3.59940
 30
0.000000
  70
    32
  0
VERTEX
  8
0
  5
4FF
 10
8.23228
 20
3.59787
 30
0.000000
  70
    32
  0
VERTEX
  8
0
  5
500
 10
8.23262
 20
3.59633
 30
0.000000
  70
    32
  0
VERTEX
  8
0
  5
501
 10
8.23296
 20
3.59478
 30
0.000000
  70
    32
  0
VERTEX
  8
0
  5
502
 10
8.23327
 20
3.59323
 30
0.000000
  70
    32
  0
VERTEX
  8
0
  5
503
 10
8.23357
 20
3.59167
 30
0.000000
  70
    32
  0
VERTEX
  8
0
  5
504
 10
8.23385
 20
3.59011
 30
0.000000
  70
    32
  0
VERTEX
  8
0
  5
505
 10
8.23411
 20
3.58854
 30
0.000000
  70
    32
  0
VERTEX
  8
0
  5
506
 10
8.23436
 20
3.58696
 30
0.000000
  70
    32
  0
VERTEX
  8
0
  5
507
 10
8.23460
 20
3.58538
 30
0.000000
  70
    32
  0
VERTEX
  8
0
  5
508
 10
8.23482
 20
3.58380
 30
0.000000
  70
    32
  0
VERTEX
  8
0
  5
509
 10
8.23502
 20
3.58221
 30
0.000000
  70
    32
  0
VERTEX
  8
0
  5
50A
 10
8.23521
 20
3.58061
 30
0.000000
  70
    32
  0
VERTEX
  8
0
  5
50B
 10
8.23538
 20
3.57901
 30
0.000000
  70
    32
  0
VERTEX
  8
0
  5
50C
 10
8.23554
 20
3.57740
 30
0.000000
  70
    32
  0
VERTEX
  8
0
  5
50D
 10
8.23568
 20
3.57579
 30
0.000000
  70
    32
  0
VERTEX
  8
0
  5
50E
 10
8.23581
 20
3.57418
 30
0.000000
  70
    32
  0
VERTEX
  8
0
  5
50F
 10
8.23592
 20
3.57256
 30
0.000000
  70
    32
  0
VERTEX
  8
0
  5
510
 10
8.23602
 20
3.57093
 30
0.000000
  70
    32
  0
VERTEX
  8
0
  5
511
 10
8.23611
 20
3.56930
 30
0.000000
  70
    32
  0
VERTEX
  8
0
  5
512
 10
8.23618
 20
3.56767
 30
0.000000
  70
    32
  0
VERTEX
  8
0
  5
513
 10
8.23624
 20
3.56603
 30
0.000000
  70
    32
  0
VERTEX
  8
0
  5
514
 10
8.23628
 20
3.56439
 30
0.000000
  70
    32
  0
VERTEX
  8
0
  5
515
 10
8.23631
 20
3.56275
 30
0.000000
  70
    32
  0
VERTEX
  8
0
  5
516
 10
8.23633
 20
3.56110
 30
0.000000
  70
    32
  0
VERTEX
  8
0
  5
517
 10
8.23633
 20
3.55945
 30
0.000000
  70
    32
  0
VERTEX
  8
0
  5
518
 10
8.23632
 20
3.55780
 30
0.000000
  70
    32
  0
VERTEX
  8
0
  5
519
 10
8.23630
 20
3.55614
 30
0.000000
  70
    32
  0
VERTEX
  8
0
  5
51A
 10
8.23626
 20
3.55448
 30
0.000000
  70
    32
  0
VERTEX
  8
0
  5
51B
 10
8.23621
 20
3.55282
 30
0.000000
  70
    32
  0
VERTEX
  8
0
  5
51C
 10
8.23615
 20
3.55115
 30
0.000000
  70
    32
  0
VERTEX
  8
0
  5
51D
 10
8.23608
 20
3.54948
 30
0.000000
  70
    32
  0
VERTEX
  8
0
  5
51E
 10
8.23599
 20
3.54781
 30
0.000000
  70
    32
  0
VERTEX
  8
0
  5
51F
 10
8.23590
 20
3.54614
 30
0.000000
  70
    32
  0
VERTEX
  8
0
  5
520
 10
8.23579
 20
3.54446
 30
0.000000
  70
    32
  0
VERTEX
  8
0
  5
521
 10
8.23567
 20
3.54278
 30
0.000000
  70
    32
  0
VERTEX
  8
0
  5
522
 10
8.23553
 20
3.54110
 30
0.000000
  70
    32
  0
VERTEX
  8
0
  5
523
 10
8.23539
 20
3.53942
 30
0.000000
  70
    32
  0
VERTEX
  8
0
  5
524
 10
8.23523
 20
3.53773
 30
0.000000
  70
    32
  0
VERTEX
  8
0
  5
525
 10
8.23506
 20
3.53605
 30
0.000000
  70
    32
  0
VERTEX
  8
0
  5
526
 10
8.23489
 20
3.53436
 30
0.000000
  70
    32
  0
VERTEX
  8
0
  5
527
 10
8.23470
 20
3.53267
 30
0.000000
  70
    32
  0
VERTEX
  8
0
  5
528
 10
8.23450
 20
3.53098
 30
0.000000
  70
    32
  0
VERTEX
  8
0
  5
529
 10
8.23429
 20
3.52929
 30
0.000000
  70
    32
  0
VERTEX
  8
0
  5
52A
 10
8.23406
 20
3.52760
 30
0.000000
  70
    32
  0
VERTEX
  8
0
  5
52B
 10
8.23383
 20
3.52591
 30
0.000000
  70
    32
  0
VERTEX
  8
0
  5
52C
 10
8.23359
 20
3.52422
 30
0.000000
  70
    32
  0
VERTEX
  8
0
  5
52D
 10
8.23334
 20
3.52252
 30
0.000000
  70
    32
  0
VERTEX
  8
0
  5
52E
 10
8.23308
 20
3.52083
 30
0.000000
  70
    32
  0
VERTEX
  8
0
  5
52F
 10
8.23281
 20
3.51913
 30
0.000000
  70
    32
  0
VERTEX
  8
0
  5
530
 10
8.23253
 20
3.51744
 30
0.000000
  70
    32
  0
VERTEX
  8
0
  5
531
 10
8.23224
 20
3.51575
 30
0.000000
  70
    32
  0
VERTEX
  8
0
  5
532
 10
8.23194
 20
3.51405
 30
0.000000
  70
    32
  0
VERTEX
  8
0
  5
533
 10
8.23163
 20
3.51236
 30
0.000000
  70
    32
  0
SEQEND
  8
0
  5
534
  0
POLYLINE
  8
0
  5
535
  66
     1
 10
0.000000
 20
0.000000
 30
0.000000
  70
     8
  0
VERTEX
  8
0
  5
536
 10
-7.96519
 20
3.77858
 30
0.000000
  70
    32
  0
VERTEX
  8
0
  5
537
 10
-7.96321
 20
3.77875
 30
0.000000
  70
    32
  0
VERTEX
  8
0
  5
538
 10
-7.96121
 20
3.77889
 30
0.000000
  70
    32
  0
VERTEX
  8
0
  5
539
 10
-7.95918
 20
3.77900
 30
0.000000
  70
    32
  0
VERTEX
  8
0
  5
53A
 10
-7.95714
 20
3.77909
 30
0.000000
  70
    32
  0
VERTEX
  8
0
  5
53B
 10
-7.95509
 20
3.77914
 30
0.000000
  70
    32
  0
VERTEX
  8
0
  5
53C
 10
-7.95301
 20
3.77917
 30
0.000000
  70
    32
  0
VERTEX
  8
0
  5
53D
 10
-7.95092
 20
3.77917
 30
0.000000
  70
    32
  0
VERTEX
  8
0
  5
53E
 10
-7.94881
 20
3.77915
 30
0.000000
  70
    32
  0
VERTEX
  8
0
  5
53F
 10
-7.94668
 20
3.77910
 30
0.000000
  70
    32
  0
VERTEX
  8
0
  5
540
 10
-7.94454
 20
3.77902
 30
0.000000
  70
    32
  0
VERTEX
  8
0
  5
541
 10
-7.94238
 20
3.77892
 30
0.000000
  70
    32
  0
VERTEX
  8
0
  5
542
 10
-7.94020
 20
3.77879
 30
0.000000
  70
    32
  0
VERTEX
  8
0
  5
543
 10
-7.93802
 20
3.77864
 30
0.000000
  70
    32
  0
VERTEX
  8
0
  5
544
 10
-7.93582
 20
3.77846
 30
0.000000
  70
    32
  0
VERTEX
  8
0
  5
545
 10
-7.93360
 20
3.77826
 30
0.000000
  70
    32
  0
VERTEX
  8
0
  5
546
 10
-7.93137
 20
3.77804
 30
0.000000
  70
    32
  0
VERTEX
  8
0
  5
547
 10
-7.92913
 20
3.77779
 30
0.000000
  70
    32
  0
VERTEX
  8
0
  5
548
 10
-7.92687
 20
3.77752
 30
0.000000
  70
    32
  0
VERTEX
  8
0
  5
549
 10
-7.92461
 20
3.77723
 30
0.000000
  70
    32
  0
VERTEX
  8
0
  5
54A
 10
-7.92233
 20
3.77692
 30
0.000000
  70
    32
  0
VERTEX
  8
0
  5
54B
 10
-7.92004
 20
3.77658
 30
0.000000
  70
    32
  0
VERTEX
  8
0
  5
54C
 10
-7.91774
 20
3.77623
 30
0.000000
  70
    32
  0
VERTEX
  8
0
  5
54D
 10
-7.91543
 20
3.77586
 30
0.000000
  70
    32
  0
VERTEX
  8
0
  5
54E
 10
-7.91311
 20
3.77546
 30
0.000000
  70
    32
  0
VERTEX
  8
0
  5
54F
 10
-7.91078
 20
3.77505
 30
0.000000
  70
    32
  0
VERTEX
  8
0
  5
550
 10
-7.90844
 20
3.77462
 30
0.000000
  70
    32
  0
VERTEX
  8
0
  5
551
 10
-7.90610
 20
3.77417
 30
0.000000
  70
    32
  0
VERTEX
  8
0
  5
552
 10
-7.90374
 20
3.77370
 30
0.000000
  70
    32
  0
VERTEX
  8
0
  5
553
 10
-7.90138
 20
3.77321
 30
0.000000
  70
    32
  0
VERTEX
  8
0
  5
554
 10
-7.89901
 20
3.77271
 30
0.000000
  70
    32
  0
VERTEX
  8
0
  5
555
 10
-7.89664
 20
3.77219
 30
0.000000
  70
    32
  0
VERTEX
  8
0
  5
556
 10
-7.89425
 20
3.77166
 30
0.000000
  70
    32
  0
VERTEX
  8
0
  5
557
 10
-7.89187
 20
3.77111
 30
0.000000
  70
    32
  0
VERTEX
  8
0
  5
558
 10
-7.88947
 20
3.77054
 30
0.000000
  70
    32
  0
VERTEX
  8
0
  5
559
 10
-7.88707
 20
3.76996
 30
0.000000
  70
    32
  0
VERTEX
  8
0
  5
55A
 10
-7.88467
 20
3.76936
 30
0.000000
  70
    32
  0
VERTEX
  8
0
  5
55B
 10
-7.88226
 20
3.76875
 30
0.000000
  70
    32
  0
VERTEX
  8
0
  5
55C
 10
-7.87985
 20
3.76813
 30
0.000000
  70
    32
  0
VERTEX
  8
0
  5
55D
 10
-7.87744
 20
3.76750
 30
0.000000
  70
    32
  0
VERTEX
  8
0
  5
55E
 10
-7.87502
 20
3.76685
 30
0.000000
  70
    32
  0
VERTEX
  8
0
  5
55F
 10
-7.87260
 20
3.76619
 30
0.000000
  70
    32
  0
VERTEX
  8
0
  5
560
 10
-7.87018
 20
3.76552
 30
0.000000
  70
    32
  0
VERTEX
  8
0
  5
561
 10
-7.86776
 20
3.76483
 30
0.000000
  70
    32
  0
VERTEX
  8
0
  5
562
 10
-7.86533
 20
3.76414
 30
0.000000
  70
    32
  0
VERTEX
  8
0
  5
563
 10
-7.86291
 20
3.76343
 30
0.000000
  70
    32
  0
VERTEX
  8
0
  5
564
 10
-7.86049
 20
3.76272
 30
0.000000
  70
    32
  0
VERTEX
  8
0
  5
565
 10
-7.85806
 20
3.76200
 30
0.000000
  70
    32
  0
VERTEX
  8
0
  5
566
 10
-7.85564
 20
3.76126
 30
0.000000
  70
    32
  0
VERTEX
  8
0
  5
567
 10
-7.85322
 20
3.76052
 30
0.000000
  70
    32
  0
VERTEX
  8
0
  5
568
 10
-7.85080
 20
3.75977
 30
0.000000
  70
    32
  0
VERTEX
  8
0
  5
569
 10
-7.84838
 20
3.75902
 30
0.000000
  70
    32
  0
VERTEX
  8
0
  5
56A
 10
-7.84596
 20
3.75825
 30
0.000000
  70
    32
  0
VERTEX
  8
0
  5
56B
 10
-7.84355
 20
3.75748
 30
0.000000
  70
    32
  0
VERTEX
  8
0
  5
56C
 10
-7.84114
 20
3.75670
 30
0.000000
  70
    32
  0
VERTEX
  8
0
  5
56D
 10
-7.83873
 20
3.75592
 30
0.000000
  70
    32
  0
VERTEX
  8
0
  5
56E
 10
-7.83633
 20
3.75513
 30
0.000000
  70
    32
  0
VERTEX
  8
0
  5
56F
 10
-7.83393
 20
3.75434
 30
0.000000
  70
    32
  0
VERTEX
  8
0
  5
570
 10
-7.83154
 20
3.75354
 30
0.000000
  70
    32
  0
VERTEX
  8
0
  5
571
 10
-7.82915
 20
3.75274
 30
0.000000
  70
    32
  0
VERTEX
  8
0
  5
572
 10
-7.82677
 20
3.75193
 30
0.000000
  70
    32
  0
VERTEX
  8
0
  5
573
 10
-7.82440
 20
3.75113
 30
0.000000
  70
    32
  0
VERTEX
  8
0
  5
574
 10
-7.82203
 20
3.75031
 30
0.000000
  70
    32
  0
VERTEX
  8
0
  5
575
 10
-7.81967
 20
3.74950
 30
0.000000
  70
    32
  0
VERTEX
  8
0
  5
576
 10
-7.81732
 20
3.74868
 30
0.000000
  70
    32
  0
VERTEX
  8
0
  5
577
 10
-7.81498
 20
3.74787
 30
0.000000
  70
    32
  0
VERTEX
  8
0
  5
578
 10
-7.81264
 20
3.74705
 30
0.000000
  70
    32
  0
VERTEX
  8
0
  5
579
 10
-7.81032
 20
3.74623
 30
0.000000
  70
    32
  0
VERTEX
  8
0
  5
57A
 10
-7.80800
 20
3.74541
 30
0.000000
  70
    32
  0
VERTEX
  8
0
  5
57B
 10
-7.80569
 20
3.74459
 30
0.000000
  70
    32
  0
VERTEX
  8
0
  5
57C
 10
-7.80340
 20
3.74377
 30
0.000000
  70
    32
  0
VERTEX
  8
0
  5
57D
 10
-7.80111
 20
3.74296
 30
0.000000
  70
    32
  0
VERTEX
  8
0
  5
57E
 10
-7.79884
 20
3.74214
 30
0.000000
  70
    32
  0
VERTEX
  8
0
  5
57F
 10
-7.79657
 20
3.74133
 30
0.000000
  70
    32
  0
VERTEX
  8
0
  5
580
 10
-7.79432
 20
3.74052
 30
0.000000
  70
    32
  0
VERTEX
  8
0
  5
581
 10
-7.79208
 20
3.73971
 30
0.000000
  70
    32
  0
VERTEX
  8
0
  5
582
 10
-7.78986
 20
3.73891
 30
0.000000
  70
    32
  0
VERTEX
  8
0
  5
583
 10
-7.78765
 20
3.73811
 30
0.000000
  70
    32
  0
VERTEX
  8
0
  5
584
 10
-7.78545
 20
3.73732
 30
0.000000
  70
    32
  0
VERTEX
  8
0
  5
585
 10
-7.78327
 20
3.73653
 30
0.000000
  70
    32
  0
VERTEX
  8
0
  5
586
 10
-7.78110
 20
3.73574
 30
0.000000
  70
    32
  0
VERTEX
  8
0
  5
587
 10
-7.77894
 20
3.73496
 30
0.000000
  70
    32
  0
VERTEX
  8
0
  5
588
 10
-7.77681
 20
3.73419
 30
0.000000
  70
    32
  0
VERTEX
  8
0
  5
589
 10
-7.77469
 20
3.73342
 30
0.000000
  70
    32
  0
VERTEX
  8
0
  5
58A
 10
-7.77258
 20
3.73266
 30
0.000000
  70
    32
  0
VERTEX
  8
0
  5
58B
 10
-7.77049
 20
3.73191
 30
0.000000
  70
    32
  0
VERTEX
  8
0
  5
58C
 10
-7.76842
 20
3.73117
 30
0.000000
  70
    32
  0
VERTEX
  8
0
  5
58D
 10
-7.76637
 20
3.73043
 30
0.000000
  70
    32
  0
VERTEX
  8
0
  5
58E
 10
-7.76433
 20
3.72970
 30
0.000000
  70
    32
  0
VERTEX
  8
0
  5
58F
 10
-7.76232
 20
3.72899
 30
0.000000
  70
    32
  0
VERTEX
  8
0
  5
590
 10
-7.76032
 20
3.72828
 30
0.000000
  70
    32
  0
VERTEX
  8
0
  5
591
 10
-7.75834
 20
3.72758
 30
0.000000
  70
    32
  0
VERTEX
  8
0
  5
592
 10
-7.75639
 20
3.72689
 30
0.000000
  70
    32
  0
VERTEX
  8
0
  5
593
 10
-7.75445
 20
3.72622
 30
0.000000
  70
    32
  0
VERTEX
  8
0
  5
594
 10
-7.75253
 20
3.72555
 30
0.000000
  70
    32
  0
VERTEX
  8
0
  5
595
 10
-7.75064
 20
3.72490
 30
0.000000
  70
    32
  0
VERTEX
  8
0
  5
596
 10
-7.74877
 20
3.72426
 30
0.000000
  70
    32
  0
VERTEX
  8
0
  5
597
 10
-7.74692
 20
3.72363
 30
0.000000
  70
    32
  0
VERTEX
  8
0
  5
598
 10
-7.74449
 20
3.72282
 30
0.000000
  70
    32
  0
VERTEX
  8
0
  5
599
 10
-7.74134
 20
3.72178
 30
0.000000
  70
    32
  0
VERTEX
  8
0
  5
59A
 10
-7.73819
 20
3.72073
 30
0.000000
  70
    32
  0
VERTEX
  8
0
  5
59B
 10
-7.73504
 20
3.71968
 30
0.000000
  70
    32
  0
VERTEX
  8
0
  5
59C
 10
-7.73189
 20
3.71863
 30
0.000000
  70
    32
  0
VERTEX
  8
0
  5
59D
 10
-7.72874
 20
3.71759
 30
0.000000
  70
    32
  0
VERTEX
  8
0
  5
59E
 10
-7.72559
 20
3.71654
 30
0.000000
  70
    32
  0
VERTEX
  8
0
  5
59F
 10
-7.72244
 20
3.71549
 30
0.000000
  70
    32
  0
VERTEX
  8
0
  5
5A0
 10
-7.71929
 20
3.71444
 30
0.000000
  70
    32
  0
VERTEX
  8
0
  5
5A1
 10
-7.71614
 20
3.71340
 30
0.000000
  70
    32
  0
VERTEX
  8
0
  5
5A2
 10
-7.71298
 20
3.71235
 30
0.000000
  70
    32
  0
VERTEX
  8
0
  5
5A3
 10
-7.70983
 20
3.71130
 30
0.000000
  70
    32
  0
VERTEX
  8
0
  5
5A4
 10
-7.70668
 20
3.71025
 30
0.000000
  70
    32
  0
VERTEX
  8
0
  5
5A5
 10
-7.70353
 20
3.70920
 30
0.000000
  70
    32
  0
VERTEX
  8
0
  5
5A6
 10
-7.70038
 20
3.70816
 30
0.000000
  70
    32
  0
VERTEX
  8
0
  5
5A7
 10
-7.69723
 20
3.70711
 30
0.000000
  70
    32
  0
VERTEX
  8
0
  5
5A8
 10
-7.69408
 20
3.70606
 30
0.000000
  70
    32
  0
VERTEX
  8
0
  5
5A9
 10
-7.69093
 20
3.70501
 30
0.000000
  70
    32
  0
VERTEX
  8
0
  5
5AA
 10
-7.68778
 20
3.70396
 30
0.000000
  70
    32
  0
VERTEX
  8
0
  5
5AB
 10
-7.68463
 20
3.70291
 30
0.000000
  70
    32
  0
VERTEX
  8
0
  5
5AC
 10
-7.68147
 20
3.70186
 30
0.000000
  70
    32
  0
VERTEX
  8
0
  5
5AD
 10
-7.67832
 20
3.70081
 30
0.000000
  70
    32
  0
VERTEX
  8
0
  5
5AE
 10
-7.67517
 20
3.69976
 30
0.000000
  70
    32
  0
VERTEX
  8
0
  5
5AF
 10
-7.67202
 20
3.69871
 30
0.000000
  70
    32
  0
VERTEX
  8
0
  5
5B0
 10
-7.66887
 20
3.69766
 30
0.000000
  70
    32
  0
VERTEX
  8
0
  5
5B1
 10
-7.66572
 20
3.69661
 30
0.000000
  70
    32
  0
VERTEX
  8
0
  5
5B2
 10
-7.66257
 20
3.69556
 30
0.000000
  70
    32
  0
VERTEX
  8
0
  5
5B3
 10
-7.65942
 20
3.69451
 30
0.000000
  70
    32
  0
VERTEX
  8
0
  5
5B4
 10
-7.65626
 20
3.69346
 30
0.000000
  70
    32
  0
VERTEX
  8
0
  5
5B5
 10
-7.65311
 20
3.69241
 30
0.000000
  70
    32
  0
VERTEX
  8
0
  5
5B6
 10
-7.64996
 20
3.69136
 30
0.000000
  70
    32
  0
VERTEX
  8
0
  5
5B7
 10
-7.64681
 20
3.69031
 30
0.000000
  70
    32
  0
VERTEX
  8
0
  5
5B8
 10
-7.64366
 20
3.68926
 30
0.000000
  70
    32
  0
VERTEX
  8
0
  5
5B9
 10
-7.64051
 20
3.68821
 30
0.000000
  70
    32
  0
VERTEX
  8
0
  5
5BA
 10
-7.63736
 20
3.68716
 30
0.000000
  70
    32
  0
VERTEX
  8
0
  5
5BB
 10
-7.63421
 20
3.68611
 30
0.000000
  70
    32
  0
VERTEX
  8
0
  5
5BC
 10
-7.63105
 20
3.68506
 30
0.000000
  70
    32
  0
VERTEX
  8
0
  5
5BD
 10
-7.62790
 20
3.68401
 30
0.000000
  70
    32
  0
VERTEX
  8
0
  5
5BE
 10
-7.62475
 20
3.68296
 30
0.000000
  70
    32
  0
VERTEX
  8
0
  5
5BF
 10
-7.62160
 20
3.68191
 30
0.000000
  70
    32
  0
VERTEX
  8
0
  5
5C0
 10
-7.61845
 20
3.68086
 30
0.000000
  70
    32
  0
VERTEX
  8
0
  5
5C1
 10
-7.61530
 20
3.67981
 30
0.000000
  70
    32
  0
VERTEX
  8
0
  5
5C2
 10
-7.61215
 20
3.67875
 30
0.000000
  70
    32
  0
VERTEX
  8
0
  5
5C3
 10
-7.60900
 20
3.67770
 30
0.000000
  70
    32
  0
VERTEX
  8
0
  5
5C4
 10
-7.60584
 20
3.67665
 30
0.000000
  70
    32
  0
VERTEX
  8
0
  5
5C5
 10
-7.60269
 20
3.67560
 30
0.000000
  70
    32
  0
VERTEX
  8
0
  5
5C6
 10
-7.59954
 20
3.67455
 30
0.000000
  70
    32
  0
VERTEX
  8
0
  5
5C7
 10
-7.59639
 20
3.67350
 30
0.000000
  70
    32
  0
VERTEX
  8
0
  5
5C8
 10
-7.59324
 20
3.67245
 30
0.000000
  70
    32
  0
VERTEX
  8
0
  5
5C9
 10
-7.59009
 20
3.67139
 30
0.000000
  70
    32
  0
VERTEX
  8
0
  5
5CA
 10
-7.58694
 20
3.67034
 30
0.000000
  70
    32
  0
VERTEX
  8
0
  5
5CB
 10
-7.58379
 20
3.66929
 30
0.000000
  70
    32
  0
VERTEX
  8
0
  5
5CC
 10
-7.58064
 20
3.66824
 30
0.000000
  70
    32
  0
VERTEX
  8
0
  5
5CD
 10
-7.57749
 20
3.66719
 30
0.000000
  70
    32
  0
VERTEX
  8
0
  5
5CE
 10
-7.57433
 20
3.66613
 30
0.000000
  70
    32
  0
VERTEX
  8
0
  5
5CF
 10
-7.57118
 20
3.66508
 30
0.000000
  70
    32
  0
VERTEX
  8
0
  5
5D0
 10
-7.56803
 20
3.66403
 30
0.000000
  70
    32
  0
VERTEX
  8
0
  5
5D1
 10
-7.56488
 20
3.66298
 30
0.000000
  70
    32
  0
VERTEX
  8
0
  5
5D2
 10
-7.56173
 20
3.66193
 30
0.000000
  70
    32
  0
VERTEX
  8
0
  5
5D3
 10
-7.55858
 20
3.66087
 30
0.000000
  70
    32
  0
VERTEX
  8
0
  5
5D4
 10
-7.55543
 20
3.65982
 30
0.000000
  70
    32
  0
VERTEX
  8
0
  5
5D5
 10
-7.55228
 20
3.65877
 30
0.000000
  70
    32
  0
VERTEX
  8
0
  5
5D6
 10
-7.54913
 20
3.65772
 30
0.000000
  70
    32
  0
VERTEX
  8
0
  5
5D7
 10
-7.54598
 20
3.65666
 30
0.000000
  70
    32
  0
VERTEX
  8
0
  5
5D8
 10
-7.54283
 20
3.65561
 30
0.000000
  70
    32
  0
VERTEX
  8
0
  5
5D9
 10
-7.53968
 20
3.65456
 30
0.000000
  70
    32
  0
VERTEX
  8
0
  5
5DA
 10
-7.53653
 20
3.65351
 30
0.000000
  70
    32
  0
VERTEX
  8
0
  5
5DB
 10
-7.53338
 20
3.65245
 30
0.000000
  70
    32
  0
VERTEX
  8
0
  5
5DC
 10
-7.53023
 20
3.65140
 30
0.000000
  70
    32
  0
VERTEX
  8
0
  5
5DD
 10
-7.52708
 20
3.65035
 30
0.000000
  70
    32
  0
VERTEX
  8
0
  5
5DE
 10
-7.52393
 20
3.64929
 30
0.000000
  70
    32
  0
VERTEX
  8
0
  5
5DF
 10
-7.52078
 20
3.64824
 30
0.000000
  70
    32
  0
VERTEX
  8
0
  5
5E0
 10
-7.51763
 20
3.64719
 30
0.000000
  70
    32
  0
VERTEX
  8
0
  5
5E1
 10
-7.51448
 20
3.64614
 30
0.000000
  70
    32
  0
VERTEX
  8
0
  5
5E2
 10
-7.51133
 20
3.64508
 30
0.000000
  70
    32
  0
VERTEX
  8
0
  5
5E3
 10
-7.50818
 20
3.64403
 30
0.000000
  70
    32
  0
VERTEX
  8
0
  5
5E4
 10
-7.50503
 20
3.64298
 30
0.000000
  70
    32
  0
VERTEX
  8
0
  5
5E5
 10
-7.50188
 20
3.64192
 30
0.000000
  70
    32
  0
VERTEX
  8
0
  5
5E6
 10
-7.49873
 20
3.64087
 30
0.000000
  70
    32
  0
VERTEX
  8
0
  5
5E7
 10
-7.49558
 20
3.63982
 30
0.000000
  70
    32
  0
VERTEX
  8
0
  5
5E8
 10
-7.49244
 20
3.63876
 30
0.000000
  70
    32
  0
VERTEX
  8
0
  5
5E9
 10
-7.48929
 20
3.63771
 30
0.000000
  70
    32
  0
VERTEX
  8
0
  5
5EA
 10
-7.48614
 20
3.63666
 30
0.000000
  70
    32
  0
VERTEX
  8
0
  5
5EB
 10
-7.48299
 20
3.63560
 30
0.000000
  70
    32
  0
VERTEX
  8
0
  5
5EC
 10
-7.47984
 20
3.63455
 30
0.000000
  70
    32
  0
VERTEX
  8
0
  5
5ED
 10
-7.47669
 20
3.63350
 30
0.000000
  70
    32
  0
VERTEX
  8
0
  5
5EE
 10
-7.47354
 20
3.63244
 30
0.000000
  70
    32
  0
VERTEX
  8
0
  5
5EF
 10
-7.47040
 20
3.63139
 30
0.000000
  70
    32
  0
VERTEX
  8
0
  5
5F0
 10
-7.46725
 20
3.63034
 30
0.000000
  70
    32
  0
VERTEX
  8
0
  5
5F1
 10
-7.46410
 20
3.62928
 30
0.000000
  70
    32
  0
VERTEX
  8
0
  5
5F2
 10
-7.46095
 20
3.62823
 30
0.000000
  70
    32
  0
VERTEX
  8
0
  5
5F3
 10
-7.45780
 20
3.62718
 30
0.000000
  70
    32
  0
VERTEX
  8
0
  5
5F4
 10
-7.45466
 20
3.62612
 30
0.000000
  70
    32
  0
VERTEX
  8
0
  5
5F5
 10
-7.45151
 20
3.62507
 30
0.000000
  70
    32
  0
VERTEX
  8
0
  5
5F6
 10
-7.44836
 20
3.62402
 30
0.000000
  70
    32
  0
VERTEX
  8
0
  5
5F7
 10
-7.44521
 20
3.62296
 30
0.000000
  70
    32
  0
VERTEX
  8
0
  5
5F8
 10
-7.44207
 20
3.62191
 30
0.000000
  70
    32
  0
VERTEX
  8
0
  5
5F9
 10
-7.43892
 20
3.62086
 30
0.000000
  70
    32
  0
VERTEX
  8
0
  5
5FA
 10
-7.43670
 20
3.62014
 30
0.000000
  70
    32
  0
VERTEX
  8
0
  5
5FB
 10
-7.43456
 20
3.61948
 30
0.000000
  70
    32
  0
VERTEX
  8
0
  5
5FC
 10
-7.43242
 20
3.61887
 30
0.000000
  70
    32
  0
VERTEX
  8
0
  5
5FD
 10
-7.43027
 20
3.61828
 30
0.000000
  70
    32
  0
VERTEX
  8
0
  5
5FE
 10
-7.42810
 20
3.61773
 30
0.000000
  70
    32
  0
VERTEX
  8
0
  5
5FF
 10
-7.42593
 20
3.61722
 30
0.000000
  70
    32
  0
VERTEX
  8
0
  5
600
 10
-7.42375
 20
3.61673
 30
0.000000
  70
    32
  0
VERTEX
  8
0
  5
601
 10
-7.42155
 20
3.61627
 30
0.000000
  70
    32
  0
VERTEX
  8
0
  5
602
 10
-7.41935
 20
3.61585
 30
0.000000
  70
    32
  0
VERTEX
  8
0
  5
603
 10
-7.41714
 20
3.61545
 30
0.000000
  70
    32
  0
VERTEX
  8
0
  5
604
 10
-7.41492
 20
3.61509
 30
0.000000
  70
    32
  0
VERTEX
  8
0
  5
605
 10
-7.41269
 20
3.61475
 30
0.000000
  70
    32
  0
VERTEX
  8
0
  5
606
 10
-7.41045
 20
3.61444
 30
0.000000
  70
    32
  0
VERTEX
  8
0
  5
607
 10
-7.40820
 20
3.61415
 30
0.000000
  70
    32
  0
VERTEX
  8
0
  5
608
 10
-7.40594
 20
3.61389
 30
0.000000
  70
    32
  0
VERTEX
  8
0
  5
609
 10
-7.40368
 20
3.61366
 30
0.000000
  70
    32
  0
VERTEX
  8
0
  5
60A
 10
-7.40141
 20
3.61345
 30
0.000000
  70
    32
  0
VERTEX
  8
0
  5
60B
 10
-7.39913
 20
3.61327
 30
0.000000
  70
    32
  0
VERTEX
  8
0
  5
60C
 10
-7.39685
 20
3.61311
 30
0.000000
  70
    32
  0
VERTEX
  8
0
  5
60D
 10
-7.39455
 20
3.61297
 30
0.000000
  70
    32
  0
VERTEX
  8
0
  5
60E
 10
-7.39225
 20
3.61286
 30
0.000000
  70
    32
  0
VERTEX
  8
0
  5
60F
 10
-7.38995
 20
3.61276
 30
0.000000
  70
    32
  0
VERTEX
  8
0
  5
610
 10
-7.38763
 20
3.61269
 30
0.000000
  70
    32
  0
VERTEX
  8
0
  5
611
 10
-7.38531
 20
3.61264
 30
0.000000
  70
    32
  0
VERTEX
  8
0
  5
612
 10
-7.38299
 20
3.61260
 30
0.000000
  70
    32
  0
VERTEX
  8
0
  5
613
 10
-7.38065
 20
3.61259
 30
0.000000
  70
    32
  0
VERTEX
  8
0
  5
614
 10
-7.37832
 20
3.61259
 30
0.000000
  70
    32
  0
VERTEX
  8
0
  5
615
 10
-7.37597
 20
3.61261
 30
0.000000
  70
    32
  0
VERTEX
  8
0
  5
616
 10
-7.37363
 20
3.61265
 30
0.000000
  70
    32
  0
VERTEX
  8
0
  5
617
 10
-7.37127
 20
3.61270
 30
0.000000
  70
    32
  0
VERTEX
  8
0
  5
618
 10
-7.36891
 20
3.61277
 30
0.000000
  70
    32
  0
VERTEX
  8
0
  5
619
 10
-7.36655
 20
3.61286
 30
0.000000
  70
    32
  0
VERTEX
  8
0
  5
61A
 10
-7.36419
 20
3.61295
 30
0.000000
  70
    32
  0
VERTEX
  8
0
  5
61B
 10
-7.36181
 20
3.61306
 30
0.000000
  70
    32
  0
VERTEX
  8
0
  5
61C
 10
-7.35944
 20
3.61319
 30
0.000000
  70
    32
  0
VERTEX
  8
0
  5
61D
 10
-7.35706
 20
3.61332
 30
0.000000
  70
    32
  0
VERTEX
  8
0
  5
61E
 10
-7.35468
 20
3.61347
 30
0.000000
  70
    32
  0
VERTEX
  8
0
  5
61F
 10
-7.35229
 20
3.61363
 30
0.000000
  70
    32
  0
VERTEX
  8
0
  5
620
 10
-7.34990
 20
3.61380
 30
0.000000
  70
    32
  0
VERTEX
  8
0
  5
621
 10
-7.34751
 20
3.61397
 30
0.000000
  70
    32
  0
VERTEX
  8
0
  5
622
 10
-7.34512
 20
3.61416
 30
0.000000
  70
    32
  0
VERTEX
  8
0
  5
623
 10
-7.34272
 20
3.61435
 30
0.000000
  70
    32
  0
VERTEX
  8
0
  5
624
 10
-7.34032
 20
3.61455
 30
0.000000
  70
    32
  0
VERTEX
  8
0
  5
625
 10
-7.33792
 20
3.61476
 30
0.000000
  70
    32
  0
VERTEX
  8
0
  5
626
 10
-7.33551
 20
3.61498
 30
0.000000
  70
    32
  0
VERTEX
  8
0
  5
627
 10
-7.33311
 20
3.61519
 30
0.000000
  70
    32
  0
VERTEX
  8
0
  5
628
 10
-7.33070
 20
3.61542
 30
0.000000
  70
    32
  0
VERTEX
  8
0
  5
629
 10
-7.32829
 20
3.61565
 30
0.000000
  70
    32
  0
VERTEX
  8
0
  5
62A
 10
-7.32588
 20
3.61588
 30
0.000000
  70
    32
  0
VERTEX
  8
0
  5
62B
 10
-7.32347
 20
3.61611
 30
0.000000
  70
    32
  0
VERTEX
  8
0
  5
62C
 10
-7.32106
 20
3.61634
 30
0.000000
  70
    32
  0
VERTEX
  8
0
  5
62D
 10
-7.31865
 20
3.61658
 30
0.000000
  70
    32
  0
VERTEX
  8
0
  5
62E
 10
-7.31624
 20
3.61682
 30
0.000000
  70
    32
  0
VERTEX
  8
0
  5
62F
 10
-7.31383
 20
3.61705
 30
0.000000
  70
    32
  0
VERTEX
  8
0
  5
630
 10
-7.31142
 20
3.61729
 30
0.000000
  70
    32
  0
VERTEX
  8
0
  5
631
 10
-7.30901
 20
3.61752
 30
0.000000
  70
    32
  0
VERTEX
  8
0
  5
632
 10
-7.30660
 20
3.61776
 30
0.000000
  70
    32
  0
VERTEX
  8
0
  5
633
 10
-7.30419
 20
3.61799
 30
0.000000
  70
    32
  0
VERTEX
  8
0
  5
634
 10
-7.30178
 20
3.61821
 30
0.000000
  70
    32
  0
VERTEX
  8
0
  5
635
 10
-7.29938
 20
3.61843
 30
0.000000
  70
    32
  0
VERTEX
  8
0
  5
636
 10
-7.29697
 20
3.61865
 30
0.000000
  70
    32
  0
VERTEX
  8
0
  5
637
 10
-7.29457
 20
3.61886
 30
0.000000
  70
    32
  0
VERTEX
  8
0
  5
638
 10
-7.29217
 20
3.61907
 30
0.000000
  70
    32
  0
VERTEX
  8
0
  5
639
 10
-7.28977
 20
3.61927
 30
0.000000
  70
    32
  0
VERTEX
  8
0
  5
63A
 10
-7.28737
 20
3.61946
 30
0.000000
  70
    32
  0
VERTEX
  8
0
  5
63B
 10
-7.28498
 20
3.61964
 30
0.000000
  70
    32
  0
VERTEX
  8
0
  5
63C
 10
-7.28259
 20
3.61981
 30
0.000000
  70
    32
  0
VERTEX
  8
0
  5
63D
 10
-7.28020
 20
3.61998
 30
0.000000
  70
    32
  0
VERTEX
  8
0
  5
63E
 10
-7.27781
 20
3.62013
 30
0.000000
  70
    32
  0
VERTEX
  8
0
  5
63F
 10
-7.27543
 20
3.62028
 30
0.000000
  70
    32
  0
VERTEX
  8
0
  5
640
 10
-7.27305
 20
3.62041
 30
0.000000
  70
    32
  0
VERTEX
  8
0
  5
641
 10
-7.27068
 20
3.62053
 30
0.000000
  70
    32
  0
VERTEX
  8
0
  5
642
 10
-7.26831
 20
3.62063
 30
0.000000
  70
    32
  0
VERTEX
  8
0
  5
643
 10
-7.26594
 20
3.62073
 30
0.000000
  70
    32
  0
VERTEX
  8
0
  5
644
 10
-7.26358
 20
3.62081
 30
0.000000
  70
    32
  0
VERTEX
  8
0
  5
645
 10
-7.26122
 20
3.62087
 30
0.000000
  70
    32
  0
VERTEX
  8
0
  5
646
 10
-7.25887
 20
3.62092
 30
0.000000
  70
    32
  0
VERTEX
  8
0
  5
647
 10
-7.25652
 20
3.62095
 30
0.000000
  70
    32
  0
VERTEX
  8
0
  5
648
 10
-7.25418
 20
3.62096
 30
0.000000
  70
    32
  0
VERTEX
  8
0
  5
649
 10
-7.25184
 20
3.62096
 30
0.000000
  70
    32
  0
VERTEX
  8
0
  5
64A
 10
-7.24951
 20
3.62094
 30
0.000000
  70
    32
  0
VERTEX
  8
0
  5
64B
 10
-7.24719
 20
3.62090
 30
0.000000
  70
    32
  0
VERTEX
  8
0
  5
64C
 10
-7.24487
 20
3.62084
 30
0.000000
  70
    32
  0
VERTEX
  8
0
  5
64D
 10
-7.24255
 20
3.62076
 30
0.000000
  70
    32
  0
VERTEX
  8
0
  5
64E
 10
-7.24025
 20
3.62066
 30
0.000000
  70
    32
  0
VERTEX
  8
0
  5
64F
 10
-7.23795
 20
3.62054
 30
0.000000
  70
    32
  0
VERTEX
  8
0
  5
650
 10
-7.23566
 20
3.62039
 30
0.000000
  70
    32
  0
VERTEX
  8
0
  5
651
 10
-7.23337
 20
3.62022
 30
0.000000
  70
    32
  0
VERTEX
  8
0
  5
652
 10
-7.23109
 20
3.62003
 30
0.000000
  70
    32
  0
VERTEX
  8
0
  5
653
 10
-7.22882
 20
3.61982
 30
0.000000
  70
    32
  0
VERTEX
  8
0
  5
654
 10
-7.22656
 20
3.61957
 30
0.000000
  70
    32
  0
VERTEX
  8
0
  5
655
 10
-7.22431
 20
3.61931
 30
0.000000
  70
    32
  0
VERTEX
  8
0
  5
656
 10
-7.22206
 20
3.61901
 30
0.000000
  70
    32
  0
VERTEX
  8
0
  5
657
 10
-7.21982
 20
3.61869
 30
0.000000
  70
    32
  0
VERTEX
  8
0
  5
658
 10
-7.21760
 20
3.61834
 30
0.000000
  70
    32
  0
VERTEX
  8
0
  5
659
 10
-7.21538
 20
3.61797
 30
0.000000
  70
    32
  0
VERTEX
  8
0
  5
65A
 10
-7.21317
 20
3.61756
 30
0.000000
  70
    32
  0
VERTEX
  8
0
  5
65B
 10
-7.21079
 20
3.61709
 30
0.000000
  70
    32
  0
VERTEX
  8
0
  5
65C
 10
-7.20808
 20
3.61655
 30
0.000000
  70
    32
  0
VERTEX
  8
0
  5
65D
 10
-7.20538
 20
3.61601
 30
0.000000
  70
    32
  0
VERTEX
  8
0
  5
65E
 10
-7.20267
 20
3.61546
 30
0.000000
  70
    32
  0
VERTEX
  8
0
  5
65F
 10
-7.19997
 20
3.61491
 30
0.000000
  70
    32
  0
VERTEX
  8
0
  5
660
 10
-7.19727
 20
3.61435
 30
0.000000
  70
    32
  0
VERTEX
  8
0
  5
661
 10
-7.19456
 20
3.61379
 30
0.000000
  70
    32
  0
VERTEX
  8
0
  5
662
 10
-7.19185
 20
3.61324
 30
0.000000
  70
    32
  0
VERTEX
  8
0
  5
663
 10
-7.18915
 20
3.61267
 30
0.000000
  70
    32
  0
VERTEX
  8
0
  5
664
 10
-7.18644
 20
3.61211
 30
0.000000
  70
    32
  0
VERTEX
  8
0
  5
665
 10
-7.18374
 20
3.61154
 30
0.000000
  70
    32
  0
VERTEX
  8
0
  5
666
 10
-7.18103
 20
3.61097
 30
0.000000
  70
    32
  0
VERTEX
  8
0
  5
667
 10
-7.17832
 20
3.61040
 30
0.000000
  70
    32
  0
VERTEX
  8
0
  5
668
 10
-7.17562
 20
3.60983
 30
0.000000
  70
    32
  0
VERTEX
  8
0
  5
669
 10
-7.17291
 20
3.60926
 30
0.000000
  70
    32
  0
VERTEX
  8
0
  5
66A
 10
-7.17020
 20
3.60868
 30
0.000000
  70
    32
  0
VERTEX
  8
0
  5
66B
 10
-7.16749
 20
3.60810
 30
0.000000
  70
    32
  0
VERTEX
  8
0
  5
66C
 10
-7.16479
 20
3.60752
 30
0.000000
  70
    32
  0
VERTEX
  8
0
  5
66D
 10
-7.16208
 20
3.60694
 30
0.000000
  70
    32
  0
VERTEX
  8
0
  5
66E
 10
-7.15937
 20
3.60636
 30
0.000000
  70
    32
  0
VERTEX
  8
0
  5
66F
 10
-7.15666
 20
3.60578
 30
0.000000
  70
    32
  0
VERTEX
  8
0
  5
670
 10
-7.15395
 20
3.60519
 30
0.000000
  70
    32
  0
VERTEX
  8
0
  5
671
 10
-7.15124
 20
3.60461
 30
0.000000
  70
    32
  0
VERTEX
  8
0
  5
672
 10
-7.14853
 20
3.60402
 30
0.000000
  70
    32
  0
VERTEX
  8
0
  5
673
 10
-7.14582
 20
3.60343
 30
0.000000
  70
    32
  0
VERTEX
  8
0
  5
674
 10
-7.14311
 20
3.60285
 30
0.000000
  70
    32
  0
VERTEX
  8
0
  5
675
 10
-7.14040
 20
3.60226
 30
0.000000
  70
    32
  0
VERTEX
  8
0
  5
676
 10
-7.13769
 20
3.60167
 30
0.000000
  70
    32
  0
VERTEX
  8
0
  5
677
 10
-7.13498
 20
3.60108
 30
0.000000
  70
    32
  0
VERTEX
  8
0
  5
678
 10
-7.13227
 20
3.60049
 30
0.000000
  70
    32
  0
VERTEX
  8
0
  5
679
 10
-7.12956
 20
3.59990
 30
0.000000
  70
    32
  0
VERTEX
  8
0
  5
67A
 10
-7.12684
 20
3.59930
 30
0.000000
  70
    32
  0
VERTEX
  8
0
  5
67B
 10
-7.12413
 20
3.59871
 30
0.000000
  70
    32
  0
VERTEX
  8
0
  5
67C
 10
-7.12142
 20
3.59812
 30
0.000000
  70
    32
  0
VERTEX
  8
0
  5
67D
 10
-7.11871
 20
3.59753
 30
0.000000
  70
    32
  0
VERTEX
  8
0
  5
67E
 10
-7.11599
 20
3.59694
 30
0.000000
  70
    32
  0
VERTEX
  8
0
  5
67F
 10
-7.11328
 20
3.59635
 30
0.000000
  70
    32
  0
VERTEX
  8
0
  5
680
 10
-7.11057
 20
3.59576
 30
0.000000
  70
    32
  0
VERTEX
  8
0
  5
681
 10
-7.10785
 20
3.59517
 30
0.000000
  70
    32
  0
VERTEX
  8
0
  5
682
 10
-7.10514
 20
3.59458
 30
0.000000
  70
    32
  0
VERTEX
  8
0
  5
683
 10
-7.10242
 20
3.59399
 30
0.000000
  70
    32
  0
VERTEX
  8
0
  5
684
 10
-7.09971
 20
3.59340
 30
0.000000
  70
    32
  0
VERTEX
  8
0
  5
685
 10
-7.09699
 20
3.59282
 30
0.000000
  70
    32
  0
VERTEX
  8
0
  5
686
 10
-7.09428
 20
3.59223
 30
0.000000
  70
    32
  0
VERTEX
  8
0
  5
687
 10
-7.09156
 20
3.59165
 30
0.000000
  70
    32
  0
VERTEX
  8
0
  5
688
 10
-7.08885
 20
3.59106
 30
0.000000
  70
    32
  0
VERTEX
  8
0
  5
689
 10
-7.08613
 20
3.59048
 30
0.000000
  70
    32
  0
VERTEX
  8
0
  5
68A
 10
-7.08342
 20
3.58990
 30
0.000000
  70
    32
  0
VERTEX
  8
0
  5
68B
 10
-7.08070
 20
3.58932
 30
0.000000
  70
    32
  0
VERTEX
  8
0
  5
68C
 10
-7.07798
 20
3.58874
 30
0.000000
  70
    32
  0
VERTEX
  8
0
  5
68D
 10
-7.07527
 20
3.58816
 30
0.000000
  70
    32
  0
VERTEX
  8
0
  5
68E
 10
-7.07255
 20
3.58759
 30
0.000000
  70
    32
  0
VERTEX
  8
0
  5
68F
 10
-7.06983
 20
3.58702
 30
0.000000
  70
    32
  0
VERTEX
  8
0
  5
690
 10
-7.06711
 20
3.58644
 30
0.000000
  70
    32
  0
VERTEX
  8
0
  5
691
 10
-7.06439
 20
3.58588
 30
0.000000
  70
    32
  0
VERTEX
  8
0
  5
692
 10
-7.06168
 20
3.58531
 30
0.000000
  70
    32
  0
VERTEX
  8
0
  5
693
 10
-7.05896
 20
3.58474
 30
0.000000
  70
    32
  0
VERTEX
  8
0
  5
694
 10
-7.05624
 20
3.58418
 30
0.000000
  70
    32
  0
VERTEX
  8
0
  5
695
 10
-7.05352
 20
3.58362
 30
0.000000
  70
    32
  0
VERTEX
  8
0
  5
696
 10
-7.05080
 20
3.58306
 30
0.000000
  70
    32
  0
VERTEX
  8
0
  5
697
 10
-7.04808
 20
3.58251
 30
0.000000
  70
    32
  0
VERTEX
  8
0
  5
698
 10
-7.04536
 20
3.58196
 30
0.000000
  70
    32
  0
VERTEX
  8
0
  5
699
 10
-7.04264
 20
3.58141
 30
0.000000
  70
    32
  0
VERTEX
  8
0
  5
69A
 10
-7.03992
 20
3.58086
 30
0.000000
  70
    32
  0
VERTEX
  8
0
  5
69B
 10
-7.03720
 20
3.58032
 30
0.000000
  70
    32
  0
VERTEX
  8
0
  5
69C
 10
-7.03448
 20
3.57978
 30
0.000000
  70
    32
  0
VERTEX
  8
0
  5
69D
 10
-7.03175
 20
3.57924
 30
0.000000
  70
    32
  0
VERTEX
  8
0
  5
69E
 10
-7.02903
 20
3.57870
 30
0.000000
  70
    32
  0
VERTEX
  8
0
  5
69F
 10
-7.02631
 20
3.57817
 30
0.000000
  70
    32
  0
VERTEX
  8
0
  5
6A0
 10
-7.02359
 20
3.57765
 30
0.000000
  70
    32
  0
VERTEX
  8
0
  5
6A1
 10
-7.02087
 20
3.57712
 30
0.000000
  70
    32
  0
VERTEX
  8
0
  5
6A2
 10
-7.01814
 20
3.57660
 30
0.000000
  70
    32
  0
VERTEX
  8
0
  5
6A3
 10
-7.01542
 20
3.57609
 30
0.000000
  70
    32
  0
VERTEX
  8
0
  5
6A4
 10
-7.01270
 20
3.57557
 30
0.000000
  70
    32
  0
VERTEX
  8
0
  5
6A5
 10
-7.00997
 20
3.57506
 30
0.000000
  70
    32
  0
VERTEX
  8
0
  5
6A6
 10
-7.00725
 20
3.57456
 30
0.000000
  70
    32
  0
VERTEX
  8
0
  5
6A7
 10
-7.00452
 20
3.57406
 30
0.000000
  70
    32
  0
VERTEX
  8
0
  5
6A8
 10
-7.00180
 20
3.57356
 30
0.000000
  70
    32
  0
VERTEX
  8
0
  5
6A9
 10
-6.99907
 20
3.57307
 30
0.000000
  70
    32
  0
VERTEX
  8
0
  5
6AA
 10
-6.99635
 20
3.57258
 30
0.000000
  70
    32
  0
VERTEX
  8
0
  5
6AB
 10
-6.99362
 20
3.57210
 30
0.000000
  70
    32
  0
VERTEX
  8
0
  5
6AC
 10
-6.99090
 20
3.57162
 30
0.000000
  70
    32
  0
VERTEX
  8
0
  5
6AD
 10
-6.98817
 20
3.57115
 30
0.000000
  70
    32
  0
VERTEX
  8
0
  5
6AE
 10
-6.98545
 20
3.57068
 30
0.000000
  70
    32
  0
VERTEX
  8
0
  5
6AF
 10
-6.98272
 20
3.57022
 30
0.000000
  70
    32
  0
VERTEX
  8
0
  5
6B0
 10
-6.97999
 20
3.56976
 30
0.000000
  70
    32
  0
VERTEX
  8
0
  5
6B1
 10
-6.97727
 20
3.56931
 30
0.000000
  70
    32
  0
VERTEX
  8
0
  5
6B2
 10
-6.97454
 20
3.56886
 30
0.000000
  70
    32
  0
VERTEX
  8
0
  5
6B3
 10
-6.97181
 20
3.56841
 30
0.000000
  70
    32
  0
VERTEX
  8
0
  5
6B4
 10
-6.96908
 20
3.56798
 30
0.000000
  70
    32
  0
VERTEX
  8
0
  5
6B5
 10
-6.96636
 20
3.56754
 30
0.000000
  70
    32
  0
VERTEX
  8
0
  5
6B6
 10
-6.96363
 20
3.56712
 30
0.000000
  70
    32
  0
VERTEX
  8
0
  5
6B7
 10
-6.96090
 20
3.56670
 30
0.000000
  70
    32
  0
VERTEX
  8
0
  5
6B8
 10
-6.95817
 20
3.56628
 30
0.000000
  70
    32
  0
VERTEX
  8
0
  5
6B9
 10
-6.95544
 20
3.56587
 30
0.000000
  70
    32
  0
VERTEX
  8
0
  5
6BA
 10
-6.95271
 20
3.56547
 30
0.000000
  70
    32
  0
VERTEX
  8
0
  5
6BB
 10
-6.94998
 20
3.56507
 30
0.000000
  70
    32
  0
VERTEX
  8
0
  5
6BC
 10
-6.94725
 20
3.56468
 30
0.000000
  70
    32
  0
VERTEX
  8
0
  5
6BD
 10
-6.93702
 20
3.56322
 30
0.000000
  70
    32
  0
VERTEX
  8
0
  5
6BE
 10
-6.92492
 20
3.56150
 30
0.000000
  70
    32
  0
VERTEX
  8
0
  5
6BF
 10
-6.91283
 20
3.55979
 30
0.000000
  70
    32
  0
VERTEX
  8
0
  5
6C0
 10
-6.90074
 20
3.55807
 30
0.000000
  70
    32
  0
VERTEX
  8
0
  5
6C1
 10
-6.88866
 20
3.55637
 30
0.000000
  70
    32
  0
VERTEX
  8
0
  5
6C2
 10
-6.87659
 20
3.55467
 30
0.000000
  70
    32
  0
VERTEX
  8
0
  5
6C3
 10
-6.86453
 20
3.55297
 30
0.000000
  70
    32
  0
VERTEX
  8
0
  5
6C4
 10
-6.85248
 20
3.55128
 30
0.000000
  70
    32
  0
VERTEX
  8
0
  5
6C5
 10
-6.84043
 20
3.54960
 30
0.000000
  70
    32
  0
VERTEX
  8
0
  5
6C6
 10
-6.82838
 20
3.54793
 30
0.000000
  70
    32
  0
VERTEX
  8
0
  5
6C7
 10
-6.81635
 20
3.54626
 30
0.000000
  70
    32
  0
VERTEX
  8
0
  5
6C8
 10
-6.80432
 20
3.54460
 30
0.000000
  70
    32
  0
VERTEX
  8
0
  5
6C9
 10
-6.79229
 20
3.54294
 30
0.000000
  70
    32
  0
VERTEX
  8
0
  5
6CA
 10
-6.78027
 20
3.54130
 30
0.000000
  70
    32
  0
VERTEX
  8
0
  5
6CB
 10
-6.76826
 20
3.53966
 30
0.000000
  70
    32
  0
VERTEX
  8
0
  5
6CC
 10
-6.75625
 20
3.53803
 30
0.000000
  70
    32
  0
VERTEX
  8
0
  5
6CD
 10
-6.74425
 20
3.53641
 30
0.000000
  70
    32
  0
VERTEX
  8
0
  5
6CE
 10
-6.73225
 20
3.53480
 30
0.000000
  70
    32
  0
VERTEX
  8
0
  5
6CF
 10
-6.72026
 20
3.53319
 30
0.000000
  70
    32
  0
VERTEX
  8
0
  5
6D0
 10
-6.70827
 20
3.53160
 30
0.000000
  70
    32
  0
VERTEX
  8
0
  5
6D1
 10
-6.69628
 20
3.53002
 30
0.000000
  70
    32
  0
VERTEX
  8
0
  5
6D2
 10
-6.68430
 20
3.52844
 30
0.000000
  70
    32
  0
VERTEX
  8
0
  5
6D3
 10
-6.67233
 20
3.52688
 30
0.000000
  70
    32
  0
VERTEX
  8
0
  5
6D4
 10
-6.66036
 20
3.52533
 30
0.000000
  70
    32
  0
VERTEX
  8
0
  5
6D5
 10
-6.64839
 20
3.52378
 30
0.000000
  70
    32
  0
VERTEX
  8
0
  5
6D6
 10
-6.63642
 20
3.52225
 30
0.000000
  70
    32
  0
VERTEX
  8
0
  5
6D7
 10
-6.62446
 20
3.52073
 30
0.000000
  70
    32
  0
VERTEX
  8
0
  5
6D8
 10
-6.61250
 20
3.51922
 30
0.000000
  70
    32
  0
VERTEX
  8
0
  5
6D9
 10
-6.60054
 20
3.51773
 30
0.000000
  70
    32
  0
VERTEX
  8
0
  5
6DA
 10
-6.58859
 20
3.51624
 30
0.000000
  70
    32
  0
VERTEX
  8
0
  5
6DB
 10
-6.57664
 20
3.51477
 30
0.000000
  70
    32
  0
VERTEX
  8
0
  5
6DC
 10
-6.56469
 20
3.51331
 30
0.000000
  70
    32
  0
VERTEX
  8
0
  5
6DD
 10
-6.55274
 20
3.51187
 30
0.000000
  70
    32
  0
VERTEX
  8
0
  5
6DE
 10
-6.54080
 20
3.51043
 30
0.000000
  70
    32
  0
VERTEX
  8
0
  5
6DF
 10
-6.52885
 20
3.50902
 30
0.000000
  70
    32
  0
VERTEX
  8
0
  5
6E0
 10
-6.51691
 20
3.50761
 30
0.000000
  70
    32
  0
VERTEX
  8
0
  5
6E1
 10
-6.50497
 20
3.50622
 30
0.000000
  70
    32
  0
VERTEX
  8
0
  5
6E2
 10
-6.49303
 20
3.50484
 30
0.000000
  70
    32
  0
VERTEX
  8
0
  5
6E3
 10
-6.48109
 20
3.50348
 30
0.000000
  70
    32
  0
VERTEX
  8
0
  5
6E4
 10
-6.46915
 20
3.50213
 30
0.000000
  70
    32
  0
VERTEX
  8
0
  5
6E5
 10
-6.45722
 20
3.50080
 30
0.000000
  70
    32
  0
VERTEX
  8
0
  5
6E6
 10
-6.44528
 20
3.49949
 30
0.000000
  70
    32
  0
VERTEX
  8
0
  5
6E7
 10
-6.43334
 20
3.49818
 30
0.000000
  70
    32
  0
VERTEX
  8
0
  5
6E8
 10
-6.42140
 20
3.49690
 30
0.000000
  70
    32
  0
VERTEX
  8
0
  5
6E9
 10
-6.40947
 20
3.49563
 30
0.000000
  70
    32
  0
VERTEX
  8
0
  5
6EA
 10
-6.39753
 20
3.49438
 30
0.000000
  70
    32
  0
VERTEX
  8
0
  5
6EB
 10
-6.38559
 20
3.49315
 30
0.000000
  70
    32
  0
VERTEX
  8
0
  5
6EC
 10
-6.37365
 20
3.49193
 30
0.000000
  70
    32
  0
VERTEX
  8
0
  5
6ED
 10
-6.36171
 20
3.49073
 30
0.000000
  70
    32
  0
VERTEX
  8
0
  5
6EE
 10
-6.34976
 20
3.48955
 30
0.000000
  70
    32
  0
VERTEX
  8
0
  5
6EF
 10
-6.33782
 20
3.48838
 30
0.000000
  70
    32
  0
VERTEX
  8
0
  5
6F0
 10
-6.32588
 20
3.48724
 30
0.000000
  70
    32
  0
VERTEX
  8
0
  5
6F1
 10
-6.31393
 20
3.48611
 30
0.000000
  70
    32
  0
VERTEX
  8
0
  5
6F2
 10
-6.30198
 20
3.48500
 30
0.000000
  70
    32
  0
VERTEX
  8
0
  5
6F3
 10
-6.29003
 20
3.48391
 30
0.000000
  70
    32
  0
VERTEX
  8
0
  5
6F4
 10
-6.27807
 20
3.48284
 30
0.000000
  70
    32
  0
VERTEX
  8
0
  5
6F5
 10
-6.26612
 20
3.48179
 30
0.000000
  70
    32
  0
VERTEX
  8
0
  5
6F6
 10
-6.25416
 20
3.48076
 30
0.000000
  70
    32
  0
VERTEX
  8
0
  5
6F7
 10
-6.24219
 20
3.47975
 30
0.000000
  70
    32
  0
VERTEX
  8
0
  5
6F8
 10
-6.23023
 20
3.47876
 30
0.000000
  70
    32
  0
VERTEX
  8
0
  5
6F9
 10
-6.21826
 20
3.47779
 30
0.000000
  70
    32
  0
VERTEX
  8
0
  5
6FA
 10
-6.20629
 20
3.47684
 30
0.000000
  70
    32
  0
VERTEX
  8
0
  5
6FB
 10
-6.19431
 20
3.47591
 30
0.000000
  70
    32
  0
VERTEX
  8
0
  5
6FC
 10
-6.18233
 20
3.47501
 30
0.000000
  70
    32
  0
VERTEX
  8
0
  5
6FD
 10
-6.17035
 20
3.47412
 30
0.000000
  70
    32
  0
VERTEX
  8
0
  5
6FE
 10
-6.15836
 20
3.47326
 30
0.000000
  70
    32
  0
VERTEX
  8
0
  5
6FF
 10
-6.14636
 20
3.47242
 30
0.000000
  70
    32
  0
VERTEX
  8
0
  5
700
 10
-6.13436
 20
3.47161
 30
0.000000
  70
    32
  0
VERTEX
  8
0
  5
701
 10
-6.12236
 20
3.47081
 30
0.000000
  70
    32
  0
VERTEX
  8
0
  5
702
 10
-6.11035
 20
3.47004
 30
0.000000
  70
    32
  0
VERTEX
  8
0
  5
703
 10
-6.09834
 20
3.46929
 30
0.000000
  70
    32
  0
VERTEX
  8
0
  5
704
 10
-6.08632
 20
3.46857
 30
0.000000
  70
    32
  0
VERTEX
  8
0
  5
705
 10
-6.07429
 20
3.46787
 30
0.000000
  70
    32
  0
VERTEX
  8
0
  5
706
 10
-6.06226
 20
3.46720
 30
0.000000
  70
    32
  0
VERTEX
  8
0
  5
707
 10
-6.05023
 20
3.46655
 30
0.000000
  70
    32
  0
VERTEX
  8
0
  5
708
 10
-6.03818
 20
3.46592
 30
0.000000
  70
    32
  0
VERTEX
  8
0
  5
709
 10
-6.02613
 20
3.46532
 30
0.000000
  70
    32
  0
VERTEX
  8
0
  5
70A
 10
-6.01408
 20
3.46475
 30
0.000000
  70
    32
  0
VERTEX
  8
0
  5
70B
 10
-6.00201
 20
3.46420
 30
0.000000
  70
    32
  0
VERTEX
  8
0
  5
70C
 10
-5.98994
 20
3.46368
 30
0.000000
  70
    32
  0
VERTEX
  8
0
  5
70D
 10
-5.97786
 20
3.46318
 30
0.000000
  70
    32
  0
VERTEX
  8
0
  5
70E
 10
-5.96578
 20
3.46271
 30
0.000000
  70
    32
  0
VERTEX
  8
0
  5
70F
 10
-5.95369
 20
3.46227
 30
0.000000
  70
    32
  0
VERTEX
  8
0
  5
710
 10
-5.94159
 20
3.46185
 30
0.000000
  70
    32
  0
VERTEX
  8
0
  5
711
 10
-5.92948
 20
3.46146
 30
0.000000
  70
    32
  0
VERTEX
  8
0
  5
712
 10
-5.91736
 20
3.46110
 30
0.000000
  70
    32
  0
VERTEX
  8
0
  5
713
 10
-5.90523
 20
3.46077
 30
0.000000
  70
    32
  0
VERTEX
  8
0
  5
714
 10
-5.89310
 20
3.46046
 30
0.000000
  70
    32
  0
VERTEX
  8
0
  5
715
 10
-5.88096
 20
3.46019
 30
0.000000
  70
    32
  0
VERTEX
  8
0
  5
716
 10
-5.86880
 20
3.45994
 30
0.000000
  70
    32
  0
VERTEX
  8
0
  5
717
 10
-5.85664
 20
3.45972
 30
0.000000
  70
    32
  0
VERTEX
  8
0
  5
718
 10
-5.84447
 20
3.45953
 30
0.000000
  70
    32
  0
VERTEX
  8
0
  5
719
 10
-5.83229
 20
3.45937
 30
0.000000
  70
    32
  0
VERTEX
  8
0
  5
71A
 10
-5.82010
 20
3.45924
 30
0.000000
  70
    32
  0
VERTEX
  8
0
  5
71B
 10
-5.80790
 20
3.45914
 30
0.000000
  70
    32
  0
VERTEX
  8
0
  5
71C
 10
-5.79569
 20
3.45907
 30
0.000000
  70
    32
  0
VERTEX
  8
0
  5
71D
 10
-5.78347
 20
3.45903
 30
0.000000
  70
    32
  0
VERTEX
  8
0
  5
71E
 10
-5.77270
 20
3.45902
 30
0.000000
  70
    32
  0
VERTEX
  8
0
  5
71F
 10
-5.76632
 20
3.45900
 30
0.000000
  70
    32
  0
VERTEX
  8
0
  5
720
 10
-5.75994
 20
3.45894
 30
0.000000
  70
    32
  0
VERTEX
  8
0
  5
721
 10
-5.75356
 20
3.45885
 30
0.000000
  70
    32
  0
VERTEX
  8
0
  5
722
 10
-5.74718
 20
3.45873
 30
0.000000
  70
    32
  0
VERTEX
  8
0
  5
723
 10
-5.74081
 20
3.45858
 30
0.000000
  70
    32
  0
VERTEX
  8
0
  5
724
 10
-5.73444
 20
3.45840
 30
0.000000
  70
    32
  0
VERTEX
  8
0
  5
725
 10
-5.72806
 20
3.45819
 30
0.000000
  70
    32
  0
VERTEX
  8
0
  5
726
 10
-5.72169
 20
3.45795
 30
0.000000
  70
    32
  0
VERTEX
  8
0
  5
727
 10
-5.71533
 20
3.45768
 30
0.000000
  70
    32
  0
VERTEX
  8
0
  5
728
 10
-5.70896
 20
3.45738
 30
0.000000
  70
    32
  0
VERTEX
  8
0
  5
729
 10
-5.70260
 20
3.45706
 30
0.000000
  70
    32
  0
VERTEX
  8
0
  5
72A
 10
-5.69623
 20
3.45671
 30
0.000000
  70
    32
  0
VERTEX
  8
0
  5
72B
 10
-5.68987
 20
3.45634
 30
0.000000
  70
    32
  0
VERTEX
  8
0
  5
72C
 10
-5.68351
 20
3.45594
 30
0.000000
  70
    32
  0
VERTEX
  8
0
  5
72D
 10
-5.67715
 20
3.45552
 30
0.000000
  70
    32
  0
VERTEX
  8
0
  5
72E
 10
-5.67080
 20
3.45508
 30
0.000000
  70
    32
  0
VERTEX
  8
0
  5
72F
 10
-5.66444
 20
3.45461
 30
0.000000
  70
    32
  0
VERTEX
  8
0
  5
730
 10
-5.65809
 20
3.45412
 30
0.000000
  70
    32
  0
VERTEX
  8
0
  5
731
 10
-5.65173
 20
3.45361
 30
0.000000
  70
    32
  0
VERTEX
  8
0
  5
732
 10
-5.64538
 20
3.45308
 30
0.000000
  70
    32
  0
VERTEX
  8
0
  5
733
 10
-5.63903
 20
3.45254
 30
0.000000
  70
    32
  0
VERTEX
  8
0
  5
734
 10
-5.63268
 20
3.45197
 30
0.000000
  70
    32
  0
VERTEX
  8
0
  5
735
 10
-5.62633
 20
3.45138
 30
0.000000
  70
    32
  0
VERTEX
  8
0
  5
736
 10
-5.61998
 20
3.45078
 30
0.000000
  70
    32
  0
VERTEX
  8
0
  5
737
 10
-5.61364
 20
3.45016
 30
0.000000
  70
    32
  0
VERTEX
  8
0
  5
738
 10
-5.60729
 20
3.44952
 30
0.000000
  70
    32
  0
VERTEX
  8
0
  5
739
 10
-5.60095
 20
3.44887
 30
0.000000
  70
    32
  0
VERTEX
  8
0
  5
73A
 10
-5.59460
 20
3.44820
 30
0.000000
  70
    32
  0
VERTEX
  8
0
  5
73B
 10
-5.58826
 20
3.44752
 30
0.000000
  70
    32
  0
VERTEX
  8
0
  5
73C
 10
-5.58192
 20
3.44682
 30
0.000000
  70
    32
  0
VERTEX
  8
0
  5
73D
 10
-5.57558
 20
3.44611
 30
0.000000
  70
    32
  0
VERTEX
  8
0
  5
73E
 10
-5.56924
 20
3.44539
 30
0.000000
  70
    32
  0
VERTEX
  8
0
  5
73F
 10
-5.56290
 20
3.44466
 30
0.000000
  70
    32
  0
VERTEX
  8
0
  5
740
 10
-5.55656
 20
3.44392
 30
0.000000
  70
    32
  0
VERTEX
  8
0
  5
741
 10
-5.55023
 20
3.44317
 30
0.000000
  70
    32
  0
VERTEX
  8
0
  5
742
 10
-5.54389
 20
3.44241
 30
0.000000
  70
    32
  0
VERTEX
  8
0
  5
743
 10
-5.53755
 20
3.44163
 30
0.000000
  70
    32
  0
VERTEX
  8
0
  5
744
 10
-5.53122
 20
3.44086
 30
0.000000
  70
    32
  0
VERTEX
  8
0
  5
745
 10
-5.52488
 20
3.44007
 30
0.000000
  70
    32
  0
VERTEX
  8
0
  5
746
 10
-5.51855
 20
3.43928
 30
0.000000
  70
    32
  0
VERTEX
  8
0
  5
747
 10
-5.51221
 20
3.43848
 30
0.000000
  70
    32
  0
VERTEX
  8
0
  5
748
 10
-5.50588
 20
3.43768
 30
0.000000
  70
    32
  0
VERTEX
  8
0
  5
749
 10
-5.49954
 20
3.43687
 30
0.000000
  70
    32
  0
VERTEX
  8
0
  5
74A
 10
-5.49321
 20
3.43606
 30
0.000000
  70
    32
  0
VERTEX
  8
0
  5
74B
 10
-5.48688
 20
3.43525
 30
0.000000
  70
    32
  0
VERTEX
  8
0
  5
74C
 10
-5.48054
 20
3.43443
 30
0.000000
  70
    32
  0
VERTEX
  8
0
  5
74D
 10
-5.47421
 20
3.43361
 30
0.000000
  70
    32
  0
VERTEX
  8
0
  5
74E
 10
-5.46788
 20
3.43279
 30
0.000000
  70
    32
  0
VERTEX
  8
0
  5
74F
 10
-5.46155
 20
3.43197
 30
0.000000
  70
    32
  0
VERTEX
  8
0
  5
750
 10
-5.45522
 20
3.43115
 30
0.000000
  70
    32
  0
VERTEX
  8
0
  5
751
 10
-5.44888
 20
3.43033
 30
0.000000
  70
    32
  0
VERTEX
  8
0
  5
752
 10
-5.44255
 20
3.42951
 30
0.000000
  70
    32
  0
VERTEX
  8
0
  5
753
 10
-5.43622
 20
3.42870
 30
0.000000
  70
    32
  0
VERTEX
  8
0
  5
754
 10
-5.42989
 20
3.42789
 30
0.000000
  70
    32
  0
VERTEX
  8
0
  5
755
 10
-5.42356
 20
3.42708
 30
0.000000
  70
    32
  0
VERTEX
  8
0
  5
756
 10
-5.41722
 20
3.42628
 30
0.000000
  70
    32
  0
VERTEX
  8
0
  5
757
 10
-5.41089
 20
3.42548
 30
0.000000
  70
    32
  0
VERTEX
  8
0
  5
758
 10
-5.40456
 20
3.42469
 30
0.000000
  70
    32
  0
VERTEX
  8
0
  5
759
 10
-5.39823
 20
3.42390
 30
0.000000
  70
    32
  0
VERTEX
  8
0
  5
75A
 10
-5.39189
 20
3.42312
 30
0.000000
  70
    32
  0
VERTEX
  8
0
  5
75B
 10
-5.38556
 20
3.42235
 30
0.000000
  70
    32
  0
VERTEX
  8
0
  5
75C
 10
-5.37923
 20
3.42159
 30
0.000000
  70
    32
  0
VERTEX
  8
0
  5
75D
 10
-5.37289
 20
3.42084
 30
0.000000
  70
    32
  0
VERTEX
  8
0
  5
75E
 10
-5.36656
 20
3.42010
 30
0.000000
  70
    32
  0
VERTEX
  8
0
  5
75F
 10
-5.36023
 20
3.41936
 30
0.000000
  70
    32
  0
VERTEX
  8
0
  5
760
 10
-5.35389
 20
3.41864
 30
0.000000
  70
    32
  0
VERTEX
  8
0
  5
761
 10
-5.34755
 20
3.41793
 30
0.000000
  70
    32
  0
VERTEX
  8
0
  5
762
 10
-5.34122
 20
3.41724
 30
0.000000
  70
    32
  0
VERTEX
  8
0
  5
763
 10
-5.33488
 20
3.41656
 30
0.000000
  70
    32
  0
VERTEX
  8
0
  5
764
 10
-5.32854
 20
3.41589
 30
0.000000
  70
    32
  0
VERTEX
  8
0
  5
765
 10
-5.32221
 20
3.41523
 30
0.000000
  70
    32
  0
VERTEX
  8
0
  5
766
 10
-5.31587
 20
3.41460
 30
0.000000
  70
    32
  0
VERTEX
  8
0
  5
767
 10
-5.30953
 20
3.41397
 30
0.000000
  70
    32
  0
VERTEX
  8
0
  5
768
 10
-5.30319
 20
3.41337
 30
0.000000
  70
    32
  0
VERTEX
  8
0
  5
769
 10
-5.29685
 20
3.41278
 30
0.000000
  70
    32
  0
VERTEX
  8
0
  5
76A
 10
-5.29050
 20
3.41221
 30
0.000000
  70
    32
  0
VERTEX
  8
0
  5
76B
 10
-5.28416
 20
3.41166
 30
0.000000
  70
    32
  0
VERTEX
  8
0
  5
76C
 10
-5.27782
 20
3.41113
 30
0.000000
  70
    32
  0
VERTEX
  8
0
  5
76D
 10
-5.27147
 20
3.41062
 30
0.000000
  70
    32
  0
VERTEX
  8
0
  5
76E
 10
-5.26513
 20
3.41013
 30
0.000000
  70
    32
  0
VERTEX
  8
0
  5
76F
 10
-5.25878
 20
3.40966
 30
0.000000
  70
    32
  0
VERTEX
  8
0
  5
770
 10
-5.25243
 20
3.40922
 30
0.000000
  70
    32
  0
VERTEX
  8
0
  5
771
 10
-5.24608
 20
3.40880
 30
0.000000
  70
    32
  0
VERTEX
  8
0
  5
772
 10
-5.23973
 20
3.40840
 30
0.000000
  70
    32
  0
VERTEX
  8
0
  5
773
 10
-5.23338
 20
3.40802
 30
0.000000
  70
    32
  0
VERTEX
  8
0
  5
774
 10
-5.22703
 20
3.40768
 30
0.000000
  70
    32
  0
VERTEX
  8
0
  5
775
 10
-5.22067
 20
3.40735
 30
0.000000
  70
    32
  0
VERTEX
  8
0
  5
776
 10
-5.21432
 20
3.40706
 30
0.000000
  70
    32
  0
VERTEX
  8
0
  5
777
 10
-5.20796
 20
3.40679
 30
0.000000
  70
    32
  0
VERTEX
  8
0
  5
778
 10
-5.20160
 20
3.40655
 30
0.000000
  70
    32
  0
VERTEX
  8
0
  5
779
 10
-5.19524
 20
3.40633
 30
0.000000
  70
    32
  0
VERTEX
  8
0
  5
77A
 10
-5.18888
 20
3.40615
 30
0.000000
  70
    32
  0
VERTEX
  8
0
  5
77B
 10
-5.18252
 20
3.40600
 30
0.000000
  70
    32
  0
VERTEX
  8
0
  5
77C
 10
-5.17615
 20
3.40587
 30
0.000000
  70
    32
  0
VERTEX
  8
0
  5
77D
 10
-5.16979
 20
3.40578
 30
0.000000
  70
    32
  0
VERTEX
  8
0
  5
77E
 10
-5.16342
 20
3.40572
 30
0.000000
  70
    32
  0
VERTEX
  8
0
  5
77F
 10
-5.15705
 20
3.40570
 30
0.000000
  70
    32
  0
VERTEX
  8
0
  5
780
 10
-5.14946
 20
3.40569
 30
0.000000
  70
    32
  0
VERTEX
  8
0
  5
781
 10
-5.14135
 20
3.40569
 30
0.000000
  70
    32
  0
VERTEX
  8
0
  5
782
 10
-5.13325
 20
3.40569
 30
0.000000
  70
    32
  0
VERTEX
  8
0
  5
783
 10
-5.12515
 20
3.40568
 30
0.000000
  70
    32
  0
VERTEX
  8
0
  5
784
 10
-5.11705
 20
3.40568
 30
0.000000
  70
    32
  0
VERTEX
  8
0
  5
785
 10
-5.10897
 20
3.40567
 30
0.000000
  70
    32
  0
VERTEX
  8
0
  5
786
 10
-5.10088
 20
3.40565
 30
0.000000
  70
    32
  0
VERTEX
  8
0
  5
787
 10
-5.09281
 20
3.40564
 30
0.000000
  70
    32
  0
VERTEX
  8
0
  5
788
 10
-5.08474
 20
3.40562
 30
0.000000
  70
    32
  0
VERTEX
  8
0
  5
789
 10
-5.07667
 20
3.40560
 30
0.000000
  70
    32
  0
VERTEX
  8
0
  5
78A
 10
-5.06861
 20
3.40558
 30
0.000000
  70
    32
  0
VERTEX
  8
0
  5
78B
 10
-5.06055
 20
3.40555
 30
0.000000
  70
    32
  0
VERTEX
  8
0
  5
78C
 10
-5.05250
 20
3.40553
 30
0.000000
  70
    32
  0
VERTEX
  8
0
  5
78D
 10
-5.04445
 20
3.40549
 30
0.000000
  70
    32
  0
VERTEX
  8
0
  5
78E
 10
-5.03641
 20
3.40546
 30
0.000000
  70
    32
  0
VERTEX
  8
0
  5
78F
 10
-5.02837
 20
3.40542
 30
0.000000
  70
    32
  0
VERTEX
  8
0
  5
790
 10
-5.02033
 20
3.40538
 30
0.000000
  70
    32
  0
VERTEX
  8
0
  5
791
 10
-5.01230
 20
3.40533
 30
0.000000
  70
    32
  0
VERTEX
  8
0
  5
792
 10
-5.00428
 20
3.40528
 30
0.000000
  70
    32
  0
VERTEX
  8
0
  5
793
 10
-4.99626
 20
3.40523
 30
0.000000
  70
    32
  0
VERTEX
  8
0
  5
794
 10
-4.98824
 20
3.40517
 30
0.000000
  70
    32
  0
VERTEX
  8
0
  5
795
 10
-4.98022
 20
3.40510
 30
0.000000
  70
    32
  0
VERTEX
  8
0
  5
796
 10
-4.97221
 20
3.40504
 30
0.000000
  70
    32
  0
VERTEX
  8
0
  5
797
 10
-4.96420
 20
3.40496
 30
0.000000
  70
    32
  0
VERTEX
  8
0
  5
798
 10
-4.95620
 20
3.40489
 30
0.000000
  70
    32
  0
VERTEX
  8
0
  5
799
 10
-4.94820
 20
3.40481
 30
0.000000
  70
    32
  0
VERTEX
  8
0
  5
79A
 10
-4.94020
 20
3.40472
 30
0.000000
  70
    32
  0
VERTEX
  8
0
  5
79B
 10
-4.93220
 20
3.40463
 30
0.000000
  70
    32
  0
VERTEX
  8
0
  5
79C
 10
-4.92421
 20
3.40453
 30
0.000000
  70
    32
  0
VERTEX
  8
0
  5
79D
 10
-4.91622
 20
3.40443
 30
0.000000
  70
    32
  0
VERTEX
  8
0
  5
79E
 10
-4.90823
 20
3.40432
 30
0.000000
  70
    32
  0
VERTEX
  8
0
  5
79F
 10
-4.90025
 20
3.40420
 30
0.000000
  70
    32
  0
VERTEX
  8
0
  5
7A0
 10
-4.89227
 20
3.40408
 30
0.000000
  70
    32
  0
VERTEX
  8
0
  5
7A1
 10
-4.88429
 20
3.40396
 30
0.000000
  70
    32
  0
VERTEX
  8
0
  5
7A2
 10
-4.87631
 20
3.40382
 30
0.000000
  70
    32
  0
VERTEX
  8
0
  5
7A3
 10
-4.86833
 20
3.40368
 30
0.000000
  70
    32
  0
VERTEX
  8
0
  5
7A4
 10
-4.86036
 20
3.40354
 30
0.000000
  70
    32
  0
VERTEX
  8
0
  5
7A5
 10
-4.85239
 20
3.40339
 30
0.000000
  70
    32
  0
VERTEX
  8
0
  5
7A6
 10
-4.84442
 20
3.40323
 30
0.000000
  70
    32
  0
VERTEX
  8
0
  5
7A7
 10
-4.83645
 20
3.40306
 30
0.000000
  70
    32
  0
VERTEX
  8
0
  5
7A8
 10
-4.82848
 20
3.40289
 30
0.000000
  70
    32
  0
VERTEX
  8
0
  5
7A9
 10
-4.82052
 20
3.40271
 30
0.000000
  70
    32
  0
VERTEX
  8
0
  5
7AA
 10
-4.81256
 20
3.40252
 30
0.000000
  70
    32
  0
VERTEX
  8
0
  5
7AB
 10
-4.80459
 20
3.40233
 30
0.000000
  70
    32
  0
VERTEX
  8
0
  5
7AC
 10
-4.79663
 20
3.40213
 30
0.000000
  70
    32
  0
VERTEX
  8
0
  5
7AD
 10
-4.78867
 20
3.40192
 30
0.000000
  70
    32
  0
VERTEX
  8
0
  5
7AE
 10
-4.78071
 20
3.40170
 30
0.000000
  70
    32
  0
VERTEX
  8
0
  5
7AF
 10
-4.77275
 20
3.40147
 30
0.000000
  70
    32
  0
VERTEX
  8
0
  5
7B0
 10
-4.76479
 20
3.40124
 30
0.000000
  70
    32
  0
VERTEX
  8
0
  5
7B1
 10
-4.75684
 20
3.40100
 30
0.000000
  70
    32
  0
VERTEX
  8
0
  5
7B2
 10
-4.74888
 20
3.40075
 30
0.000000
  70
    32
  0
VERTEX
  8
0
  5
7B3
 10
-4.74092
 20
3.40049
 30
0.000000
  70
    32
  0
VERTEX
  8
0
  5
7B4
 10
-4.73296
 20
3.40022
 30
0.000000
  70
    32
  0
VERTEX
  8
0
  5
7B5
 10
-4.72501
 20
3.39995
 30
0.000000
  70
    32
  0
VERTEX
  8
0
  5
7B6
 10
-4.71705
 20
3.39966
 30
0.000000
  70
    32
  0
VERTEX
  8
0
  5
7B7
 10
-4.70909
 20
3.39937
 30
0.000000
  70
    32
  0
VERTEX
  8
0
  5
7B8
 10
-4.70114
 20
3.39906
 30
0.000000
  70
    32
  0
VERTEX
  8
0
  5
7B9
 10
-4.69318
 20
3.39875
 30
0.000000
  70
    32
  0
VERTEX
  8
0
  5
7BA
 10
-4.68522
 20
3.39843
 30
0.000000
  70
    32
  0
VERTEX
  8
0
  5
7BB
 10
-4.67726
 20
3.39810
 30
0.000000
  70
    32
  0
VERTEX
  8
0
  5
7BC
 10
-4.66930
 20
3.39775
 30
0.000000
  70
    32
  0
VERTEX
  8
0
  5
7BD
 10
-4.66134
 20
3.39740
 30
0.000000
  70
    32
  0
VERTEX
  8
0
  5
7BE
 10
-4.65338
 20
3.39704
 30
0.000000
  70
    32
  0
VERTEX
  8
0
  5
7BF
 10
-4.64542
 20
3.39667
 30
0.000000
  70
    32
  0
VERTEX
  8
0
  5
7C0
 10
-4.63746
 20
3.39629
 30
0.000000
  70
    32
  0
VERTEX
  8
0
  5
7C1
 10
-4.62949
 20
3.39589
 30
0.000000
  70
    32
  0
VERTEX
  8
0
  5
7C2
 10
-4.62152
 20
3.39549
 30
0.000000
  70
    32
  0
VERTEX
  8
0
  5
7C3
 10
-4.61356
 20
3.39507
 30
0.000000
  70
    32
  0
VERTEX
  8
0
  5
7C4
 10
-4.60559
 20
3.39465
 30
0.000000
  70
    32
  0
VERTEX
  8
0
  5
7C5
 10
-4.59762
 20
3.39421
 30
0.000000
  70
    32
  0
VERTEX
  8
0
  5
7C6
 10
-4.58964
 20
3.39377
 30
0.000000
  70
    32
  0
VERTEX
  8
0
  5
7C7
 10
-4.58167
 20
3.39331
 30
0.000000
  70
    32
  0
VERTEX
  8
0
  5
7C8
 10
-4.57369
 20
3.39284
 30
0.000000
  70
    32
  0
VERTEX
  8
0
  5
7C9
 10
-4.56571
 20
3.39236
 30
0.000000
  70
    32
  0
VERTEX
  8
0
  5
7CA
 10
-4.55773
 20
3.39186
 30
0.000000
  70
    32
  0
VERTEX
  8
0
  5
7CB
 10
-4.54975
 20
3.39136
 30
0.000000
  70
    32
  0
VERTEX
  8
0
  5
7CC
 10
-4.54176
 20
3.39084
 30
0.000000
  70
    32
  0
VERTEX
  8
0
  5
7CD
 10
-4.53377
 20
3.39031
 30
0.000000
  70
    32
  0
VERTEX
  8
0
  5
7CE
 10
-4.52578
 20
3.38977
 30
0.000000
  70
    32
  0
VERTEX
  8
0
  5
7CF
 10
-4.51779
 20
3.38921
 30
0.000000
  70
    32
  0
VERTEX
  8
0
  5
7D0
 10
-4.50979
 20
3.38865
 30
0.000000
  70
    32
  0
VERTEX
  8
0
  5
7D1
 10
-4.50179
 20
3.38807
 30
0.000000
  70
    32
  0
VERTEX
  8
0
  5
7D2
 10
-4.49378
 20
3.38748
 30
0.000000
  70
    32
  0
VERTEX
  8
0
  5
7D3
 10
-4.48578
 20
3.38687
 30
0.000000
  70
    32
  0
VERTEX
  8
0
  5
7D4
 10
-4.47777
 20
3.38625
 30
0.000000
  70
    32
  0
VERTEX
  8
0
  5
7D5
 10
-4.46975
 20
3.38562
 30
0.000000
  70
    32
  0
VERTEX
  8
0
  5
7D6
 10
-4.46173
 20
3.38498
 30
0.000000
  70
    32
  0
VERTEX
  8
0
  5
7D7
 10
-4.45371
 20
3.38432
 30
0.000000
  70
    32
  0
VERTEX
  8
0
  5
7D8
 10
-4.44569
 20
3.38364
 30
0.000000
  70
    32
  0
VERTEX
  8
0
  5
7D9
 10
-4.43766
 20
3.38296
 30
0.000000
  70
    32
  0
VERTEX
  8
0
  5
7DA
 10
-4.42962
 20
3.38226
 30
0.000000
  70
    32
  0
VERTEX
  8
0
  5
7DB
 10
-4.42159
 20
3.38154
 30
0.000000
  70
    32
  0
VERTEX
  8
0
  5
7DC
 10
-4.41354
 20
3.38082
 30
0.000000
  70
    32
  0
VERTEX
  8
0
  5
7DD
 10
-4.40550
 20
3.38007
 30
0.000000
  70
    32
  0
VERTEX
  8
0
  5
7DE
 10
-4.39745
 20
3.37932
 30
0.000000
  70
    32
  0
VERTEX
  8
0
  5
7DF
 10
-4.38939
 20
3.37854
 30
0.000000
  70
    32
  0
VERTEX
  8
0
  5
7E0
 10
-4.38133
 20
3.37776
 30
0.000000
  70
    32
  0
VERTEX
  8
0
  5
7E1
 10
-4.37328
 20
3.37696
 30
0.000000
  70
    32
  0
VERTEX
  8
0
  5
7E2
 10
-4.36535
 20
3.37617
 30
0.000000
  70
    32
  0
VERTEX
  8
0
  5
7E3
 10
-4.35742
 20
3.37540
 30
0.000000
  70
    32
  0
VERTEX
  8
0
  5
7E4
 10
-4.34950
 20
3.37464
 30
0.000000
  70
    32
  0
VERTEX
  8
0
  5
7E5
 10
-4.34158
 20
3.37390
 30
0.000000
  70
    32
  0
VERTEX
  8
0
  5
7E6
 10
-4.33366
 20
3.37318
 30
0.000000
  70
    32
  0
VERTEX
  8
0
  5
7E7
 10
-4.32574
 20
3.37248
 30
0.000000
  70
    32
  0
VERTEX
  8
0
  5
7E8
 10
-4.31782
 20
3.37179
 30
0.000000
  70
    32
  0
VERTEX
  8
0
  5
7E9
 10
-4.30991
 20
3.37111
 30
0.000000
  70
    32
  0
VERTEX
  8
0
  5
7EA
 10
-4.30200
 20
3.37045
 30
0.000000
  70
    32
  0
VERTEX
  8
0
  5
7EB
 10
-4.29410
 20
3.36981
 30
0.000000
  70
    32
  0
VERTEX
  8
0
  5
7EC
 10
-4.28619
 20
3.36919
 30
0.000000
  70
    32
  0
VERTEX
  8
0
  5
7ED
 10
-4.27829
 20
3.36857
 30
0.000000
  70
    32
  0
VERTEX
  8
0
  5
7EE
 10
-4.27039
 20
3.36798
 30
0.000000
  70
    32
  0
VERTEX
  8
0
  5
7EF
 10
-4.26250
 20
3.36739
 30
0.000000
  70
    32
  0
VERTEX
  8
0
  5
7F0
 10
-4.25460
 20
3.36683
 30
0.000000
  70
    32
  0
VERTEX
  8
0
  5
7F1
 10
-4.24671
 20
3.36627
 30
0.000000
  70
    32
  0
VERTEX
  8
0
  5
7F2
 10
-4.23882
 20
3.36573
 30
0.000000
  70
    32
  0
VERTEX
  8
0
  5
7F3
 10
-4.23093
 20
3.36521
 30
0.000000
  70
    32
  0
VERTEX
  8
0
  5
7F4
 10
-4.22304
 20
3.36470
 30
0.000000
  70
    32
  0
VERTEX
  8
0
  5
7F5
 10
-4.21515
 20
3.36420
 30
0.000000
  70
    32
  0
VERTEX
  8
0
  5
7F6
 10
-4.20727
 20
3.36372
 30
0.000000
  70
    32
  0
VERTEX
  8
0
  5
7F7
 10
-4.19939
 20
3.36325
 30
0.000000
  70
    32
  0
VERTEX
  8
0
  5
7F8
 10
-4.19151
 20
3.36279
 30
0.000000
  70
    32
  0
VERTEX
  8
0
  5
7F9
 10
-4.18363
 20
3.36234
 30
0.000000
  70
    32
  0
VERTEX
  8
0
  5
7FA
 10
-4.17575
 20
3.36191
 30
0.000000
  70
    32
  0
VERTEX
  8
0
  5
7FB
 10
-4.16787
 20
3.36149
 30
0.000000
  70
    32
  0
VERTEX
  8
0
  5
7FC
 10
-4.16000
 20
3.36109
 30
0.000000
  70
    32
  0
VERTEX
  8
0
  5
7FD
 10
-4.15212
 20
3.36069
 30
0.000000
  70
    32
  0
VERTEX
  8
0
  5
7FE
 10
-4.14425
 20
3.36031
 30
0.000000
  70
    32
  0
VERTEX
  8
0
  5
7FF
 10
-4.13638
 20
3.35994
 30
0.000000
  70
    32
  0
VERTEX
  8
0
  5
800
 10
-4.12851
 20
3.35958
 30
0.000000
  70
    32
  0
VERTEX
  8
0
  5
801
 10
-4.12063
 20
3.35923
 30
0.000000
  70
    32
  0
VERTEX
  8
0
  5
802
 10
-4.11276
 20
3.35890
 30
0.000000
  70
    32
  0
VERTEX
  8
0
  5
803
 10
-4.10489
 20
3.35857
 30
0.000000
  70
    32
  0
VERTEX
  8
0
  5
804
 10
-4.09703
 20
3.35826
 30
0.000000
  70
    32
  0
VERTEX
  8
0
  5
805
 10
-4.08916
 20
3.35795
 30
0.000000
  70
    32
  0
VERTEX
  8
0
  5
806
 10
-4.08129
 20
3.35766
 30
0.000000
  70
    32
  0
VERTEX
  8
0
  5
807
 10
-4.07342
 20
3.35738
 30
0.000000
  70
    32
  0
VERTEX
  8
0
  5
808
 10
-4.06556
 20
3.35711
 30
0.000000
  70
    32
  0
VERTEX
  8
0
  5
809
 10
-4.05769
 20
3.35684
 30
0.000000
  70
    32
  0
VERTEX
  8
0
  5
80A
 10
-4.04982
 20
3.35659
 30
0.000000
  70
    32
  0
VERTEX
  8
0
  5
80B
 10
-4.04195
 20
3.35635
 30
0.000000
  70
    32
  0
VERTEX
  8
0
  5
80C
 10
-4.03409
 20
3.35611
 30
0.000000
  70
    32
  0
VERTEX
  8
0
  5
80D
 10
-4.02622
 20
3.35589
 30
0.000000
  70
    32
  0
VERTEX
  8
0
  5
80E
 10
-4.01835
 20
3.35567
 30
0.000000
  70
    32
  0
VERTEX
  8
0
  5
80F
 10
-4.01049
 20
3.35547
 30
0.000000
  70
    32
  0
VERTEX
  8
0
  5
810
 10
-4.00262
 20
3.35527
 30
0.000000
  70
    32
  0
VERTEX
  8
0
  5
811
 10
-3.99475
 20
3.35508
 30
0.000000
  70
    32
  0
VERTEX
  8
0
  5
812
 10
-3.98688
 20
3.35490
 30
0.000000
  70
    32
  0
VERTEX
  8
0
  5
813
 10
-3.97901
 20
3.35473
 30
0.000000
  70
    32
  0
VERTEX
  8
0
  5
814
 10
-3.97114
 20
3.35456
 30
0.000000
  70
    32
  0
VERTEX
  8
0
  5
815
 10
-3.96327
 20
3.35440
 30
0.000000
  70
    32
  0
VERTEX
  8
0
  5
816
 10
-3.95540
 20
3.35425
 30
0.000000
  70
    32
  0
VERTEX
  8
0
  5
817
 10
-3.94753
 20
3.35411
 30
0.000000
  70
    32
  0
VERTEX
  8
0
  5
818
 10
-3.93965
 20
3.35398
 30
0.000000
  70
    32
  0
VERTEX
  8
0
  5
819
 10
-3.93178
 20
3.35385
 30
0.000000
  70
    32
  0
VERTEX
  8
0
  5
81A
 10
-3.92390
 20
3.35373
 30
0.000000
  70
    32
  0
VERTEX
  8
0
  5
81B
 10
-3.91603
 20
3.35361
 30
0.000000
  70
    32
  0
VERTEX
  8
0
  5
81C
 10
-3.90815
 20
3.35350
 30
0.000000
  70
    32
  0
VERTEX
  8
0
  5
81D
 10
-3.90027
 20
3.35340
 30
0.000000
  70
    32
  0
VERTEX
  8
0
  5
81E
 10
-3.89239
 20
3.35331
 30
0.000000
  70
    32
  0
VERTEX
  8
0
  5
81F
 10
-3.88451
 20
3.35322
 30
0.000000
  70
    32
  0
VERTEX
  8
0
  5
820
 10
-3.87662
 20
3.35313
 30
0.000000
  70
    32
  0
VERTEX
  8
0
  5
821
 10
-3.86874
 20
3.35305
 30
0.000000
  70
    32
  0
VERTEX
  8
0
  5
822
 10
-3.86085
 20
3.35298
 30
0.000000
  70
    32
  0
VERTEX
  8
0
  5
823
 10
-3.85296
 20
3.35291
 30
0.000000
  70
    32
  0
VERTEX
  8
0
  5
824
 10
-3.84507
 20
3.35285
 30
0.000000
  70
    32
  0
VERTEX
  8
0
  5
825
 10
-3.83718
 20
3.35279
 30
0.000000
  70
    32
  0
VERTEX
  8
0
  5
826
 10
-3.82928
 20
3.35274
 30
0.000000
  70
    32
  0
VERTEX
  8
0
  5
827
 10
-3.82138
 20
3.35269
 30
0.000000
  70
    32
  0
VERTEX
  8
0
  5
828
 10
-3.81349
 20
3.35265
 30
0.000000
  70
    32
  0
VERTEX
  8
0
  5
829
 10
-3.80558
 20
3.35260
 30
0.000000
  70
    32
  0
VERTEX
  8
0
  5
82A
 10
-3.79768
 20
3.35257
 30
0.000000
  70
    32
  0
VERTEX
  8
0
  5
82B
 10
-3.78977
 20
3.35253
 30
0.000000
  70
    32
  0
VERTEX
  8
0
  5
82C
 10
-3.78187
 20
3.35250
 30
0.000000
  70
    32
  0
VERTEX
  8
0
  5
82D
 10
-3.77395
 20
3.35248
 30
0.000000
  70
    32
  0
VERTEX
  8
0
  5
82E
 10
-3.76604
 20
3.35245
 30
0.000000
  70
    32
  0
VERTEX
  8
0
  5
82F
 10
-3.75812
 20
3.35243
 30
0.000000
  70
    32
  0
VERTEX
  8
0
  5
830
 10
-3.75020
 20
3.35242
 30
0.000000
  70
    32
  0
VERTEX
  8
0
  5
831
 10
-3.74228
 20
3.35240
 30
0.000000
  70
    32
  0
VERTEX
  8
0
  5
832
 10
-3.73436
 20
3.35239
 30
0.000000
  70
    32
  0
VERTEX
  8
0
  5
833
 10
-3.72643
 20
3.35238
 30
0.000000
  70
    32
  0
VERTEX
  8
0
  5
834
 10
-3.71850
 20
3.35237
 30
0.000000
  70
    32
  0
VERTEX
  8
0
  5
835
 10
-3.71056
 20
3.35236
 30
0.000000
  70
    32
  0
VERTEX
  8
0
  5
836
 10
-3.70262
 20
3.35236
 30
0.000000
  70
    32
  0
VERTEX
  8
0
  5
837
 10
-3.69468
 20
3.35236
 30
0.000000
  70
    32
  0
VERTEX
  8
0
  5
838
 10
-3.68674
 20
3.35235
 30
0.000000
  70
    32
  0
VERTEX
  8
0
  5
839
 10
-3.67879
 20
3.35235
 30
0.000000
  70
    32
  0
VERTEX
  8
0
  5
83A
 10
-3.67084
 20
3.35235
 30
0.000000
  70
    32
  0
VERTEX
  8
0
  5
83B
 10
-3.66288
 20
3.35235
 30
0.000000
  70
    32
  0
VERTEX
  8
0
  5
83C
 10
-3.65492
 20
3.35235
 30
0.000000
  70
    32
  0
VERTEX
  8
0
  5
83D
 10
-3.64696
 20
3.35236
 30
0.000000
  70
    32
  0
VERTEX
  8
0
  5
83E
 10
-3.63899
 20
3.35236
 30
0.000000
  70
    32
  0
VERTEX
  8
0
  5
83F
 10
-3.63102
 20
3.35236
 30
0.000000
  70
    32
  0
VERTEX
  8
0
  5
840
 10
-3.62305
 20
3.35236
 30
0.000000
  70
    32
  0
VERTEX
  8
0
  5
841
 10
-3.61507
 20
3.35236
 30
0.000000
  70
    32
  0
VERTEX
  8
0
  5
842
 10
-3.60708
 20
3.35236
 30
0.000000
  70
    32
  0
VERTEX
  8
0
  5
843
 10
-3.59989
 20
3.35236
 30
0.000000
  70
    32
  0
VERTEX
  8
0
  5
844
 10
-3.59324
 20
3.35232
 30
0.000000
  70
    32
  0
VERTEX
  8
0
  5
845
 10
-3.58658
 20
3.35225
 30
0.000000
  70
    32
  0
VERTEX
  8
0
  5
846
 10
-3.57993
 20
3.35215
 30
0.000000
  70
    32
  0
VERTEX
  8
0
  5
847
 10
-3.57327
 20
3.35202
 30
0.000000
  70
    32
  0
VERTEX
  8
0
  5
848
 10
-3.56662
 20
3.35186
 30
0.000000
  70
    32
  0
VERTEX
  8
0
  5
849
 10
-3.55997
 20
3.35167
 30
0.000000
  70
    32
  0
VERTEX
  8
0
  5
84A
 10
-3.55332
 20
3.35145
 30
0.000000
  70
    32
  0
VERTEX
  8
0
  5
84B
 10
-3.54666
 20
3.35120
 30
0.000000
  70
    32
  0
VERTEX
  8
0
  5
84C
 10
-3.54001
 20
3.35092
 30
0.000000
  70
    32
  0
VERTEX
  8
0
  5
84D
 10
-3.53336
 20
3.35062
 30
0.000000
  70
    32
  0
VERTEX
  8
0
  5
84E
 10
-3.52671
 20
3.35029
 30
0.000000
  70
    32
  0
VERTEX
  8
0
  5
84F
 10
-3.52006
 20
3.34993
 30
0.000000
  70
    32
  0
VERTEX
  8
0
  5
850
 10
-3.51342
 20
3.34955
 30
0.000000
  70
    32
  0
VERTEX
  8
0
  5
851
 10
-3.50677
 20
3.34915
 30
0.000000
  70
    32
  0
VERTEX
  8
0
  5
852
 10
-3.50012
 20
3.34872
 30
0.000000
  70
    32
  0
VERTEX
  8
0
  5
853
 10
-3.49347
 20
3.34827
 30
0.000000
  70
    32
  0
VERTEX
  8
0
  5
854
 10
-3.48683
 20
3.34780
 30
0.000000
  70
    32
  0
VERTEX
  8
0
  5
855
 10
-3.48018
 20
3.34731
 30
0.000000
  70
    32
  0
VERTEX
  8
0
  5
856
 10
-3.47354
 20
3.34679
 30
0.000000
  70
    32
  0
VERTEX
  8
0
  5
857
 10
-3.46689
 20
3.34626
 30
0.000000
  70
    32
  0
VERTEX
  8
0
  5
858
 10
-3.46025
 20
3.34570
 30
0.000000
  70
    32
  0
VERTEX
  8
0
  5
859
 10
-3.45361
 20
3.34513
 30
0.000000
  70
    32
  0
VERTEX
  8
0
  5
85A
 10
-3.44696
 20
3.34454
 30
0.000000
  70
    32
  0
VERTEX
  8
0
  5
85B
 10
-3.44032
 20
3.34393
 30
0.000000
  70
    32
  0
VERTEX
  8
0
  5
85C
 10
-3.43368
 20
3.34331
 30
0.000000
  70
    32
  0
VERTEX
  8
0
  5
85D
 10
-3.42704
 20
3.34267
 30
0.000000
  70
    32
  0
VERTEX
  8
0
  5
85E
 10
-3.42039
 20
3.34201
 30
0.000000
  70
    32
  0
VERTEX
  8
0
  5
85F
 10
-3.41375
 20
3.34134
 30
0.000000
  70
    32
  0
VERTEX
  8
0
  5
860
 10
-3.40711
 20
3.34066
 30
0.000000
  70
    32
  0
VERTEX
  8
0
  5
861
 10
-3.40047
 20
3.33996
 30
0.000000
  70
    32
  0
VERTEX
  8
0
  5
862
 10
-3.39383
 20
3.33925
 30
0.000000
  70
    32
  0
VERTEX
  8
0
  5
863
 10
-3.38719
 20
3.33853
 30
0.000000
  70
    32
  0
VERTEX
  8
0
  5
864
 10
-3.38055
 20
3.33780
 30
0.000000
  70
    32
  0
VERTEX
  8
0
  5
865
 10
-3.37392
 20
3.33706
 30
0.000000
  70
    32
  0
VERTEX
  8
0
  5
866
 10
-3.36728
 20
3.33631
 30
0.000000
  70
    32
  0
VERTEX
  8
0
  5
867
 10
-3.36064
 20
3.33554
 30
0.000000
  70
    32
  0
VERTEX
  8
0
  5
868
 10
-3.35400
 20
3.33477
 30
0.000000
  70
    32
  0
VERTEX
  8
0
  5
869
 10
-3.34736
 20
3.33400
 30
0.000000
  70
    32
  0
VERTEX
  8
0
  5
86A
 10
-3.34073
 20
3.33321
 30
0.000000
  70
    32
  0
VERTEX
  8
0
  5
86B
 10
-3.33409
 20
3.33242
 30
0.000000
  70
    32
  0
VERTEX
  8
0
  5
86C
 10
-3.32745
 20
3.33162
 30
0.000000
  70
    32
  0
VERTEX
  8
0
  5
86D
 10
-3.32082
 20
3.33082
 30
0.000000
  70
    32
  0
VERTEX
  8
0
  5
86E
 10
-3.31418
 20
3.33002
 30
0.000000
  70
    32
  0
VERTEX
  8
0
  5
86F
 10
-3.30754
 20
3.32921
 30
0.000000
  70
    32
  0
VERTEX
  8
0
  5
870
 10
-3.30091
 20
3.32840
 30
0.000000
  70
    32
  0
VERTEX
  8
0
  5
871
 10
-3.29427
 20
3.32758
 30
0.000000
  70
    32
  0
VERTEX
  8
0
  5
872
 10
-3.28764
 20
3.32677
 30
0.000000
  70
    32
  0
VERTEX
  8
0
  5
873
 10
-3.28100
 20
3.32595
 30
0.000000
  70
    32
  0
VERTEX
  8
0
  5
874
 10
-3.27437
 20
3.32513
 30
0.000000
  70
    32
  0
VERTEX
  8
0
  5
875
 10
-3.26773
 20
3.32432
 30
0.000000
  70
    32
  0
VERTEX
  8
0
  5
876
 10
-3.26109
 20
3.32350
 30
0.000000
  70
    32
  0
VERTEX
  8
0
  5
877
 10
-3.25446
 20
3.32269
 30
0.000000
  70
    32
  0
VERTEX
  8
0
  5
878
 10
-3.24782
 20
3.32188
 30
0.000000
  70
    32
  0
VERTEX
  8
0
  5
879
 10
-3.24119
 20
3.32107
 30
0.000000
  70
    32
  0
VERTEX
  8
0
  5
87A
 10
-3.23455
 20
3.32027
 30
0.000000
  70
    32
  0
VERTEX
  8
0
  5
87B
 10
-3.22792
 20
3.31947
 30
0.000000
  70
    32
  0
VERTEX
  8
0
  5
87C
 10
-3.22129
 20
3.31868
 30
0.000000
  70
    32
  0
VERTEX
  8
0
  5
87D
 10
-3.21465
 20
3.31789
 30
0.000000
  70
    32
  0
VERTEX
  8
0
  5
87E
 10
-3.20802
 20
3.31711
 30
0.000000
  70
    32
  0
VERTEX
  8
0
  5
87F
 10
-3.20138
 20
3.31634
 30
0.000000
  70
    32
  0
VERTEX
  8
0
  5
880
 10
-3.19475
 20
3.31557
 30
0.000000
  70
    32
  0
VERTEX
  8
0
  5
881
 10
-3.18811
 20
3.31482
 30
0.000000
  70
    32
  0
VERTEX
  8
0
  5
882
 10
-3.18148
 20
3.31407
 30
0.000000
  70
    32
  0
VERTEX
  8
0
  5
883
 10
-3.17484
 20
3.31334
 30
0.000000
  70
    32
  0
VERTEX
  8
0
  5
884
 10
-3.16821
 20
3.31261
 30
0.000000
  70
    32
  0
VERTEX
  8
0
  5
885
 10
-3.16157
 20
3.31190
 30
0.000000
  70
    32
  0
VERTEX
  8
0
  5
886
 10
-3.15494
 20
3.31120
 30
0.000000
  70
    32
  0
VERTEX
  8
0
  5
887
 10
-3.14830
 20
3.31051
 30
0.000000
  70
    32
  0
VERTEX
  8
0
  5
888
 10
-3.14167
 20
3.30983
 30
0.000000
  70
    32
  0
VERTEX
  8
0
  5
889
 10
-3.13503
 20
3.30917
 30
0.000000
  70
    32
  0
VERTEX
  8
0
  5
88A
 10
-3.12840
 20
3.30853
 30
0.000000
  70
    32
  0
VERTEX
  8
0
  5
88B
 10
-3.12176
 20
3.30790
 30
0.000000
  70
    32
  0
VERTEX
  8
0
  5
88C
 10
-3.11512
 20
3.30728
 30
0.000000
  70
    32
  0
VERTEX
  8
0
  5
88D
 10
-3.10849
 20
3.30669
 30
0.000000
  70
    32
  0
VERTEX
  8
0
  5
88E
 10
-3.10185
 20
3.30611
 30
0.000000
  70
    32
  0
VERTEX
  8
0
  5
88F
 10
-3.09522
 20
3.30555
 30
0.000000
  70
    32
  0
VERTEX
  8
0
  5
890
 10
-3.08858
 20
3.30501
 30
0.000000
  70
    32
  0
VERTEX
  8
0
  5
891
 10
-3.08194
 20
3.30448
 30
0.000000
  70
    32
  0
VERTEX
  8
0
  5
892
 10
-3.07531
 20
3.30398
 30
0.000000
  70
    32
  0
VERTEX
  8
0
  5
893
 10
-3.06867
 20
3.30350
 30
0.000000
  70
    32
  0
VERTEX
  8
0
  5
894
 10
-3.06203
 20
3.30305
 30
0.000000
  70
    32
  0
VERTEX
  8
0
  5
895
 10
-3.05539
 20
3.30261
 30
0.000000
  70
    32
  0
VERTEX
  8
0
  5
896
 10
-3.04875
 20
3.30220
 30
0.000000
  70
    32
  0
VERTEX
  8
0
  5
897
 10
-3.04212
 20
3.30181
 30
0.000000
  70
    32
  0
VERTEX
  8
0
  5
898
 10
-3.03548
 20
3.30145
 30
0.000000
  70
    32
  0
VERTEX
  8
0
  5
899
 10
-3.02884
 20
3.30111
 30
0.000000
  70
    32
  0
VERTEX
  8
0
  5
89A
 10
-3.02220
 20
3.30079
 30
0.000000
  70
    32
  0
VERTEX
  8
0
  5
89B
 10
-3.01556
 20
3.30051
 30
0.000000
  70
    32
  0
VERTEX
  8
0
  5
89C
 10
-3.00892
 20
3.30025
 30
0.000000
  70
    32
  0
VERTEX
  8
0
  5
89D
 10
-3.00228
 20
3.30002
 30
0.000000
  70
    32
  0
VERTEX
  8
0
  5
89E
 10
-2.99564
 20
3.29982
 30
0.000000
  70
    32
  0
VERTEX
  8
0
  5
89F
 10
-2.98900
 20
3.29965
 30
0.000000
  70
    32
  0
VERTEX
  8
0
  5
8A0
 10
-2.98235
 20
3.29950
 30
0.000000
  70
    32
  0
VERTEX
  8
0
  5
8A1
 10
-2.97571
 20
3.29939
 30
0.000000
  70
    32
  0
VERTEX
  8
0
  5
8A2
 10
-2.96907
 20
3.29931
 30
0.000000
  70
    32
  0
VERTEX
  8
0
  5
8A3
 10
-2.96243
 20
3.29926
 30
0.000000
  70
    32
  0
VERTEX
  8
0
  5
8A4
 10
-2.95459
 20
3.29925
 30
0.000000
  70
    32
  0
VERTEX
  8
0
  5
8A5
 10
-2.92401
 20
3.29925
 30
0.000000
  70
    32
  0
VERTEX
  8
0
  5
8A6
 10
-2.89344
 20
3.29925
 30
0.000000
  70
    32
  0
VERTEX
  8
0
  5
8A7
 10
-2.86287
 20
3.29925
 30
0.000000
  70
    32
  0
VERTEX
  8
0
  5
8A8
 10
-2.83230
 20
3.29925
 30
0.000000
  70
    32
  0
VERTEX
  8
0
  5
8A9
 10
-2.80173
 20
3.29925
 30
0.000000
  70
    32
  0
VERTEX
  8
0
  5
8AA
 10
-2.77116
 20
3.29925
 30
0.000000
  70
    32
  0
VERTEX
  8
0
  5
8AB
 10
-2.74059
 20
3.29925
 30
0.000000
  70
    32
  0
VERTEX
  8
0
  5
8AC
 10
-2.71002
 20
3.29925
 30
0.000000
  70
    32
  0
VERTEX
  8
0
  5
8AD
 10
-2.67945
 20
3.29925
 30
0.000000
  70
    32
  0
VERTEX
  8
0
  5
8AE
 10
-2.64889
 20
3.29925
 30
0.000000
  70
    32
  0
VERTEX
  8
0
  5
8AF
 10
-2.61833
 20
3.29925
 30
0.000000
  70
    32
  0
VERTEX
  8
0
  5
8B0
 10
-2.58776
 20
3.29925
 30
0.000000
  70
    32
  0
VERTEX
  8
0
  5
8B1
 10
-2.55720
 20
3.29925
 30
0.000000
  70
    32
  0
VERTEX
  8
0
  5
8B2
 10
-2.52665
 20
3.29925
 30
0.000000
  70
    32
  0
VERTEX
  8
0
  5
8B3
 10
-2.49609
 20
3.29925
 30
0.000000
  70
    32
  0
VERTEX
  8
0
  5
8B4
 10
-2.46554
 20
3.29925
 30
0.000000
  70
    32
  0
VERTEX
  8
0
  5
8B5
 10
-2.43499
 20
3.29925
 30
0.000000
  70
    32
  0
VERTEX
  8
0
  5
8B6
 10
-2.40444
 20
3.29925
 30
0.000000
  70
    32
  0
VERTEX
  8
0
  5
8B7
 10
-2.37389
 20
3.29925
 30
0.000000
  70
    32
  0
VERTEX
  8
0
  5
8B8
 10
-2.34335
 20
3.29925
 30
0.000000
  70
    32
  0
VERTEX
  8
0
  5
8B9
 10
-2.31282
 20
3.29925
 30
0.000000
  70
    32
  0
VERTEX
  8
0
  5
8BA
 10
-2.28228
 20
3.29925
 30
0.000000
  70
    32
  0
VERTEX
  8
0
  5
8BB
 10
-2.25175
 20
3.29925
 30
0.000000
  70
    32
  0
VERTEX
  8
0
  5
8BC
 10
-2.22122
 20
3.29925
 30
0.000000
  70
    32
  0
VERTEX
  8
0
  5
8BD
 10
-2.19070
 20
3.29925
 30
0.000000
  70
    32
  0
VERTEX
  8
0
  5
8BE
 10
-2.16018
 20
3.29925
 30
0.000000
  70
    32
  0
VERTEX
  8
0
  5
8BF
 10
-2.12967
 20
3.29925
 30
0.000000
  70
    32
  0
VERTEX
  8
0
  5
8C0
 10
-2.09916
 20
3.29925
 30
0.000000
  70
    32
  0
VERTEX
  8
0
  5
8C1
 10
-2.06865
 20
3.29925
 30
0.000000
  70
    32
  0
VERTEX
  8
0
  5
8C2
 10
-2.03815
 20
3.29925
 30
0.000000
  70
    32
  0
VERTEX
  8
0
  5
8C3
 10
-2.00766
 20
3.29925
 30
0.000000
  70
    32
  0
VERTEX
  8
0
  5
8C4
 10
-1.97717
 20
3.29925
 30
0.000000
  70
    32
  0
VERTEX
  8
0
  5
8C5
 10
-1.94668
 20
3.29925
 30
0.000000
  70
    32
  0
VERTEX
  8
0
  5
8C6
 10
-1.91620
 20
3.29925
 30
0.000000
  70
    32
  0
VERTEX
  8
0
  5
8C7
 10
-1.88573
 20
3.29925
 30
0.000000
  70
    32
  0
VERTEX
  8
0
  5
8C8
 10
-1.85526
 20
3.29925
 30
0.000000
  70
    32
  0
VERTEX
  8
0
  5
8C9
 10
-1.82480
 20
3.29925
 30
0.000000
  70
    32
  0
VERTEX
  8
0
  5
8CA
 10
-1.79435
 20
3.29925
 30
0.000000
  70
    32
  0
VERTEX
  8
0
  5
8CB
 10
-1.76390
 20
3.29925
 30
0.000000
  70
    32
  0
VERTEX
  8
0
  5
8CC
 10
-1.73346
 20
3.29925
 30
0.000000
  70
    32
  0
VERTEX
  8
0
  5
8CD
 10
-1.70302
 20
3.29925
 30
0.000000
  70
    32
  0
VERTEX
  8
0
  5
8CE
 10
-1.67259
 20
3.29925
 30
0.000000
  70
    32
  0
VERTEX
  8
0
  5
8CF
 10
-1.64217
 20
3.29925
 30
0.000000
  70
    32
  0
VERTEX
  8
0
  5
8D0
 10
-1.61176
 20
3.29925
 30
0.000000
  70
    32
  0
VERTEX
  8
0
  5
8D1
 10
-1.58135
 20
3.29925
 30
0.000000
  70
    32
  0
VERTEX
  8
0
  5
8D2
 10
-1.55095
 20
3.29925
 30
0.000000
  70
    32
  0
VERTEX
  8
0
  5
8D3
 10
-1.52056
 20
3.29925
 30
0.000000
  70
    32
  0
VERTEX
  8
0
  5
8D4
 10
-1.49018
 20
3.29925
 30
0.000000
  70
    32
  0
VERTEX
  8
0
  5
8D5
 10
-1.45981
 20
3.29925
 30
0.000000
  70
    32
  0
VERTEX
  8
0
  5
8D6
 10
-1.42944
 20
3.29925
 30
0.000000
  70
    32
  0
VERTEX
  8
0
  5
8D7
 10
-1.39908
 20
3.29925
 30
0.000000
  70
    32
  0
VERTEX
  8
0
  5
8D8
 10
-1.36874
 20
3.29925
 30
0.000000
  70
    32
  0
VERTEX
  8
0
  5
8D9
 10
-1.33840
 20
3.29925
 30
0.000000
  70
    32
  0
VERTEX
  8
0
  5
8DA
 10
-1.30807
 20
3.29925
 30
0.000000
  70
    32
  0
VERTEX
  8
0
  5
8DB
 10
-1.27774
 20
3.29925
 30
0.000000
  70
    32
  0
VERTEX
  8
0
  5
8DC
 10
-1.24743
 20
3.29925
 30
0.000000
  70
    32
  0
VERTEX
  8
0
  5
8DD
 10
-1.21713
 20
3.29925
 30
0.000000
  70
    32
  0
VERTEX
  8
0
  5
8DE
 10
-1.18684
 20
3.29925
 30
0.000000
  70
    32
  0
VERTEX
  8
0
  5
8DF
 10
-1.15655
 20
3.29925
 30
0.000000
  70
    32
  0
VERTEX
  8
0
  5
8E0
 10
-1.12628
 20
3.29925
 30
0.000000
  70
    32
  0
VERTEX
  8
0
  5
8E1
 10
-1.09602
 20
3.29925
 30
0.000000
  70
    32
  0
VERTEX
  8
0
  5
8E2
 10
-1.06577
 20
3.29925
 30
0.000000
  70
    32
  0
VERTEX
  8
0
  5
8E3
 10
-1.03553
 20
3.29925
 30
0.000000
  70
    32
  0
VERTEX
  8
0
  5
8E4
 10
-1.00530
 20
3.29925
 30
0.000000
  70
    32
  0
VERTEX
  8
0
  5
8E5
 10
-0.975076
 20
3.29925
 30
0.000000
  70
    32
  0
VERTEX
  8
0
  5
8E6
 10
-0.944868
 20
3.29925
 30
0.000000
  70
    32
  0
VERTEX
  8
0
  5
8E7
 10
-0.914671
 20
3.29925
 30
0.000000
  70
    32
  0
VERTEX
  8
0
  5
8E8
 10
-0.884485
 20
3.29925
 30
0.000000
  70
    32
  0
VERTEX
  8
0
  5
8E9
 10
-0.854312
 20
3.29925
 30
0.000000
  70
    32
  0
VERTEX
  8
0
  5
8EA
 10
-0.824150
 20
3.29925
 30
0.000000
  70
    32
  0
VERTEX
  8
0
  5
8EB
 10
-0.794000
 20
3.29925
 30
0.000000
  70
    32
  0
VERTEX
  8
0
  5
8EC
 10
-0.763862
 20
3.29925
 30
0.000000
  70
    32
  0
VERTEX
  8
0
  5
8ED
 10
-0.733736
 20
3.29925
 30
0.000000
  70
    32
  0
VERTEX
  8
0
  5
8EE
 10
-0.703623
 20
3.29925
 30
0.000000
  70
    32
  0
VERTEX
  8
0
  5
8EF
 10
-0.673523
 20
3.29925
 30
0.000000
  70
    32
  0
VERTEX
  8
0
  5
8F0
 10
-0.643436
 20
3.29925
 30
0.000000
  70
    32
  0
VERTEX
  8
0
  5
8F1
 10
-0.613361
 20
3.29925
 30
0.000000
  70
    32
  0
VERTEX
  8
0
  5
8F2
 10
-0.583300
 20
3.29925
 30
0.000000
  70
    32
  0
VERTEX
  8
0
  5
8F3
 10
-0.553252
 20
3.29925
 30
0.000000
  70
    32
  0
VERTEX
  8
0
  5
8F4
 10
-0.523218
 20
3.29925
 30
0.000000
  70
    32
  0
VERTEX
  8
0
  5
8F5
 10
-0.493198
 20
3.29925
 30
0.000000
  70
    32
  0
VERTEX
  8
0
  5
8F6
 10
-0.463191
 20
3.29925
 30
0.000000
  70
    32
  0
VERTEX
  8
0
  5
8F7
 10
-0.433199
 20
3.29925
 30
0.000000
  70
    32
  0
VERTEX
  8
0
  5
8F8
 10
-0.403221
 20
3.29925
 30
0.000000
  70
    32
  0
VERTEX
  8
0
  5
8F9
 10
-0.373257
 20
3.29925
 30
0.000000
  70
    32
  0
VERTEX
  8
0
  5
8FA
 10
-0.343308
 20
3.29925
 30
0.000000
  70
    32
  0
VERTEX
  8
0
  5
8FB
 10
-0.313374
 20
3.29925
 30
0.000000
  70
    32
  0
VERTEX
  8
0
  5
8FC
 10
-0.283454
 20
3.29925
 30
0.000000
  70
    32
  0
VERTEX
  8
0
  5
8FD
 10
-0.253550
 20
3.29925
 30
0.000000
  70
    32
  0
VERTEX
  8
0
  5
8FE
 10
-0.223661
 20
3.29925
 30
0.000000
  70
    32
  0
VERTEX
  8
0
  5
8FF
 10
-0.193788
 20
3.29925
 30
0.000000
  70
    32
  0
VERTEX
  8
0
  5
900
 10
-0.163930
 20
3.29925
 30
0.000000
  70
    32
  0
VERTEX
  8
0
  5
901
 10
-0.134088
 20
3.29925
 30
0.000000
  70
    32
  0
VERTEX
  8
0
  5
902
 10
-0.104262
 20
3.29925
 30
0.000000
  70
    32
  0
VERTEX
  8
0
  5
903
 10
-0.0744525
 20
3.29925
 30
0.000000
  70
    32
  0
VERTEX
  8
0
  5
904
 10
-0.0446591
 20
3.29925
 30
0.000000
  70
    32
  0
VERTEX
  8
0
  5
905
 10
-0.0148822
 20
3.29925
 30
0.000000
  70
    32
  0
VERTEX
  8
0
  5
906
 10
0.0148822
 20
3.29925
 30
0.000000
  70
    32
  0
VERTEX
  8
0
  5
907
 10
0.0446591
 20
3.29925
 30
0.000000
  70
    32
  0
VERTEX
  8
0
  5
908
 10
0.0744525
 20
3.29925
 30
0.000000
  70
    32
  0
VERTEX
  8
0
  5
909
 10
0.104262
 20
3.29925
 30
0.000000
  70
    32
  0
VERTEX
  8
0
  5
90A
 10
0.134088
 20
3.29925
 30
0.000000
  70
    32
  0
VERTEX
  8
0
  5
90B
 10
0.163930
 20
3.29925
 30
0.000000
  70
    32
  0
VERTEX
  8
0
  5
90C
 10
0.193788
 20
3.29925
 30
0.000000
  70
    32
  0
VERTEX
  8
0
  5
90D
 10
0.223661
 20
3.29925
 30
0.000000
  70
    32
  0
VERTEX
  8
0
  5
90E
 10
0.253550
 20
3.29925
 30
0.000000
  70
    32
  0
VERTEX
  8
0
  5
90F
 10
0.283454
 20
3.29925
 30
0.000000
  70
    32
  0
VERTEX
  8
0
  5
910
 10
0.313374
 20
3.29925
 30
0.000000
  70
    32
  0
VERTEX
  8
0
  5
911
 10
0.343308
 20
3.29925
 30
0.000000
  70
    32
  0
VERTEX
  8
0
  5
912
 10
0.373257
 20
3.29925
 30
0.000000
  70
    32
  0
VERTEX
  8
0
  5
913
 10
0.403221
 20
3.29925
 30
0.000000
  70
    32
  0
VERTEX
  8
0
  5
914
 10
0.433199
 20
3.29925
 30
0.000000
  70
    32
  0
VERTEX
  8
0
  5
915
 10
0.463191
 20
3.29925
 30
0.000000
  70
    32
  0
VERTEX
  8
0
  5
916
 10
0.493198
 20
3.29925
 30
0.000000
  70
    32
  0
VERTEX
  8
0
  5
917
 10
0.523218
 20
3.29925
 30
0.000000
  70
    32
  0
VERTEX
  8
0
  5
918
 10
0.553252
 20
3.29925
 30
0.000000
  70
    32
  0
VERTEX
  8
0
  5
919
 10
0.583300
 20
3.29925
 30
0.000000
  70
    32
  0
VERTEX
  8
0
  5
91A
 10
0.613361
 20
3.29925
 30
0.000000
  70
    32
  0
VERTEX
  8
0
  5
91B
 10
0.643436
 20
3.29925
 30
0.000000
  70
    32
  0
VERTEX
  8
0
  5
91C
 10
0.673523
 20
3.29925
 30
0.000000
  70
    32
  0
VERTEX
  8
0
  5
91D
 10
0.703623
 20
3.29925
 30
0.000000
  70
    32
  0
VERTEX
  8
0
  5
91E
 10
0.733736
 20
3.29925
 30
0.000000
  70
    32
  0
VERTEX
  8
0
  5
91F
 10
0.763862
 20
3.29925
 30
0.000000
  70
    32
  0
VERTEX
  8
0
  5
920
 10
0.794000
 20
3.29925
 30
0.000000
  70
    32
  0
VERTEX
  8
0
  5
921
 10
0.824150
 20
3.29925
 30
0.000000
  70
    32
  0
VERTEX
  8
0
  5
922
 10
0.854312
 20
3.29925
 30
0.000000
  70
    32
  0
VERTEX
  8
0
  5
923
 10
0.884485
 20
3.29925
 30
0.000000
  70
    32
  0
VERTEX
  8
0
  5
924
 10
0.914671
 20
3.29925
 30
0.000000
  70
    32
  0
VERTEX
  8
0
  5
925
 10
0.944868
 20
3.29925
 30
0.000000
  70
    32
  0
VERTEX
  8
0
  5
926
 10
0.975076
 20
3.29925
 30
0.000000
  70
    32
  0
VERTEX
  8
0
  5
927
 10
1.00530
 20
3.29925
 30
0.000000
  70
    32
  0
VERTEX
  8
0
  5
928
 10
1.03553
 20
3.29925
 30
0.000000
  70
    32
  0
VERTEX
  8
0
  5
929
 10
1.06577
 20
3.29925
 30
0.000000
  70
    32
  0
VERTEX
  8
0
  5
92A
 10
1.09602
 20
3.29925
 30
0.000000
  70
    32
  0
VERTEX
  8
0
  5
92B
 10
1.12628
 20
3.29925
 30
0.000000
  70
    32
  0
VERTEX
  8
0
  5
92C
 10
1.15655
 20
3.29925
 30
0.000000
  70
    32
  0
VERTEX
  8
0
  5
92D
 10
1.18684
 20
3.29925
 30
0.000000
  70
    32
  0
VERTEX
  8
0
  5
92E
 10
1.21713
 20
3.29925
 30
0.000000
  70
    32
  0
VERTEX
  8
0
  5
92F
 10
1.24743
 20
3.29925
 30
0.000000
  70
    32
  0
VERTEX
  8
0
  5
930
 10
1.27774
 20
3.29925
 30
0.000000
  70
    32
  0
VERTEX
  8
0
  5
931
 10
1.30807
 20
3.29925
 30
0.000000
  70
    32
  0
VERTEX
  8
0
  5
932
 10
1.33840
 20
3.29925
 30
0.000000
  70
    32
  0
VERTEX
  8
0
  5
933
 10
1.36874
 20
3.29925
 30
0.000000
  70
    32
  0
VERTEX
  8
0
  5
934
 10
1.39908
 20
3.29925
 30
0.000000
  70
    32
  0
VERTEX
  8
0
  5
935
 10
1.42944
 20
3.29925
 30
0.000000
  70
    32
  0
VERTEX
  8
0
  5
936
 10
1.45981
 20
3.29925
 30
0.000000
  70
    32
  0
VERTEX
  8
0
  5
937
 10
1.49018
 20
3.29925
 30
0.000000
  70
    32
  0
VERTEX
  8
0
  5
938
 10
1.52056
 20
3.29925
 30
0.000000
  70
    32
  0
VERTEX
  8
0
  5
939
 10
1.55095
 20
3.29925
 30
0.000000
  70
    32
  0
VERTEX
  8
0
  5
93A
 10
1.58135
 20
3.29925
 30
0.000000
  70
    32
  0
VERTEX
  8
0
  5
93B
 10
1.61176
 20
3.29925
 30
0.000000
  70
    32
  0
VERTEX
  8
0
  5
93C
 10
1.64217
 20
3.29925
 30
0.000000
  70
    32
  0
VERTEX
  8
0
  5
93D
 10
1.67259
 20
3.29925
 30
0.000000
  70
    32
  0
VERTEX
  8
0
  5
93E
 10
1.70302
 20
3.29925
 30
0.000000
  70
    32
  0
VERTEX
  8
0
  5
93F
 10
1.73346
 20
3.29925
 30
0.000000
  70
    32
  0
VERTEX
  8
0
  5
940
 10
1.76390
 20
3.29925
 30
0.000000
  70
    32
  0
VERTEX
  8
0
  5
941
 10
1.79435
 20
3.29925
 30
0.000000
  70
    32
  0
VERTEX
  8
0
  5
942
 10
1.82480
 20
3.29925
 30
0.000000
  70
    32
  0
VERTEX
  8
0
  5
943
 10
1.85526
 20
3.29925
 30
0.000000
  70
    32
  0
VERTEX
  8
0
  5
944
 10
1.88573
 20
3.29925
 30
0.000000
  70
    32
  0
VERTEX
  8
0
  5
945
 10
1.91620
 20
3.29925
 30
0.000000
  70
    32
  0
VERTEX
  8
0
  5
946
 10
1.94668
 20
3.29925
 30
0.000000
  70
    32
  0
VERTEX
  8
0
  5
947
 10
1.97717
 20
3.29925
 30
0.000000
  70
    32
  0
VERTEX
  8
0
  5
948
 10
2.00766
 20
3.29925
 30
0.000000
  70
    32
  0
VERTEX
  8
0
  5
949
 10
2.03815
 20
3.29925
 30
0.000000
  70
    32
  0
VERTEX
  8
0
  5
94A
 10
2.06865
 20
3.29925
 30
0.000000
  70
    32
  0
VERTEX
  8
0
  5
94B
 10
2.09916
 20
3.29925
 30
0.000000
  70
    32
  0
VERTEX
  8
0
  5
94C
 10
2.12967
 20
3.29925
 30
0.000000
  70
    32
  0
VERTEX
  8
0
  5
94D
 10
2.16018
 20
3.29925
 30
0.000000
  70
    32
  0
VERTEX
  8
0
  5
94E
 10
2.19070
 20
3.29925
 30
0.000000
  70
    32
  0
VERTEX
  8
0
  5
94F
 10
2.22122
 20
3.29925
 30
0.000000
  70
    32
  0
VERTEX
  8
0
  5
950
 10
2.25175
 20
3.29925
 30
0.000000
  70
    32
  0
VERTEX
  8
0
  5
951
 10
2.28228
 20
3.29925
 30
0.000000
  70
    32
  0
VERTEX
  8
0
  5
952
 10
2.31282
 20
3.29925
 30
0.000000
  70
    32
  0
VERTEX
  8
0
  5
953
 10
2.34335
 20
3.29925
 30
0.000000
  70
    32
  0
VERTEX
  8
0
  5
954
 10
2.37389
 20
3.29925
 30
0.000000
  70
    32
  0
VERTEX
  8
0
  5
955
 10
2.40444
 20
3.29925
 30
0.000000
  70
    32
  0
VERTEX
  8
0
  5
956
 10
2.43499
 20
3.29925
 30
0.000000
  70
    32
  0
VERTEX
  8
0
  5
957
 10
2.46554
 20
3.29925
 30
0.000000
  70
    32
  0
VERTEX
  8
0
  5
958
 10
2.49609
 20
3.29925
 30
0.000000
  70
    32
  0
VERTEX
  8
0
  5
959
 10
2.52665
 20
3.29925
 30
0.000000
  70
    32
  0
VERTEX
  8
0
  5
95A
 10
2.55720
 20
3.29925
 30
0.000000
  70
    32
  0
VERTEX
  8
0
  5
95B
 10
2.58776
 20
3.29925
 30
0.000000
  70
    32
  0
VERTEX
  8
0
  5
95C
 10
2.61833
 20
3.29925
 30
0.000000
  70
    32
  0
VERTEX
  8
0
  5
95D
 10
2.64889
 20
3.29925
 30
0.000000
  70
    32
  0
VERTEX
  8
0
  5
95E
 10
2.67945
 20
3.29925
 30
0.000000
  70
    32
  0
VERTEX
  8
0
  5
95F
 10
2.71002
 20
3.29925
 30
0.000000
  70
    32
  0
VERTEX
  8
0
  5
960
 10
2.74059
 20
3.29925
 30
0.000000
  70
    32
  0
VERTEX
  8
0
  5
961
 10
2.77116
 20
3.29925
 30
0.000000
  70
    32
  0
VERTEX
  8
0
  5
962
 10
2.80173
 20
3.29925
 30
0.000000
  70
    32
  0
VERTEX
  8
0
  5
963
 10
2.83230
 20
3.29925
 30
0.000000
  70
    32
  0
VERTEX
  8
0
  5
964
 10
2.86287
 20
3.29925
 30
0.000000
  70
    32
  0
VERTEX
  8
0
  5
965
 10
2.89344
 20
3.29925
 30
0.000000
  70
    32
  0
VERTEX
  8
0
  5
966
 10
2.92401
 20
3.29925
 30
0.000000
  70
    32
  0
VERTEX
  8
0
  5
967
 10
2.95459
 20
3.29925
 30
0.000000
  70
    32
  0
VERTEX
  8
0
  5
968
 10
2.96243
 20
3.29926
 30
0.000000
  70
    32
  0
VERTEX
  8
0
  5
969
 10
2.96907
 20
3.29931
 30
0.000000
  70
    32
  0
VERTEX
  8
0
  5
96A
 10
2.97571
 20
3.29939
 30
0.000000
  70
    32
  0
VERTEX
  8
0
  5
96B
 10
2.98235
 20
3.29950
 30
0.000000
  70
    32
  0
VERTEX
  8
0
  5
96C
 10
2.98900
 20
3.29965
 30
0.000000
  70
    32
  0
VERTEX
  8
0
  5
96D
 10
2.99564
 20
3.29982
 30
0.000000
  70
    32
  0
VERTEX
  8
0
  5
96E
 10
3.00228
 20
3.30002
 30
0.000000
  70
    32
  0
VERTEX
  8
0
  5
96F
 10
3.00892
 20
3.30025
 30
0.000000
  70
    32
  0
VERTEX
  8
0
  5
970
 10
3.01556
 20
3.30051
 30
0.000000
  70
    32
  0
VERTEX
  8
0
  5
971
 10
3.02220
 20
3.30079
 30
0.000000
  70
    32
  0
VERTEX
  8
0
  5
972
 10
3.02884
 20
3.30111
 30
0.000000
  70
    32
  0
VERTEX
  8
0
  5
973
 10
3.03548
 20
3.30145
 30
0.000000
  70
    32
  0
VERTEX
  8
0
  5
974
 10
3.04212
 20
3.30181
 30
0.000000
  70
    32
  0
VERTEX
  8
0
  5
975
 10
3.04875
 20
3.30220
 30
0.000000
  70
    32
  0
VERTEX
  8
0
  5
976
 10
3.05539
 20
3.30261
 30
0.000000
  70
    32
  0
VERTEX
  8
0
  5
977
 10
3.06203
 20
3.30305
 30
0.000000
  70
    32
  0
VERTEX
  8
0
  5
978
 10
3.06867
 20
3.30350
 30
0.000000
  70
    32
  0
VERTEX
  8
0
  5
979
 10
3.07531
 20
3.30398
 30
0.000000
  70
    32
  0
VERTEX
  8
0
  5
97A
 10
3.08194
 20
3.30448
 30
0.000000
  70
    32
  0
VERTEX
  8
0
  5
97B
 10
3.08858
 20
3.30501
 30
0.000000
  70
    32
  0
VERTEX
  8
0
  5
97C
 10
3.09522
 20
3.30555
 30
0.000000
  70
    32
  0
VERTEX
  8
0
  5
97D
 10
3.10185
 20
3.30611
 30
0.000000
  70
    32
  0
VERTEX
  8
0
  5
97E
 10
3.10849
 20
3.30669
 30
0.000000
  70
    32
  0
VERTEX
  8
0
  5
97F
 10
3.11512
 20
3.30728
 30
0.000000
  70
    32
  0
VERTEX
  8
0
  5
980
 10
3.12176
 20
3.30790
 30
0.000000
  70
    32
  0
VERTEX
  8
0
  5
981
 10
3.12840
 20
3.30853
 30
0.000000
  70
    32
  0
VERTEX
  8
0
  5
982
 10
3.13503
 20
3.30917
 30
0.000000
  70
    32
  0
VERTEX
  8
0
  5
983
 10
3.14167
 20
3.30983
 30
0.000000
  70
    32
  0
VERTEX
  8
0
  5
984
 10
3.14830
 20
3.31051
 30
0.000000
  70
    32
  0
VERTEX
  8
0
  5
985
 10
3.15494
 20
3.31120
 30
0.000000
  70
    32
  0
VERTEX
  8
0
  5
986
 10
3.16157
 20
3.31190
 30
0.000000
  70
    32
  0
VERTEX
  8
0
  5
987
 10
3.16821
 20
3.31261
 30
0.000000
  70
    32
  0
VERTEX
  8
0
  5
988
 10
3.17484
 20
3.31334
 30
0.000000
  70
    32
  0
VERTEX
  8
0
  5
989
 10
3.18148
 20
3.31407
 30
0.000000
  70
    32
  0
VERTEX
  8
0
  5
98A
 10
3.18811
 20
3.31482
 30
0.000000
  70
    32
  0
VERTEX
  8
0
  5
98B
 10
3.19475
 20
3.31557
 30
0.000000
  70
    32
  0
VERTEX
  8
0
  5
98C
 10
3.20138
 20
3.31634
 30
0.000000
  70
    32
  0
VERTEX
  8
0
  5
98D
 10
3.20802
 20
3.31711
 30
0.000000
  70
    32
  0
VERTEX
  8
0
  5
98E
 10
3.21465
 20
3.31789
 30
0.000000
  70
    32
  0
VERTEX
  8
0
  5
98F
 10
3.22129
 20
3.31868
 30
0.000000
  70
    32
  0
VERTEX
  8
0
  5
990
 10
3.22792
 20
3.31947
 30
0.000000
  70
    32
  0
VERTEX
  8
0
  5
991
 10
3.23455
 20
3.32027
 30
0.000000
  70
    32
  0
VERTEX
  8
0
  5
992
 10
3.24119
 20
3.32107
 30
0.000000
  70
    32
  0
VERTEX
  8
0
  5
993
 10
3.24782
 20
3.32188
 30
0.000000
  70
    32
  0
VERTEX
  8
0
  5
994
 10
3.25446
 20
3.32269
 30
0.000000
  70
    32
  0
VERTEX
  8
0
  5
995
 10
3.26109
 20
3.32350
 30
0.000000
  70
    32
  0
VERTEX
  8
0
  5
996
 10
3.26773
 20
3.32432
 30
0.000000
  70
    32
  0
VERTEX
  8
0
  5
997
 10
3.27437
 20
3.32513
 30
0.000000
  70
    32
  0
VERTEX
  8
0
  5
998
 10
3.28100
 20
3.32595
 30
0.000000
  70
    32
  0
VERTEX
  8
0
  5
999
 10
3.28764
 20
3.32677
 30
0.000000
  70
    32
  0
VERTEX
  8
0
  5
99A
 10
3.29427
 20
3.32758
 30
0.000000
  70
    32
  0
VERTEX
  8
0
  5
99B
 10
3.30091
 20
3.32840
 30
0.000000
  70
    32
  0
VERTEX
  8
0
  5
99C
 10
3.30754
 20
3.32921
 30
0.000000
  70
    32
  0
VERTEX
  8
0
  5
99D
 10
3.31418
 20
3.33002
 30
0.000000
  70
    32
  0
VERTEX
  8
0
  5
99E
 10
3.32082
 20
3.33082
 30
0.000000
  70
    32
  0
VERTEX
  8
0
  5
99F
 10
3.32745
 20
3.33162
 30
0.000000
  70
    32
  0
VERTEX
  8
0
  5
9A0
 10
3.33409
 20
3.33242
 30
0.000000
  70
    32
  0
VERTEX
  8
0
  5
9A1
 10
3.34073
 20
3.33321
 30
0.000000
  70
    32
  0
VERTEX
  8
0
  5
9A2
 10
3.34736
 20
3.33400
 30
0.000000
  70
    32
  0
VERTEX
  8
0
  5
9A3
 10
3.35400
 20
3.33477
 30
0.000000
  70
    32
  0
VERTEX
  8
0
  5
9A4
 10
3.36064
 20
3.33554
 30
0.000000
  70
    32
  0
VERTEX
  8
0
  5
9A5
 10
3.36728
 20
3.33631
 30
0.000000
  70
    32
  0
VERTEX
  8
0
  5
9A6
 10
3.37392
 20
3.33706
 30
0.000000
  70
    32
  0
VERTEX
  8
0
  5
9A7
 10
3.38055
 20
3.33780
 30
0.000000
  70
    32
  0
VERTEX
  8
0
  5
9A8
 10
3.38719
 20
3.33853
 30
0.000000
  70
    32
  0
VERTEX
  8
0
  5
9A9
 10
3.39383
 20
3.33925
 30
0.000000
  70
    32
  0
VERTEX
  8
0
  5
9AA
 10
3.40047
 20
3.33996
 30
0.000000
  70
    32
  0
VERTEX
  8
0
  5
9AB
 10
3.40711
 20
3.34066
 30
0.000000
  70
    32
  0
VERTEX
  8
0
  5
9AC
 10
3.41375
 20
3.34134
 30
0.000000
  70
    32
  0
VERTEX
  8
0
  5
9AD
 10
3.42039
 20
3.34201
 30
0.000000
  70
    32
  0
VERTEX
  8
0
  5
9AE
 10
3.42704
 20
3.34267
 30
0.000000
  70
    32
  0
VERTEX
  8
0
  5
9AF
 10
3.43368
 20
3.34331
 30
0.000000
  70
    32
  0
VERTEX
  8
0
  5
9B0
 10
3.44032
 20
3.34393
 30
0.000000
  70
    32
  0
VERTEX
  8
0
  5
9B1
 10
3.44696
 20
3.34454
 30
0.000000
  70
    32
  0
VERTEX
  8
0
  5
9B2
 10
3.45361
 20
3.34513
 30
0.000000
  70
    32
  0
VERTEX
  8
0
  5
9B3
 10
3.46025
 20
3.34570
 30
0.000000
  70
    32
  0
VERTEX
  8
0
  5
9B4
 10
3.46689
 20
3.34626
 30
0.000000
  70
    32
  0
VERTEX
  8
0
  5
9B5
 10
3.47354
 20
3.34679
 30
0.000000
  70
    32
  0
VERTEX
  8
0
  5
9B6
 10
3.48018
 20
3.34731
 30
0.000000
  70
    32
  0
VERTEX
  8
0
  5
9B7
 10
3.48683
 20
3.34780
 30
0.000000
  70
    32
  0
VERTEX
  8
0
  5
9B8
 10
3.49347
 20
3.34827
 30
0.000000
  70
    32
  0
VERTEX
  8
0
  5
9B9
 10
3.50012
 20
3.34872
 30
0.000000
  70
    32
  0
VERTEX
  8
0
  5
9BA
 10
3.50677
 20
3.34915
 30
0.000000
  70
    32
  0
VERTEX
  8
0
  5
9BB
 10
3.51342
 20
3.34955
 30
0.000000
  70
    32
  0
VERTEX
  8
0
  5
9BC
 10
3.52006
 20
3.34993
 30
0.000000
  70
    32
  0
VERTEX
  8
0
  5
9BD
 10
3.52671
 20
3.35029
 30
0.000000
  70
    32
  0
VERTEX
  8
0
  5
9BE
 10
3.53336
 20
3.35062
 30
0.000000
  70
    32
  0
VERTEX
  8
0
  5
9BF
 10
3.54001
 20
3.35092
 30
0.000000
  70
    32
  0
VERTEX
  8
0
  5
9C0
 10
3.54666
 20
3.35120
 30
0.000000
  70
    32
  0
VERTEX
  8
0
  5
9C1
 10
3.55332
 20
3.35145
 30
0.000000
  70
    32
  0
VERTEX
  8
0
  5
9C2
 10
3.55997
 20
3.35167
 30
0.000000
  70
    32
  0
VERTEX
  8
0
  5
9C3
 10
3.56662
 20
3.35186
 30
0.000000
  70
    32
  0
VERTEX
  8
0
  5
9C4
 10
3.57327
 20
3.35202
 30
0.000000
  70
    32
  0
VERTEX
  8
0
  5
9C5
 10
3.57993
 20
3.35215
 30
0.000000
  70
    32
  0
VERTEX
  8
0
  5
9C6
 10
3.58658
 20
3.35225
 30
0.000000
  70
    32
  0
VERTEX
  8
0
  5
9C7
 10
3.59324
 20
3.35232
 30
0.000000
  70
    32
  0
VERTEX
  8
0
  5
9C8
 10
3.59989
 20
3.35236
 30
0.000000
  70
    32
  0
VERTEX
  8
0
  5
9C9
 10
3.60708
 20
3.35236
 30
0.000000
  70
    32
  0
VERTEX
  8
0
  5
9CA
 10
3.61507
 20
3.35236
 30
0.000000
  70
    32
  0
VERTEX
  8
0
  5
9CB
 10
3.62305
 20
3.35236
 30
0.000000
  70
    32
  0
VERTEX
  8
0
  5
9CC
 10
3.63102
 20
3.35236
 30
0.000000
  70
    32
  0
VERTEX
  8
0
  5
9CD
 10
3.63899
 20
3.35236
 30
0.000000
  70
    32
  0
VERTEX
  8
0
  5
9CE
 10
3.64696
 20
3.35236
 30
0.000000
  70
    32
  0
VERTEX
  8
0
  5
9CF
 10
3.65492
 20
3.35235
 30
0.000000
  70
    32
  0
VERTEX
  8
0
  5
9D0
 10
3.66288
 20
3.35235
 30
0.000000
  70
    32
  0
VERTEX
  8
0
  5
9D1
 10
3.67084
 20
3.35235
 30
0.000000
  70
    32
  0
VERTEX
  8
0
  5
9D2
 10
3.67879
 20
3.35235
 30
0.000000
  70
    32
  0
VERTEX
  8
0
  5
9D3
 10
3.68674
 20
3.35235
 30
0.000000
  70
    32
  0
VERTEX
  8
0
  5
9D4
 10
3.69468
 20
3.35236
 30
0.000000
  70
    32
  0
VERTEX
  8
0
  5
9D5
 10
3.70262
 20
3.35236
 30
0.000000
  70
    32
  0
VERTEX
  8
0
  5
9D6
 10
3.71056
 20
3.35236
 30
0.000000
  70
    32
  0
VERTEX
  8
0
  5
9D7
 10
3.71850
 20
3.35237
 30
0.000000
  70
    32
  0
VERTEX
  8
0
  5
9D8
 10
3.72643
 20
3.35238
 30
0.000000
  70
    32
  0
VERTEX
  8
0
  5
9D9
 10
3.73436
 20
3.35239
 30
0.000000
  70
    32
  0
VERTEX
  8
0
  5
9DA
 10
3.74228
 20
3.35240
 30
0.000000
  70
    32
  0
VERTEX
  8
0
  5
9DB
 10
3.75020
 20
3.35242
 30
0.000000
  70
    32
  0
VERTEX
  8
0
  5
9DC
 10
3.75812
 20
3.35243
 30
0.000000
  70
    32
  0
VERTEX
  8
0
  5
9DD
 10
3.76604
 20
3.35245
 30
0.000000
  70
    32
  0
VERTEX
  8
0
  5
9DE
 10
3.77395
 20
3.35248
 30
0.000000
  70
    32
  0
VERTEX
  8
0
  5
9DF
 10
3.78187
 20
3.35250
 30
0.000000
  70
    32
  0
VERTEX
  8
0
  5
9E0
 10
3.78977
 20
3.35253
 30
0.000000
  70
    32
  0
VERTEX
  8
0
  5
9E1
 10
3.79768
 20
3.35257
 30
0.000000
  70
    32
  0
VERTEX
  8
0
  5
9E2
 10
3.80558
 20
3.35260
 30
0.000000
  70
    32
  0
VERTEX
  8
0
  5
9E3
 10
3.81349
 20
3.35265
 30
0.000000
  70
    32
  0
VERTEX
  8
0
  5
9E4
 10
3.82138
 20
3.35269
 30
0.000000
  70
    32
  0
VERTEX
  8
0
  5
9E5
 10
3.82928
 20
3.35274
 30
0.000000
  70
    32
  0
VERTEX
  8
0
  5
9E6
 10
3.83718
 20
3.35279
 30
0.000000
  70
    32
  0
VERTEX
  8
0
  5
9E7
 10
3.84507
 20
3.35285
 30
0.000000
  70
    32
  0
VERTEX
  8
0
  5
9E8
 10
3.85296
 20
3.35291
 30
0.000000
  70
    32
  0
VERTEX
  8
0
  5
9E9
 10
3.86085
 20
3.35298
 30
0.000000
  70
    32
  0
VERTEX
  8
0
  5
9EA
 10
3.86874
 20
3.35305
 30
0.000000
  70
    32
  0
VERTEX
  8
0
  5
9EB
 10
3.87662
 20
3.35313
 30
0.000000
  70
    32
  0
VERTEX
  8
0
  5
9EC
 10
3.88451
 20
3.35322
 30
0.000000
  70
    32
  0
VERTEX
  8
0
  5
9ED
 10
3.89239
 20
3.35331
 30
0.000000
  70
    32
  0
VERTEX
  8
0
  5
9EE
 10
3.90027
 20
3.35340
 30
0.000000
  70
    32
  0
VERTEX
  8
0
  5
9EF
 10
3.90815
 20
3.35350
 30
0.000000
  70
    32
  0
VERTEX
  8
0
  5
9F0
 10
3.91603
 20
3.35361
 30
0.000000
  70
    32
  0
VERTEX
  8
0
  5
9F1
 10
3.92390
 20
3.35373
 30
0.000000
  70
    32
  0
VERTEX
  8
0
  5
9F2
 10
3.93178
 20
3.35385
 30
0.000000
  70
    32
  0
VERTEX
  8
0
  5
9F3
 10
3.93965
 20
3.35398
 30
0.000000
  70
    32
  0
VERTEX
  8
0
  5
9F4
 10
3.94753
 20
3.35411
 30
0.000000
  70
    32
  0
VERTEX
  8
0
  5
9F5
 10
3.95540
 20
3.35425
 30
0.000000
  70
    32
  0
VERTEX
  8
0
  5
9F6
 10
3.96327
 20
3.35440
 30
0.000000
  70
    32
  0
VERTEX
  8
0
  5
9F7
 10
3.97114
 20
3.35456
 30
0.000000
  70
    32
  0
VERTEX
  8
0
  5
9F8
 10
3.97901
 20
3.35473
 30
0.000000
  70
    32
  0
VERTEX
  8
0
  5
9F9
 10
3.98688
 20
3.35490
 30
0.000000
  70
    32
  0
VERTEX
  8
0
  5
9FA
 10
3.99475
 20
3.35508
 30
0.000000
  70
    32
  0
VERTEX
  8
0
  5
9FB
 10
4.00262
 20
3.35527
 30
0.000000
  70
    32
  0
VERTEX
  8
0
  5
9FC
 10
4.01049
 20
3.35547
 30
0.000000
  70
    32
  0
VERTEX
  8
0
  5
9FD
 10
4.01835
 20
3.35567
 30
0.000000
  70
    32
  0
VERTEX
  8
0
  5
9FE
 10
4.02622
 20
3.35589
 30
0.000000
  70
    32
  0
VERTEX
  8
0
  5
9FF
 10
4.03409
 20
3.35611
 30
0.000000
  70
    32
  0
VERTEX
  8
0
  5
A00
 10
4.04195
 20
3.35635
 30
0.000000
  70
    32
  0
VERTEX
  8
0
  5
A01
 10
4.04982
 20
3.35659
 30
0.000000
  70
    32
  0
VERTEX
  8
0
  5
A02
 10
4.05769
 20
3.35684
 30
0.000000
  70
    32
  0
VERTEX
  8
0
  5
A03
 10
4.06556
 20
3.35711
 30
0.000000
  70
    32
  0
VERTEX
  8
0
  5
A04
 10
4.07342
 20
3.35738
 30
0.000000
  70
    32
  0
VERTEX
  8
0
  5
A05
 10
4.08129
 20
3.35766
 30
0.000000
  70
    32
  0
VERTEX
  8
0
  5
A06
 10
4.08916
 20
3.35795
 30
0.000000
  70
    32
  0
VERTEX
  8
0
  5
A07
 10
4.09703
 20
3.35826
 30
0.000000
  70
    32
  0
VERTEX
  8
0
  5
A08
 10
4.10489
 20
3.35857
 30
0.000000
  70
    32
  0
VERTEX
  8
0
  5
A09
 10
4.11276
 20
3.35890
 30
0.000000
  70
    32
  0
VERTEX
  8
0
  5
A0A
 10
4.12063
 20
3.35923
 30
0.000000
  70
    32
  0
VERTEX
  8
0
  5
A0B
 10
4.12851
 20
3.35958
 30
0.000000
  70
    32
  0
VERTEX
  8
0
  5
A0C
 10
4.13638
 20
3.35994
 30
0.000000
  70
    32
  0
VERTEX
  8
0
  5
A0D
 10
4.14425
 20
3.36031
 30
0.000000
  70
    32
  0
VERTEX
  8
0
  5
A0E
 10
4.15212
 20
3.36069
 30
0.000000
  70
    32
  0
VERTEX
  8
0
  5
A0F
 10
4.16000
 20
3.36109
 30
0.000000
  70
    32
  0
VERTEX
  8
0
  5
A10
 10
4.16787
 20
3.36149
 30
0.000000
  70
    32
  0
VERTEX
  8
0
  5
A11
 10
4.17575
 20
3.36191
 30
0.000000
  70
    32
  0
VERTEX
  8
0
  5
A12
 10
4.18363
 20
3.36234
 30
0.000000
  70
    32
  0
VERTEX
  8
0
  5
A13
 10
4.19151
 20
3.36279
 30
0.000000
  70
    32
  0
VERTEX
  8
0
  5
A14
 10
4.19939
 20
3.36325
 30
0.000000
  70
    32
  0
VERTEX
  8
0
  5
A15
 10
4.20727
 20
3.36372
 30
0.000000
  70
    32
  0
VERTEX
  8
0
  5
A16
 10
4.21515
 20
3.36420
 30
0.000000
  70
    32
  0
VERTEX
  8
0
  5
A17
 10
4.22304
 20
3.36470
 30
0.000000
  70
    32
  0
VERTEX
  8
0
  5
A18
 10
4.23093
 20
3.36521
 30
0.000000
  70
    32
  0
VERTEX
  8
0
  5
A19
 10
4.23882
 20
3.36573
 30
0.000000
  70
    32
  0
VERTEX
  8
0
  5
A1A
 10
4.24671
 20
3.36627
 30
0.000000
  70
    32
  0
VERTEX
  8
0
  5
A1B
 10
4.25460
 20
3.36683
 30
0.000000
  70
    32
  0
VERTEX
  8
0
  5
A1C
 10
4.26250
 20
3.36739
 30
0.000000
  70
    32
  0
VERTEX
  8
0
  5
A1D
 10
4.27039
 20
3.36798
 30
0.000000
  70
    32
  0
VERTEX
  8
0
  5
A1E
 10
4.27829
 20
3.36857
 30
0.000000
  70
    32
  0
VERTEX
  8
0
  5
A1F
 10
4.28619
 20
3.36919
 30
0.000000
  70
    32
  0
VERTEX
  8
0
  5
A20
 10
4.29410
 20
3.36981
 30
0.000000
  70
    32
  0
VERTEX
  8
0
  5
A21
 10
4.30200
 20
3.37045
 30
0.000000
  70
    32
  0
VERTEX
  8
0
  5
A22
 10
4.30991
 20
3.37111
 30
0.000000
  70
    32
  0
VERTEX
  8
0
  5
A23
 10
4.31782
 20
3.37179
 30
0.000000
  70
    32
  0
VERTEX
  8
0
  5
A24
 10
4.32574
 20
3.37248
 30
0.000000
  70
    32
  0
VERTEX
  8
0
  5
A25
 10
4.33366
 20
3.37318
 30
0.000000
  70
    32
  0
VERTEX
  8
0
  5
A26
 10
4.34158
 20
3.37390
 30
0.000000
  70
    32
  0
VERTEX
  8
0
  5
A27
 10
4.34950
 20
3.37464
 30
0.000000
  70
    32
  0
VERTEX
  8
0
  5
A28
 10
4.35742
 20
3.37540
 30
0.000000
  70
    32
  0
VERTEX
  8
0
  5
A29
 10
4.36535
 20
3.37617
 30
0.000000
  70
    32
  0
VERTEX
  8
0
  5
A2A
 10
4.37328
 20
3.37696
 30
0.000000
  70
    32
  0
VERTEX
  8
0
  5
A2B
 10
4.38133
 20
3.37776
 30
0.000000
  70
    32
  0
VERTEX
  8
0
  5
A2C
 10
4.38939
 20
3.37854
 30
0.000000
  70
    32
  0
VERTEX
  8
0
  5
A2D
 10
4.39745
 20
3.37932
 30
0.000000
  70
    32
  0
VERTEX
  8
0
  5
A2E
 10
4.40550
 20
3.38007
 30
0.000000
  70
    32
  0
VERTEX
  8
0
  5
A2F
 10
4.41354
 20
3.38082
 30
0.000000
  70
    32
  0
VERTEX
  8
0
  5
A30
 10
4.42159
 20
3.38154
 30
0.000000
  70
    32
  0
VERTEX
  8
0
  5
A31
 10
4.42962
 20
3.38226
 30
0.000000
  70
    32
  0
VERTEX
  8
0
  5
A32
 10
4.43766
 20
3.38296
 30
0.000000
  70
    32
  0
VERTEX
  8
0
  5
A33
 10
4.44569
 20
3.38364
 30
0.000000
  70
    32
  0
VERTEX
  8
0
  5
A34
 10
4.45371
 20
3.38432
 30
0.000000
  70
    32
  0
VERTEX
  8
0
  5
A35
 10
4.46173
 20
3.38498
 30
0.000000
  70
    32
  0
VERTEX
  8
0
  5
A36
 10
4.46975
 20
3.38562
 30
0.000000
  70
    32
  0
VERTEX
  8
0
  5
A37
 10
4.47777
 20
3.38625
 30
0.000000
  70
    32
  0
VERTEX
  8
0
  5
A38
 10
4.48578
 20
3.38687
 30
0.000000
  70
    32
  0
VERTEX
  8
0
  5
A39
 10
4.49378
 20
3.38748
 30
0.000000
  70
    32
  0
VERTEX
  8
0
  5
A3A
 10
4.50179
 20
3.38807
 30
0.000000
  70
    32
  0
VERTEX
  8
0
  5
A3B
 10
4.50979
 20
3.38865
 30
0.000000
  70
    32
  0
VERTEX
  8
0
  5
A3C
 10
4.51779
 20
3.38921
 30
0.000000
  70
    32
  0
VERTEX
  8
0
  5
A3D
 10
4.52578
 20
3.38977
 30
0.000000
  70
    32
  0
VERTEX
  8
0
  5
A3E
 10
4.53377
 20
3.39031
 30
0.000000
  70
    32
  0
VERTEX
  8
0
  5
A3F
 10
4.54176
 20
3.39084
 30
0.000000
  70
    32
  0
VERTEX
  8
0
  5
A40
 10
4.54975
 20
3.39136
 30
0.000000
  70
    32
  0
VERTEX
  8
0
  5
A41
 10
4.55773
 20
3.39186
 30
0.000000
  70
    32
  0
VERTEX
  8
0
  5
A42
 10
4.56571
 20
3.39236
 30
0.000000
  70
    32
  0
VERTEX
  8
0
  5
A43
 10
4.57369
 20
3.39284
 30
0.000000
  70
    32
  0
VERTEX
  8
0
  5
A44
 10
4.58167
 20
3.39331
 30
0.000000
  70
    32
  0
VERTEX
  8
0
  5
A45
 10
4.58964
 20
3.39377
 30
0.000000
  70
    32
  0
VERTEX
  8
0
  5
A46
 10
4.59762
 20
3.39421
 30
0.000000
  70
    32
  0
VERTEX
  8
0
  5
A47
 10
4.60559
 20
3.39465
 30
0.000000
  70
    32
  0
VERTEX
  8
0
  5
A48
 10
4.61356
 20
3.39507
 30
0.000000
  70
    32
  0
VERTEX
  8
0
  5
A49
 10
4.62152
 20
3.39549
 30
0.000000
  70
    32
  0
VERTEX
  8
0
  5
A4A
 10
4.62949
 20
3.39589
 30
0.000000
  70
    32
  0
VERTEX
  8
0
  5
A4B
 10
4.63746
 20
3.39629
 30
0.000000
  70
    32
  0
VERTEX
  8
0
  5
A4C
 10
4.64542
 20
3.39667
 30
0.000000
  70
    32
  0
VERTEX
  8
0
  5
A4D
 10
4.65338
 20
3.39704
 30
0.000000
  70
    32
  0
VERTEX
  8
0
  5
A4E
 10
4.66134
 20
3.39740
 30
0.000000
  70
    32
  0
VERTEX
  8
0
  5
A4F
 10
4.66930
 20
3.39775
 30
0.000000
  70
    32
  0
VERTEX
  8
0
  5
A50
 10
4.67726
 20
3.39810
 30
0.000000
  70
    32
  0
VERTEX
  8
0
  5
A51
 10
4.68522
 20
3.39843
 30
0.000000
  70
    32
  0
VERTEX
  8
0
  5
A52
 10
4.69318
 20
3.39875
 30
0.000000
  70
    32
  0
VERTEX
  8
0
  5
A53
 10
4.70114
 20
3.39906
 30
0.000000
  70
    32
  0
VERTEX
  8
0
  5
A54
 10
4.70909
 20
3.39937
 30
0.000000
  70
    32
  0
VERTEX
  8
0
  5
A55
 10
4.71705
 20
3.39966
 30
0.000000
  70
    32
  0
VERTEX
  8
0
  5
A56
 10
4.72501
 20
3.39995
 30
0.000000
  70
    32
  0
VERTEX
  8
0
  5
A57
 10
4.73296
 20
3.40022
 30
0.000000
  70
    32
  0
VERTEX
  8
0
  5
A58
 10
4.74092
 20
3.40049
 30
0.000000
  70
    32
  0
VERTEX
  8
0
  5
A59
 10
4.74888
 20
3.40075
 30
0.000000
  70
    32
  0
VERTEX
  8
0
  5
A5A
 10
4.75684
 20
3.40100
 30
0.000000
  70
    32
  0
VERTEX
  8
0
  5
A5B
 10
4.76479
 20
3.40124
 30
0.000000
  70
    32
  0
VERTEX
  8
0
  5
A5C
 10
4.77275
 20
3.40147
 30
0.000000
  70
    32
  0
VERTEX
  8
0
  5
A5D
 10
4.78071
 20
3.40170
 30
0.000000
  70
    32
  0
VERTEX
  8
0
  5
A5E
 10
4.78867
 20
3.40192
 30
0.000000
  70
    32
  0
VERTEX
  8
0
  5
A5F
 10
4.79663
 20
3.40213
 30
0.000000
  70
    32
  0
VERTEX
  8
0
  5
A60
 10
4.80459
 20
3.40233
 30
0.000000
  70
    32
  0
VERTEX
  8
0
  5
A61
 10
4.81256
 20
3.40252
 30
0.000000
  70
    32
  0
VERTEX
  8
0
  5
A62
 10
4.82052
 20
3.40271
 30
0.000000
  70
    32
  0
VERTEX
  8
0
  5
A63
 10
4.82848
 20
3.40289
 30
0.000000
  70
    32
  0
VERTEX
  8
0
  5
A64
 10
4.83645
 20
3.40306
 30
0.000000
  70
    32
  0
VERTEX
  8
0
  5
A65
 10
4.84442
 20
3.40323
 30
0.000000
  70
    32
  0
VERTEX
  8
0
  5
A66
 10
4.85239
 20
3.40339
 30
0.000000
  70
    32
  0
VERTEX
  8
0
  5
A67
 10
4.86036
 20
3.40354
 30
0.000000
  70
    32
  0
VERTEX
  8
0
  5
A68
 10
4.86833
 20
3.40368
 30
0.000000
  70
    32
  0
VERTEX
  8
0
  5
A69
 10
4.87631
 20
3.40382
 30
0.000000
  70
    32
  0
VERTEX
  8
0
  5
A6A
 10
4.88429
 20
3.40396
 30
0.000000
  70
    32
  0
VERTEX
  8
0
  5
A6B
 10
4.89227
 20
3.40408
 30
0.000000
  70
    32
  0
VERTEX
  8
0
  5
A6C
 10
4.90025
 20
3.40420
 30
0.000000
  70
    32
  0
VERTEX
  8
0
  5
A6D
 10
4.90823
 20
3.40432
 30
0.000000
  70
    32
  0
VERTEX
  8
0
  5
A6E
 10
4.91622
 20
3.40443
 30
0.000000
  70
    32
  0
VERTEX
  8
0
  5
A6F
 10
4.92421
 20
3.40453
 30
0.000000
  70
    32
  0
VERTEX
  8
0
  5
A70
 10
4.93220
 20
3.40463
 30
0.000000
  70
    32
  0
VERTEX
  8
0
  5
A71
 10
4.94020
 20
3.40472
 30
0.000000
  70
    32
  0
VERTEX
  8
0
  5
A72
 10
4.94820
 20
3.40481
 30
0.000000
  70
    32
  0
VERTEX
  8
0
  5
A73
 10
4.95620
 20
3.40489
 30
0.000000
  70
    32
  0
VERTEX
  8
0
  5
A74
 10
4.96420
 20
3.40496
 30
0.000000
  70
    32
  0
VERTEX
  8
0
  5
A75
 10
4.97221
 20
3.40504
 30
0.000000
  70
    32
  0
VERTEX
  8
0
  5
A76
 10
4.98022
 20
3.40510
 30
0.000000
  70
    32
  0
VERTEX
  8
0
  5
A77
 10
4.98824
 20
3.40517
 30
0.000000
  70
    32
  0
VERTEX
  8
0
  5
A78
 10
4.99626
 20
3.40523
 30
0.000000
  70
    32
  0
VERTEX
  8
0
  5
A79
 10
5.00428
 20
3.40528
 30
0.000000
  70
    32
  0
VERTEX
  8
0
  5
A7A
 10
5.01230
 20
3.40533
 30
0.000000
  70
    32
  0
VERTEX
  8
0
  5
A7B
 10
5.02033
 20
3.40538
 30
0.000000
  70
    32
  0
VERTEX
  8
0
  5
A7C
 10
5.02837
 20
3.40542
 30
0.000000
  70
    32
  0
VERTEX
  8
0
  5
A7D
 10
5.03641
 20
3.40546
 30
0.000000
  70
    32
  0
VERTEX
  8
0
  5
A7E
 10
5.04445
 20
3.40549
 30
0.000000
  70
    32
  0
VERTEX
  8
0
  5
A7F
 10
5.05250
 20
3.40553
 30
0.000000
  70
    32
  0
VERTEX
  8
0
  5
A80
 10
5.06055
 20
3.40555
 30
0.000000
  70
    32
  0
VERTEX
  8
0
  5
A81
 10
5.06861
 20
3.40558
 30
0.000000
  70
    32
  0
VERTEX
  8
0
  5
A82
 10
5.07667
 20
3.40560
 30
0.000000
  70
    32
  0
VERTEX
  8
0
  5
A83
 10
5.08474
 20
3.40562
 30
0.000000
  70
    32
  0
VERTEX
  8
0
  5
A84
 10
5.09281
 20
3.40564
 30
0.000000
  70
    32
  0
VERTEX
  8
0
  5
A85
 10
5.10088
 20
3.40565
 30
0.000000
  70
    32
  0
VERTEX
  8
0
  5
A86
 10
5.10897
 20
3.40567
 30
0.000000
  70
    32
  0
VERTEX
  8
0
  5
A87
 10
5.11705
 20
3.40568
 30
0.000000
  70
    32
  0
VERTEX
  8
0
  5
A88
 10
5.12515
 20
3.40568
 30
0.000000
  70
    32
  0
VERTEX
  8
0
  5
A89
 10
5.13325
 20
3.40569
 30
0.000000
  70
    32
  0
VERTEX
  8
0
  5
A8A
 10
5.14135
 20
3.40569
 30
0.000000
  70
    32
  0
VERTEX
  8
0
  5
A8B
 10
5.14946
 20
3.40569
 30
0.000000
  70
    32
  0
VERTEX
  8
0
  5
A8C
 10
5.15705
 20
3.40570
 30
0.000000
  70
    32
  0
VERTEX
  8
0
  5
A8D
 10
5.16342
 20
3.40572
 30
0.000000
  70
    32
  0
VERTEX
  8
0
  5
A8E
 10
5.16979
 20
3.40578
 30
0.000000
  70
    32
  0
VERTEX
  8
0
  5
A8F
 10
5.17615
 20
3.40587
 30
0.000000
  70
    32
  0
VERTEX
  8
0
  5
A90
 10
5.18252
 20
3.40600
 30
0.000000
  70
    32
  0
VERTEX
  8
0
  5
A91
 10
5.18888
 20
3.40615
 30
0.000000
  70
    32
  0
VERTEX
  8
0
  5
A92
 10
5.19524
 20
3.40633
 30
0.000000
  70
    32
  0
VERTEX
  8
0
  5
A93
 10
5.20160
 20
3.40655
 30
0.000000
  70
    32
  0
VERTEX
  8
0
  5
A94
 10
5.20796
 20
3.40679
 30
0.000000
  70
    32
  0
VERTEX
  8
0
  5
A95
 10
5.21432
 20
3.40706
 30
0.000000
  70
    32
  0
VERTEX
  8
0
  5
A96
 10
5.22067
 20
3.40735
 30
0.000000
  70
    32
  0
VERTEX
  8
0
  5
A97
 10
5.22703
 20
3.40768
 30
0.000000
  70
    32
  0
VERTEX
  8
0
  5
A98
 10
5.23338
 20
3.40802
 30
0.000000
  70
    32
  0
VERTEX
  8
0
  5
A99
 10
5.23973
 20
3.40840
 30
0.000000
  70
    32
  0
VERTEX
  8
0
  5
A9A
 10
5.24608
 20
3.40880
 30
0.000000
  70
    32
  0
VERTEX
  8
0
  5
A9B
 10
5.25243
 20
3.40922
 30
0.000000
  70
    32
  0
VERTEX
  8
0
  5
A9C
 10
5.25878
 20
3.40966
 30
0.000000
  70
    32
  0
VERTEX
  8
0
  5
A9D
 10
5.26513
 20
3.41013
 30
0.000000
  70
    32
  0
VERTEX
  8
0
  5
A9E
 10
5.27147
 20
3.41062
 30
0.000000
  70
    32
  0
VERTEX
  8
0
  5
A9F
 10
5.27782
 20
3.41113
 30
0.000000
  70
    32
  0
VERTEX
  8
0
  5
AA0
 10
5.28416
 20
3.41166
 30
0.000000
  70
    32
  0
VERTEX
  8
0
  5
AA1
 10
5.29050
 20
3.41221
 30
0.000000
  70
    32
  0
VERTEX
  8
0
  5
AA2
 10
5.29685
 20
3.41278
 30
0.000000
  70
    32
  0
VERTEX
  8
0
  5
AA3
 10
5.30319
 20
3.41337
 30
0.000000
  70
    32
  0
VERTEX
  8
0
  5
AA4
 10
5.30953
 20
3.41397
 30
0.000000
  70
    32
  0
VERTEX
  8
0
  5
AA5
 10
5.31587
 20
3.41460
 30
0.000000
  70
    32
  0
VERTEX
  8
0
  5
AA6
 10
5.32221
 20
3.41523
 30
0.000000
  70
    32
  0
VERTEX
  8
0
  5
AA7
 10
5.32854
 20
3.41589
 30
0.000000
  70
    32
  0
VERTEX
  8
0
  5
AA8
 10
5.33488
 20
3.41656
 30
0.000000
  70
    32
  0
VERTEX
  8
0
  5
AA9
 10
5.34122
 20
3.41724
 30
0.000000
  70
    32
  0
VERTEX
  8
0
  5
AAA
 10
5.34755
 20
3.41793
 30
0.000000
  70
    32
  0
VERTEX
  8
0
  5
AAB
 10
5.35389
 20
3.41864
 30
0.000000
  70
    32
  0
VERTEX
  8
0
  5
AAC
 10
5.36023
 20
3.41936
 30
0.000000
  70
    32
  0
VERTEX
  8
0
  5
AAD
 10
5.36656
 20
3.42010
 30
0.000000
  70
    32
  0
VERTEX
  8
0
  5
AAE
 10
5.37289
 20
3.42084
 30
0.000000
  70
    32
  0
VERTEX
  8
0
  5
AAF
 10
5.37923
 20
3.42159
 30
0.000000
  70
    32
  0
VERTEX
  8
0
  5
AB0
 10
5.38556
 20
3.42235
 30
0.000000
  70
    32
  0
VERTEX
  8
0
  5
AB1
 10
5.39189
 20
3.42312
 30
0.000000
  70
    32
  0
VERTEX
  8
0
  5
AB2
 10
5.39823
 20
3.42390
 30
0.000000
  70
    32
  0
VERTEX
  8
0
  5
AB3
 10
5.40456
 20
3.42469
 30
0.000000
  70
    32
  0
VERTEX
  8
0
  5
AB4
 10
5.41089
 20
3.42548
 30
0.000000
  70
    32
  0
VERTEX
  8
0
  5
AB5
 10
5.41722
 20
3.42628
 30
0.000000
  70
    32
  0
VERTEX
  8
0
  5
AB6
 10
5.42356
 20
3.42708
 30
0.000000
  70
    32
  0
VERTEX
  8
0
  5
AB7
 10
5.42989
 20
3.42789
 30
0.000000
  70
    32
  0
VERTEX
  8
0
  5
AB8
 10
5.43622
 20
3.42870
 30
0.000000
  70
    32
  0
VERTEX
  8
0
  5
AB9
 10
5.44255
 20
3.42951
 30
0.000000
  70
    32
  0
VERTEX
  8
0
  5
ABA
 10
5.44888
 20
3.43033
 30
0.000000
  70
    32
  0
VERTEX
  8
0
  5
ABB
 10
5.45522
 20
3.43115
 30
0.000000
  70
    32
  0
VERTEX
  8
0
  5
ABC
 10
5.46155
 20
3.43197
 30
0.000000
  70
    32
  0
VERTEX
  8
0
  5
ABD
 10
5.46788
 20
3.43279
 30
0.000000
  70
    32
  0
VERTEX
  8
0
  5
ABE
 10
5.47421
 20
3.43361
 30
0.000000
  70
    32
  0
VERTEX
  8
0
  5
ABF
 10
5.48054
 20
3.43443
 30
0.000000
  70
    32
  0
VERTEX
  8
0
  5
AC0
 10
5.48688
 20
3.43525
 30
0.000000
  70
    32
  0
VERTEX
  8
0
  5
AC1
 10
5.49321
 20
3.43606
 30
0.000000
  70
    32
  0
VERTEX
  8
0
  5
AC2
 10
5.49954
 20
3.43687
 30
0.000000
  70
    32
  0
VERTEX
  8
0
  5
AC3
 10
5.50588
 20
3.43768
 30
0.000000
  70
    32
  0
VERTEX
  8
0
  5
AC4
 10
5.51221
 20
3.43848
 30
0.000000
  70
    32
  0
VERTEX
  8
0
  5
AC5
 10
5.51855
 20
3.43928
 30
0.000000
  70
    32
  0
VERTEX
  8
0
  5
AC6
 10
5.52488
 20
3.44007
 30
0.000000
  70
    32
  0
VERTEX
  8
0
  5
AC7
 10
5.53122
 20
3.44086
 30
0.000000
  70
    32
  0
VERTEX
  8
0
  5
AC8
 10
5.53755
 20
3.44163
 30
0.000000
  70
    32
  0
VERTEX
  8
0
  5
AC9
 10
5.54389
 20
3.44241
 30
0.000000
  70
    32
  0
VERTEX
  8
0
  5
ACA
 10
5.55023
 20
3.44317
 30
0.000000
  70
    32
  0
VERTEX
  8
0
  5
ACB
 10
5.55656
 20
3.44392
 30
0.000000
  70
    32
  0
VERTEX
  8
0
  5
ACC
 10
5.56290
 20
3.44466
 30
0.000000
  70
    32
  0
VERTEX
  8
0
  5
ACD
 10
5.56924
 20
3.44539
 30
0.000000
  70
    32
  0
VERTEX
  8
0
  5
ACE
 10
5.57558
 20
3.44611
 30
0.000000
  70
    32
  0
VERTEX
  8
0
  5
ACF
 10
5.58192
 20
3.44682
 30
0.000000
  70
    32
  0
VERTEX
  8
0
  5
AD0
 10
5.58826
 20
3.44752
 30
0.000000
  70
    32
  0
VERTEX
  8
0
  5
AD1
 10
5.59460
 20
3.44820
 30
0.000000
  70
    32
  0
VERTEX
  8
0
  5
AD2
 10
5.60095
 20
3.44887
 30
0.000000
  70
    32
  0
VERTEX
  8
0
  5
AD3
 10
5.60729
 20
3.44952
 30
0.000000
  70
    32
  0
VERTEX
  8
0
  5
AD4
 10
5.61364
 20
3.45016
 30
0.000000
  70
    32
  0
VERTEX
  8
0
  5
AD5
 10
5.61998
 20
3.45078
 30
0.000000
  70
    32
  0
VERTEX
  8
0
  5
AD6
 10
5.62633
 20
3.45138
 30
0.000000
  70
    32
  0
VERTEX
  8
0
  5
AD7
 10
5.63268
 20
3.45197
 30
0.000000
  70
    32
  0
VERTEX
  8
0
  5
AD8
 10
5.63903
 20
3.45254
 30
0.000000
  70
    32
  0
VERTEX
  8
0
  5
AD9
 10
5.64538
 20
3.45308
 30
0.000000
  70
    32
  0
VERTEX
  8
0
  5
ADA
 10
5.65173
 20
3.45361
 30
0.000000
  70
    32
  0
VERTEX
  8
0
  5
ADB
 10
5.65809
 20
3.45412
 30
0.000000
  70
    32
  0
VERTEX
  8
0
  5
ADC
 10
5.66444
 20
3.45461
 30
0.000000
  70
    32
  0
VERTEX
  8
0
  5
ADD
 10
5.67080
 20
3.45508
 30
0.000000
  70
    32
  0
VERTEX
  8
0
  5
ADE
 10
5.67715
 20
3.45552
 30
0.000000
  70
    32
  0
VERTEX
  8
0
  5
ADF
 10
5.68351
 20
3.45594
 30
0.000000
  70
    32
  0
VERTEX
  8
0
  5
AE0
 10
5.68987
 20
3.45634
 30
0.000000
  70
    32
  0
VERTEX
  8
0
  5
AE1
 10
5.69623
 20
3.45671
 30
0.000000
  70
    32
  0
VERTEX
  8
0
  5
AE2
 10
5.70260
 20
3.45706
 30
0.000000
  70
    32
  0
VERTEX
  8
0
  5
AE3
 10
5.70896
 20
3.45738
 30
0.000000
  70
    32
  0
VERTEX
  8
0
  5
AE4
 10
5.71533
 20
3.45768
 30
0.000000
  70
    32
  0
VERTEX
  8
0
  5
AE5
 10
5.72169
 20
3.45795
 30
0.000000
  70
    32
  0
VERTEX
  8
0
  5
AE6
 10
5.72806
 20
3.45819
 30
0.000000
  70
    32
  0
VERTEX
  8
0
  5
AE7
 10
5.73444
 20
3.45840
 30
0.000000
  70
    32
  0
VERTEX
  8
0
  5
AE8
 10
5.74081
 20
3.45858
 30
0.000000
  70
    32
  0
VERTEX
  8
0
  5
AE9
 10
5.74718
 20
3.45873
 30
0.000000
  70
    32
  0
VERTEX
  8
0
  5
AEA
 10
5.75356
 20
3.45885
 30
0.000000
  70
    32
  0
VERTEX
  8
0
  5
AEB
 10
5.75994
 20
3.45894
 30
0.000000
  70
    32
  0
VERTEX
  8
0
  5
AEC
 10
5.76632
 20
3.45900
 30
0.000000
  70
    32
  0
VERTEX
  8
0
  5
AED
 10
5.77270
 20
3.45902
 30
0.000000
  70
    32
  0
VERTEX
  8
0
  5
AEE
 10
5.78347
 20
3.45903
 30
0.000000
  70
    32
  0
VERTEX
  8
0
  5
AEF
 10
5.79569
 20
3.45907
 30
0.000000
  70
    32
  0
VERTEX
  8
0
  5
AF0
 10
5.80790
 20
3.45914
 30
0.000000
  70
    32
  0
VERTEX
  8
0
  5
AF1
 10
5.82010
 20
3.45924
 30
0.000000
  70
    32
  0
VERTEX
  8
0
  5
AF2
 10
5.83229
 20
3.45937
 30
0.000000
  70
    32
  0
VERTEX
  8
0
  5
AF3
 10
5.84447
 20
3.45953
 30
0.000000
  70
    32
  0
VERTEX
  8
0
  5
AF4
 10
5.85664
 20
3.45972
 30
0.000000
  70
    32
  0
VERTEX
  8
0
  5
AF5
 10
5.86880
 20
3.45994
 30
0.000000
  70
    32
  0
VERTEX
  8
0
  5
AF6
 10
5.88096
 20
3.46019
 30
0.000000
  70
    32
  0
VERTEX
  8
0
  5
AF7
 10
5.89310
 20
3.46046
 30
0.000000
  70
    32
  0
VERTEX
  8
0
  5
AF8
 10
5.90523
 20
3.46077
 30
0.000000
  70
    32
  0
VERTEX
  8
0
  5
AF9
 10
5.91736
 20
3.46110
 30
0.000000
  70
    32
  0
VERTEX
  8
0
  5
AFA
 10
5.92948
 20
3.46146
 30
0.000000
  70
    32
  0
VERTEX
  8
0
  5
AFB
 10
5.94159
 20
3.46185
 30
0.000000
  70
    32
  0
VERTEX
  8
0
  5
AFC
 10
5.95369
 20
3.46227
 30
0.000000
  70
    32
  0
VERTEX
  8
0
  5
AFD
 10
5.96578
 20
3.46271
 30
0.000000
  70
    32
  0
VERTEX
  8
0
  5
AFE
 10
5.97786
 20
3.46318
 30
0.000000
  70
    32
  0
VERTEX
  8
0
  5
AFF
 10
5.98994
 20
3.46368
 30
0.000000
  70
    32
  0
VERTEX
  8
0
  5
B00
 10
6.00201
 20
3.46420
 30
0.000000
  70
    32
  0
VERTEX
  8
0
  5
B01
 10
6.01408
 20
3.46475
 30
0.000000
  70
    32
  0
VERTEX
  8
0
  5
B02
 10
6.02613
 20
3.46532
 30
0.000000
  70
    32
  0
VERTEX
  8
0
  5
B03
 10
6.03818
 20
3.46592
 30
0.000000
  70
    32
  0
VERTEX
  8
0
  5
B04
 10
6.05023
 20
3.46655
 30
0.000000
  70
    32
  0
VERTEX
  8
0
  5
B05
 10
6.06226
 20
3.46720
 30
0.000000
  70
    32
  0
VERTEX
  8
0
  5
B06
 10
6.07429
 20
3.46787
 30
0.000000
  70
    32
  0
VERTEX
  8
0
  5
B07
 10
6.08632
 20
3.46857
 30
0.000000
  70
    32
  0
VERTEX
  8
0
  5
B08
 10
6.09834
 20
3.46929
 30
0.000000
  70
    32
  0
VERTEX
  8
0
  5
B09
 10
6.11035
 20
3.47004
 30
0.000000
  70
    32
  0
VERTEX
  8
0
  5
B0A
 10
6.12236
 20
3.47081
 30
0.000000
  70
    32
  0
VERTEX
  8
0
  5
B0B
 10
6.13436
 20
3.47161
 30
0.000000
  70
    32
  0
VERTEX
  8
0
  5
B0C
 10
6.14636
 20
3.47242
 30
0.000000
  70
    32
  0
VERTEX
  8
0
  5
B0D
 10
6.15836
 20
3.47326
 30
0.000000
  70
    32
  0
VERTEX
  8
0
  5
B0E
 10
6.17035
 20
3.47412
 30
0.000000
  70
    32
  0
VERTEX
  8
0
  5
B0F
 10
6.18233
 20
3.47501
 30
0.000000
  70
    32
  0
VERTEX
  8
0
  5
B10
 10
6.19431
 20
3.47591
 30
0.000000
  70
    32
  0
VERTEX
  8
0
  5
B11
 10
6.20629
 20
3.47684
 30
0.000000
  70
    32
  0
VERTEX
  8
0
  5
B12
 10
6.21826
 20
3.47779
 30
0.000000
  70
    32
  0
VERTEX
  8
0
  5
B13
 10
6.23023
 20
3.47876
 30
0.000000
  70
    32
  0
VERTEX
  8
0
  5
B14
 10
6.24219
 20
3.47975
 30
0.000000
  70
    32
  0
VERTEX
  8
0
  5
B15
 10
6.25416
 20
3.48076
 30
0.000000
  70
    32
  0
VERTEX
  8
0
  5
B16
 10
6.26612
 20
3.48179
 30
0.000000
  70
    32
  0
VERTEX
  8
0
  5
B17
 10
6.27807
 20
3.48284
 30
0.000000
  70
    32
  0
VERTEX
  8
0
  5
B18
 10
6.29003
 20
3.48391
 30
0.000000
  70
    32
  0
VERTEX
  8
0
  5
B19
 10
6.30198
 20
3.48500
 30
0.000000
  70
    32
  0
VERTEX
  8
0
  5
B1A
 10
6.31393
 20
3.48611
 30
0.000000
  70
    32
  0
VERTEX
  8
0
  5
B1B
 10
6.32588
 20
3.48724
 30
0.000000
  70
    32
  0
VERTEX
  8
0
  5
B1C
 10
6.33782
 20
3.48838
 30
0.000000
  70
    32
  0
VERTEX
  8
0
  5
B1D
 10
6.34976
 20
3.48955
 30
0.000000
  70
    32
  0
VERTEX
  8
0
  5
B1E
 10
6.36171
 20
3.49073
 30
0.000000
  70
    32
  0
VERTEX
  8
0
  5
B1F
 10
6.37365
 20
3.49193
 30
0.000000
  70
    32
  0
VERTEX
  8
0
  5
B20
 10
6.38559
 20
3.49315
 30
0.000000
  70
    32
  0
VERTEX
  8
0
  5
B21
 10
6.39753
 20
3.49438
 30
0.000000
  70
    32
  0
VERTEX
  8
0
  5
B22
 10
6.40947
 20
3.49563
 30
0.000000
  70
    32
  0
VERTEX
  8
0
  5
B23
 10
6.42140
 20
3.49690
 30
0.000000
  70
    32
  0
VERTEX
  8
0
  5
B24
 10
6.43334
 20
3.49818
 30
0.000000
  70
    32
  0
VERTEX
  8
0
  5
B25
 10
6.44528
 20
3.49949
 30
0.000000
  70
    32
  0
VERTEX
  8
0
  5
B26
 10
6.45722
 20
3.50080
 30
0.000000
  70
    32
  0
VERTEX
  8
0
  5
B27
 10
6.46915
 20
3.50213
 30
0.000000
  70
    32
  0
VERTEX
  8
0
  5
B28
 10
6.48109
 20
3.50348
 30
0.000000
  70
    32
  0
VERTEX
  8
0
  5
B29
 10
6.49303
 20
3.50484
 30
0.000000
  70
    32
  0
VERTEX
  8
0
  5
B2A
 10
6.50497
 20
3.50622
 30
0.000000
  70
    32
  0
VERTEX
  8
0
  5
B2B
 10
6.51691
 20
3.50761
 30
0.000000
  70
    32
  0
VERTEX
  8
0
  5
B2C
 10
6.52885
 20
3.50902
 30
0.000000
  70
    32
  0
VERTEX
  8
0
  5
B2D
 10
6.54080
 20
3.51043
 30
0.000000
  70
    32
  0
VERTEX
  8
0
  5
B2E
 10
6.55274
 20
3.51187
 30
0.000000
  70
    32
  0
VERTEX
  8
0
  5
B2F
 10
6.56469
 20
3.51331
 30
0.000000
  70
    32
  0
VERTEX
  8
0
  5
B30
 10
6.57664
 20
3.51477
 30
0.000000
  70
    32
  0
VERTEX
  8
0
  5
B31
 10
6.58859
 20
3.51624
 30
0.000000
  70
    32
  0
VERTEX
  8
0
  5
B32
 10
6.60054
 20
3.51773
 30
0.000000
  70
    32
  0
VERTEX
  8
0
  5
B33
 10
6.61250
 20
3.51922
 30
0.000000
  70
    32
  0
VERTEX
  8
0
  5
B34
 10
6.62446
 20
3.52073
 30
0.000000
  70
    32
  0
VERTEX
  8
0
  5
B35
 10
6.63642
 20
3.52225
 30
0.000000
  70
    32
  0
VERTEX
  8
0
  5
B36
 10
6.64839
 20
3.52378
 30
0.000000
  70
    32
  0
VERTEX
  8
0
  5
B37
 10
6.66036
 20
3.52533
 30
0.000000
  70
    32
  0
VERTEX
  8
0
  5
B38
 10
6.67233
 20
3.52688
 30
0.000000
  70
    32
  0
VERTEX
  8
0
  5
B39
 10
6.68430
 20
3.52844
 30
0.000000
  70
    32
  0
VERTEX
  8
0
  5
B3A
 10
6.69628
 20
3.53002
 30
0.000000
  70
    32
  0
VERTEX
  8
0
  5
B3B
 10
6.70827
 20
3.53160
 30
0.000000
  70
    32
  0
VERTEX
  8
0
  5
B3C
 10
6.72026
 20
3.53319
 30
0.000000
  70
    32
  0
VERTEX
  8
0
  5
B3D
 10
6.73225
 20
3.53480
 30
0.000000
  70
    32
  0
VERTEX
  8
0
  5
B3E
 10
6.74425
 20
3.53641
 30
0.000000
  70
    32
  0
VERTEX
  8
0
  5
B3F
 10
6.75625
 20
3.53803
 30
0.000000
  70
    32
  0
VERTEX
  8
0
  5
B40
 10
6.76826
 20
3.53966
 30
0.000000
  70
    32
  0
VERTEX
  8
0
  5
B41
 10
6.78027
 20
3.54130
 30
0.000000
  70
    32
  0
VERTEX
  8
0
  5
B42
 10
6.79229
 20
3.54294
 30
0.000000
  70
    32
  0
VERTEX
  8
0
  5
B43
 10
6.80432
 20
3.54460
 30
0.000000
  70
    32
  0
VERTEX
  8
0
  5
B44
 10
6.81635
 20
3.54626
 30
0.000000
  70
    32
  0
VERTEX
  8
0
  5
B45
 10
6.82838
 20
3.54793
 30
0.000000
  70
    32
  0
VERTEX
  8
0
  5
B46
 10
6.84043
 20
3.54960
 30
0.000000
  70
    32
  0
VERTEX
  8
0
  5
B47
 10
6.85248
 20
3.55128
 30
0.000000
  70
    32
  0
VERTEX
  8
0
  5
B48
 10
6.86453
 20
3.55297
 30
0.000000
  70
    32
  0
VERTEX
  8
0
  5
B49
 10
6.87659
 20
3.55467
 30
0.000000
  70
    32
  0
VERTEX
  8
0
  5
B4A
 10
6.88866
 20
3.55637
 30
0.000000
  70
    32
  0
VERTEX
  8
0
  5
B4B
 10
6.90074
 20
3.55807
 30
0.000000
  70
    32
  0
VERTEX
  8
0
  5
B4C
 10
6.91283
 20
3.55979
 30
0.000000
  70
    32
  0
VERTEX
  8
0
  5
B4D
 10
6.92492
 20
3.56150
 30
0.000000
  70
    32
  0
VERTEX
  8
0
  5
B4E
 10
6.93702
 20
3.56322
 30
0.000000
  70
    32
  0
VERTEX
  8
0
  5
B4F
 10
6.94725
 20
3.56468
 30
0.000000
  70
    32
  0
VERTEX
  8
0
  5
B50
 10
6.94998
 20
3.56507
 30
0.000000
  70
    32
  0
VERTEX
  8
0
  5
B51
 10
6.95271
 20
3.56547
 30
0.000000
  70
    32
  0
VERTEX
  8
0
  5
B52
 10
6.95544
 20
3.56587
 30
0.000000
  70
    32
  0
VERTEX
  8
0
  5
B53
 10
6.95817
 20
3.56628
 30
0.000000
  70
    32
  0
VERTEX
  8
0
  5
B54
 10
6.96090
 20
3.56670
 30
0.000000
  70
    32
  0
VERTEX
  8
0
  5
B55
 10
6.96363
 20
3.56712
 30
0.000000
  70
    32
  0
VERTEX
  8
0
  5
B56
 10
6.96636
 20
3.56754
 30
0.000000
  70
    32
  0
VERTEX
  8
0
  5
B57
 10
6.96908
 20
3.56798
 30
0.000000
  70
    32
  0
VERTEX
  8
0
  5
B58
 10
6.97181
 20
3.56841
 30
0.000000
  70
    32
  0
VERTEX
  8
0
  5
B59
 10
6.97454
 20
3.56886
 30
0.000000
  70
    32
  0
VERTEX
  8
0
  5
B5A
 10
6.97727
 20
3.56931
 30
0.000000
  70
    32
  0
VERTEX
  8
0
  5
B5B
 10
6.97999
 20
3.56976
 30
0.000000
  70
    32
  0
VERTEX
  8
0
  5
B5C
 10
6.98272
 20
3.57022
 30
0.000000
  70
    32
  0
VERTEX
  8
0
  5
B5D
 10
6.98545
 20
3.57068
 30
0.000000
  70
    32
  0
VERTEX
  8
0
  5
B5E
 10
6.98817
 20
3.57115
 30
0.000000
  70
    32
  0
VERTEX
  8
0
  5
B5F
 10
6.99090
 20
3.57162
 30
0.000000
  70
    32
  0
VERTEX
  8
0
  5
B60
 10
6.99362
 20
3.57210
 30
0.000000
  70
    32
  0
VERTEX
  8
0
  5
B61
 10
6.99635
 20
3.57258
 30
0.000000
  70
    32
  0
VERTEX
  8
0
  5
B62
 10
6.99907
 20
3.57307
 30
0.000000
  70
    32
  0
VERTEX
  8
0
  5
B63
 10
7.00180
 20
3.57356
 30
0.000000
  70
    32
  0
VERTEX
  8
0
  5
B64
 10
7.00452
 20
3.57406
 30
0.000000
  70
    32
  0
VERTEX
  8
0
  5
B65
 10
7.00725
 20
3.57456
 30
0.000000
  70
    32
  0
VERTEX
  8
0
  5
B66
 10
7.00997
 20
3.57506
 30
0.000000
  70
    32
  0
VERTEX
  8
0
  5
B67
 10
7.01270
 20
3.57557
 30
0.000000
  70
    32
  0
VERTEX
  8
0
  5
B68
 10
7.01542
 20
3.57609
 30
0.000000
  70
    32
  0
VERTEX
  8
0
  5
B69
 10
7.01814
 20
3.57660
 30
0.000000
  70
    32
  0
VERTEX
  8
0
  5
B6A
 10
7.02087
 20
3.57712
 30
0.000000
  70
    32
  0
VERTEX
  8
0
  5
B6B
 10
7.02359
 20
3.57765
 30
0.000000
  70
    32
  0
VERTEX
  8
0
  5
B6C
 10
7.02631
 20
3.57817
 30
0.000000
  70
    32
  0
VERTEX
  8
0
  5
B6D
 10
7.02903
 20
3.57870
 30
0.000000
  70
    32
  0
VERTEX
  8
0
  5
B6E
 10
7.03175
 20
3.57924
 30
0.000000
  70
    32
  0
VERTEX
  8
0
  5
B6F
 10
7.03448
 20
3.57978
 30
0.000000
  70
    32
  0
VERTEX
  8
0
  5
B70
 10
7.03720
 20
3.58032
 30
0.000000
  70
    32
  0
VERTEX
  8
0
  5
B71
 10
7.03992
 20
3.58086
 30
0.000000
  70
    32
  0
VERTEX
  8
0
  5
B72
 10
7.04264
 20
3.58141
 30
0.000000
  70
    32
  0
VERTEX
  8
0
  5
B73
 10
7.04536
 20
3.58196
 30
0.000000
  70
    32
  0
VERTEX
  8
0
  5
B74
 10
7.04808
 20
3.58251
 30
0.000000
  70
    32
  0
VERTEX
  8
0
  5
B75
 10
7.05080
 20
3.58306
 30
0.000000
  70
    32
  0
VERTEX
  8
0
  5
B76
 10
7.05352
 20
3.58362
 30
0.000000
  70
    32
  0
VERTEX
  8
0
  5
B77
 10
7.05624
 20
3.58418
 30
0.000000
  70
    32
  0
VERTEX
  8
0
  5
B78
 10
7.05896
 20
3.58474
 30
0.000000
  70
    32
  0
VERTEX
  8
0
  5
B79
 10
7.06168
 20
3.58531
 30
0.000000
  70
    32
  0
VERTEX
  8
0
  5
B7A
 10
7.06439
 20
3.58588
 30
0.000000
  70
    32
  0
VERTEX
  8
0
  5
B7B
 10
7.06711
 20
3.58644
 30
0.000000
  70
    32
  0
VERTEX
  8
0
  5
B7C
 10
7.06983
 20
3.58702
 30
0.000000
  70
    32
  0
VERTEX
  8
0
  5
B7D
 10
7.07255
 20
3.58759
 30
0.000000
  70
    32
  0
VERTEX
  8
0
  5
B7E
 10
7.07527
 20
3.58816
 30
0.000000
  70
    32
  0
VERTEX
  8
0
  5
B7F
 10
7.07798
 20
3.58874
 30
0.000000
  70
    32
  0
VERTEX
  8
0
  5
B80
 10
7.08070
 20
3.58932
 30
0.000000
  70
    32
  0
VERTEX
  8
0
  5
B81
 10
7.08342
 20
3.58990
 30
0.000000
  70
    32
  0
VERTEX
  8
0
  5
B82
 10
7.08613
 20
3.59048
 30
0.000000
  70
    32
  0
VERTEX
  8
0
  5
B83
 10
7.08885
 20
3.59106
 30
0.000000
  70
    32
  0
VERTEX
  8
0
  5
B84
 10
7.09156
 20
3.59165
 30
0.000000
  70
    32
  0
VERTEX
  8
0
  5
B85
 10
7.09428
 20
3.59223
 30
0.000000
  70
    32
  0
VERTEX
  8
0
  5
B86
 10
7.09699
 20
3.59282
 30
0.000000
  70
    32
  0
VERTEX
  8
0
  5
B87
 10
7.09971
 20
3.59340
 30
0.000000
  70
    32
  0
VERTEX
  8
0
  5
B88
 10
7.10242
 20
3.59399
 30
0.000000
  70
    32
  0
VERTEX
  8
0
  5
B89
 10
7.10514
 20
3.59458
 30
0.000000
  70
    32
  0
VERTEX
  8
0
  5
B8A
 10
7.10785
 20
3.59517
 30
0.000000
  70
    32
  0
VERTEX
  8
0
  5
B8B
 10
7.11057
 20
3.59576
 30
0.000000
  70
    32
  0
VERTEX
  8
0
  5
B8C
 10
7.11328
 20
3.59635
 30
0.000000
  70
    32
  0
VERTEX
  8
0
  5
B8D
 10
7.11599
 20
3.59694
 30
0.000000
  70
    32
  0
VERTEX
  8
0
  5
B8E
 10
7.11871
 20
3.59753
 30
0.000000
  70
    32
  0
VERTEX
  8
0
  5
B8F
 10
7.12142
 20
3.59812
 30
0.000000
  70
    32
  0
VERTEX
  8
0
  5
B90
 10
7.12413
 20
3.59871
 30
0.000000
  70
    32
  0
VERTEX
  8
0
  5
B91
 10
7.12684
 20
3.59930
 30
0.000000
  70
    32
  0
VERTEX
  8
0
  5
B92
 10
7.12956
 20
3.59990
 30
0.000000
  70
    32
  0
VERTEX
  8
0
  5
B93
 10
7.13227
 20
3.60049
 30
0.000000
  70
    32
  0
VERTEX
  8
0
  5
B94
 10
7.13498
 20
3.60108
 30
0.000000
  70
    32
  0
VERTEX
  8
0
  5
B95
 10
7.13769
 20
3.60167
 30
0.000000
  70
    32
  0
VERTEX
  8
0
  5
B96
 10
7.14040
 20
3.60226
 30
0.000000
  70
    32
  0
VERTEX
  8
0
  5
B97
 10
7.14311
 20
3.60285
 30
0.000000
  70
    32
  0
VERTEX
  8
0
  5
B98
 10
7.14582
 20
3.60343
 30
0.000000
  70
    32
  0
VERTEX
  8
0
  5
B99
 10
7.14853
 20
3.60402
 30
0.000000
  70
    32
  0
VERTEX
  8
0
  5
B9A
 10
7.15124
 20
3.60461
 30
0.000000
  70
    32
  0
VERTEX
  8
0
  5
B9B
 10
7.15395
 20
3.60519
 30
0.000000
  70
    32
  0
VERTEX
  8
0
  5
B9C
 10
7.15666
 20
3.60578
 30
0.000000
  70
    32
  0
VERTEX
  8
0
  5
B9D
 10
7.15937
 20
3.60636
 30
0.000000
  70
    32
  0
VERTEX
  8
0
  5
B9E
 10
7.16208
 20
3.60694
 30
0.000000
  70
    32
  0
VERTEX
  8
0
  5
B9F
 10
7.16479
 20
3.60752
 30
0.000000
  70
    32
  0
VERTEX
  8
0
  5
BA0
 10
7.16749
 20
3.60810
 30
0.000000
  70
    32
  0
VERTEX
  8
0
  5
BA1
 10
7.17020
 20
3.60868
 30
0.000000
  70
    32
  0
VERTEX
  8
0
  5
BA2
 10
7.17291
 20
3.60926
 30
0.000000
  70
    32
  0
VERTEX
  8
0
  5
BA3
 10
7.17562
 20
3.60983
 30
0.000000
  70
    32
  0
VERTEX
  8
0
  5
BA4
 10
7.17832
 20
3.61040
 30
0.000000
  70
    32
  0
VERTEX
  8
0
  5
BA5
 10
7.18103
 20
3.61097
 30
0.000000
  70
    32
  0
VERTEX
  8
0
  5
BA6
 10
7.18374
 20
3.61154
 30
0.000000
  70
    32
  0
VERTEX
  8
0
  5
BA7
 10
7.18644
 20
3.61211
 30
0.000000
  70
    32
  0
VERTEX
  8
0
  5
BA8
 10
7.18915
 20
3.61267
 30
0.000000
  70
    32
  0
VERTEX
  8
0
  5
BA9
 10
7.19185
 20
3.61324
 30
0.000000
  70
    32
  0
VERTEX
  8
0
  5
BAA
 10
7.19456
 20
3.61379
 30
0.000000
  70
    32
  0
VERTEX
  8
0
  5
BAB
 10
7.19727
 20
3.61435
 30
0.000000
  70
    32
  0
VERTEX
  8
0
  5
BAC
 10
7.19997
 20
3.61491
 30
0.000000
  70
    32
  0
VERTEX
  8
0
  5
BAD
 10
7.20267
 20
3.61546
 30
0.000000
  70
    32
  0
VERTEX
  8
0
  5
BAE
 10
7.20538
 20
3.61601
 30
0.000000
  70
    32
  0
VERTEX
  8
0
  5
BAF
 10
7.20808
 20
3.61655
 30
0.000000
  70
    32
  0
VERTEX
  8
0
  5
BB0
 10
7.21079
 20
3.61709
 30
0.000000
  70
    32
  0
VERTEX
  8
0
  5
BB1
 10
7.21317
 20
3.61756
 30
0.000000
  70
    32
  0
VERTEX
  8
0
  5
BB2
 10
7.21538
 20
3.61797
 30
0.000000
  70
    32
  0
VERTEX
  8
0
  5
BB3
 10
7.21760
 20
3.61834
 30
0.000000
  70
    32
  0
VERTEX
  8
0
  5
BB4
 10
7.21982
 20
3.61869
 30
0.000000
  70
    32
  0
VERTEX
  8
0
  5
BB5
 10
7.22206
 20
3.61901
 30
0.000000
  70
    32
  0
VERTEX
  8
0
  5
BB6
 10
7.22431
 20
3.61931
 30
0.000000
  70
    32
  0
VERTEX
  8
0
  5
BB7
 10
7.22656
 20
3.61957
 30
0.000000
  70
    32
  0
VERTEX
  8
0
  5
BB8
 10
7.22882
 20
3.61982
 30
0.000000
  70
    32
  0
VERTEX
  8
0
  5
BB9
 10
7.23109
 20
3.62003
 30
0.000000
  70
    32
  0
VERTEX
  8
0
  5
BBA
 10
7.23337
 20
3.62022
 30
0.000000
  70
    32
  0
VERTEX
  8
0
  5
BBB
 10
7.23566
 20
3.62039
 30
0.000000
  70
    32
  0
VERTEX
  8
0
  5
BBC
 10
7.23795
 20
3.62054
 30
0.000000
  70
    32
  0
VERTEX
  8
0
  5
BBD
 10
7.24025
 20
3.62066
 30
0.000000
  70
    32
  0
VERTEX
  8
0
  5
BBE
 10
7.24255
 20
3.62076
 30
0.000000
  70
    32
  0
VERTEX
  8
0
  5
BBF
 10
7.24487
 20
3.62084
 30
0.000000
  70
    32
  0
VERTEX
  8
0
  5
BC0
 10
7.24719
 20
3.62090
 30
0.000000
  70
    32
  0
VERTEX
  8
0
  5
BC1
 10
7.24951
 20
3.62094
 30
0.000000
  70
    32
  0
VERTEX
  8
0
  5
BC2
 10
7.25184
 20
3.62096
 30
0.000000
  70
    32
  0
VERTEX
  8
0
  5
BC3
 10
7.25418
 20
3.62096
 30
0.000000
  70
    32
  0
VERTEX
  8
0
  5
BC4
 10
7.25652
 20
3.62095
 30
0.000000
  70
    32
  0
VERTEX
  8
0
  5
BC5
 10
7.25887
 20
3.62092
 30
0.000000
  70
    32
  0
VERTEX
  8
0
  5
BC6
 10
7.26122
 20
3.62087
 30
0.000000
  70
    32
  0
VERTEX
  8
0
  5
BC7
 10
7.26358
 20
3.62081
 30
0.000000
  70
    32
  0
VERTEX
  8
0
  5
BC8
 10
7.26594
 20
3.62073
 30
0.000000
  70
    32
  0
VERTEX
  8
0
  5
BC9
 10
7.26831
 20
3.62063
 30
0.000000
  70
    32
  0
VERTEX
  8
0
  5
BCA
 10
7.27068
 20
3.62053
 30
0.000000
  70
    32
  0
VERTEX
  8
0
  5
BCB
 10
7.27305
 20
3.62041
 30
0.000000
  70
    32
  0
VERTEX
  8
0
  5
BCC
 10
7.27543
 20
3.62028
 30
0.000000
  70
    32
  0
VERTEX
  8
0
  5
BCD
 10
7.27781
 20
3.62013
 30
0.000000
  70
    32
  0
VERTEX
  8
0
  5
BCE
 10
7.28020
 20
3.61998
 30
0.000000
  70
    32
  0
VERTEX
  8
0
  5
BCF
 10
7.28259
 20
3.61981
 30
0.000000
  70
    32
  0
VERTEX
  8
0
  5
BD0
 10
7.28498
 20
3.61964
 30
0.000000
  70
    32
  0
VERTEX
  8
0
  5
BD1
 10
7.28737
 20
3.61946
 30
0.000000
  70
    32
  0
VERTEX
  8
0
  5
BD2
 10
7.28977
 20
3.61927
 30
0.000000
  70
    32
  0
VERTEX
  8
0
  5
BD3
 10
7.29217
 20
3.61907
 30
0.000000
  70
    32
  0
VERTEX
  8
0
  5
BD4
 10
7.29457
 20
3.61886
 30
0.000000
  70
    32
  0
VERTEX
  8
0
  5
BD5
 10
7.29697
 20
3.61865
 30
0.000000
  70
    32
  0
VERTEX
  8
0
  5
BD6
 10
7.29938
 20
3.61843
 30
0.000000
  70
    32
  0
VERTEX
  8
0
  5
BD7
 10
7.30178
 20
3.61821
 30
0.000000
  70
    32
  0
VERTEX
  8
0
  5
BD8
 10
7.30419
 20
3.61799
 30
0.000000
  70
    32
  0
VERTEX
  8
0
  5
BD9
 10
7.30660
 20
3.61776
 30
0.000000
  70
    32
  0
VERTEX
  8
0
  5
BDA
 10
7.30901
 20
3.61752
 30
0.000000
  70
    32
  0
VERTEX
  8
0
  5
BDB
 10
7.31142
 20
3.61729
 30
0.000000
  70
    32
  0
VERTEX
  8
0
  5
BDC
 10
7.31383
 20
3.61705
 30
0.000000
  70
    32
  0
VERTEX
  8
0
  5
BDD
 10
7.31624
 20
3.61682
 30
0.000000
  70
    32
  0
VERTEX
  8
0
  5
BDE
 10
7.31865
 20
3.61658
 30
0.000000
  70
    32
  0
VERTEX
  8
0
  5
BDF
 10
7.32106
 20
3.61634
 30
0.000000
  70
    32
  0
VERTEX
  8
0
  5
BE0
 10
7.32347
 20
3.61611
 30
0.000000
  70
    32
  0
VERTEX
  8
0
  5
BE1
 10
7.32588
 20
3.61588
 30
0.000000
  70
    32
  0
VERTEX
  8
0
  5
BE2
 10
7.32829
 20
3.61565
 30
0.000000
  70
    32
  0
VERTEX
  8
0
  5
BE3
 10
7.33070
 20
3.61542
 30
0.000000
  70
    32
  0
VERTEX
  8
0
  5
BE4
 10
7.33311
 20
3.61519
 30
0.000000
  70
    32
  0
VERTEX
  8
0
  5
BE5
 10
7.33551
 20
3.61498
 30
0.000000
  70
    32
  0
VERTEX
  8
0
  5
BE6
 10
7.33792
 20
3.61476
 30
0.000000
  70
    32
  0
VERTEX
  8
0
  5
BE7
 10
7.34032
 20
3.61455
 30
0.000000
  70
    32
  0
VERTEX
  8
0
  5
BE8
 10
7.34272
 20
3.61435
 30
0.000000
  70
    32
  0
VERTEX
  8
0
  5
BE9
 10
7.34512
 20
3.61416
 30
0.000000
  70
    32
  0
VERTEX
  8
0
  5
BEA
 10
7.34751
 20
3.61397
 30
0.000000
  70
    32
  0
VERTEX
  8
0
  5
BEB
 10
7.34990
 20
3.61380
 30
0.000000
  70
    32
  0
VERTEX
  8
0
  5
BEC
 10
7.35229
 20
3.61363
 30
0.000000
  70
    32
  0
VERTEX
  8
0
  5
BED
 10
7.35468
 20
3.61347
 30
0.000000
  70
    32
  0
VERTEX
  8
0
  5
BEE
 10
7.35706
 20
3.61332
 30
0.000000
  70
    32
  0
VERTEX
  8
0
  5
BEF
 10
7.35944
 20
3.61319
 30
0.000000
  70
    32
  0
VERTEX
  8
0
  5
BF0
 10
7.36181
 20
3.61306
 30
0.000000
  70
    32
  0
VERTEX
  8
0
  5
BF1
 10
7.36419
 20
3.61295
 30
0.000000
  70
    32
  0
VERTEX
  8
0
  5
BF2
 10
7.36655
 20
3.61286
 30
0.000000
  70
    32
  0
VERTEX
  8
0
  5
BF3
 10
7.36891
 20
3.61277
 30
0.000000
  70
    32
  0
VERTEX
  8
0
  5
BF4
 10
7.37127
 20
3.61270
 30
0.000000
  70
    32
  0
VERTEX
  8
0
  5
BF5
 10
7.37363
 20
3.61265
 30
0.000000
  70
    32
  0
VERTEX
  8
0
  5
BF6
 10
7.37597
 20
3.61261
 30
0.000000
  70
    32
  0
VERTEX
  8
0
  5
BF7
 10
7.37832
 20
3.61259
 30
0.000000
  70
    32
  0
VERTEX
  8
0
  5
BF8
 10
7.38065
 20
3.61259
 30
0.000000
  70
    32
  0
VERTEX
  8
0
  5
BF9
 10
7.38299
 20
3.61260
 30
0.000000
  70
    32
  0
VERTEX
  8
0
  5
BFA
 10
7.38531
 20
3.61264
 30
0.000000
  70
    32
  0
VERTEX
  8
0
  5
BFB
 10
7.38763
 20
3.61269
 30
0.000000
  70
    32
  0
VERTEX
  8
0
  5
BFC
 10
7.38995
 20
3.61276
 30
0.000000
  70
    32
  0
VERTEX
  8
0
  5
BFD
 10
7.39225
 20
3.61286
 30
0.000000
  70
    32
  0
VERTEX
  8
0
  5
BFE
 10
7.39455
 20
3.61297
 30
0.000000
  70
    32
  0
VERTEX
  8
0
  5
BFF
 10
7.39685
 20
3.61311
 30
0.000000
  70
    32
  0
VERTEX
  8
0
  5
C00
 10
7.39913
 20
3.61327
 30
0.000000
  70
    32
  0
VERTEX
  8
0
  5
C01
 10
7.40141
 20
3.61345
 30
0.000000
  70
    32
  0
VERTEX
  8
0
  5
C02
 10
7.40368
 20
3.61366
 30
0.000000
  70
    32
  0
VERTEX
  8
0
  5
C03
 10
7.40594
 20
3.61389
 30
0.000000
  70
    32
  0
VERTEX
  8
0
  5
C04
 10
7.40820
 20
3.61415
 30
0.000000
  70
    32
  0
VERTEX
  8
0
  5
C05
 10
7.41045
 20
3.61444
 30
0.000000
  70
    32
  0
VERTEX
  8
0
  5
C06
 10
7.41269
 20
3.61475
 30
0.000000
  70
    32
  0
VERTEX
  8
0
  5
C07
 10
7.41492
 20
3.61509
 30
0.000000
  70
    32
  0
VERTEX
  8
0
  5
C08
 10
7.41714
 20
3.61545
 30
0.000000
  70
    32
  0
VERTEX
  8
0
  5
C09
 10
7.41935
 20
3.61585
 30
0.000000
  70
    32
  0
VERTEX
  8
0
  5
C0A
 10
7.42155
 20
3.61627
 30
0.000000
  70
    32
  0
VERTEX
  8
0
  5
C0B
 10
7.42375
 20
3.61673
 30
0.000000
  70
    32
  0
VERTEX
  8
0
  5
C0C
 10
7.42593
 20
3.61722
 30
0.000000
  70
    32
  0
VERTEX
  8
0
  5
C0D
 10
7.42810
 20
3.61773
 30
0.000000
  70
    32
  0
VERTEX
  8
0
  5
C0E
 10
7.43027
 20
3.61828
 30
0.000000
  70
    32
  0
VERTEX
  8
0
  5
C0F
 10
7.43242
 20
3.61887
 30
0.000000
  70
    32
  0
VERTEX
  8
0
  5
C10
 10
7.43456
 20
3.61948
 30
0.000000
  70
    32
  0
VERTEX
  8
0
  5
C11
 10
7.43670
 20
3.62014
 30
0.000000
  70
    32
  0
VERTEX
  8
0
  5
C12
 10
7.43892
 20
3.62086
 30
0.000000
  70
    32
  0
VERTEX
  8
0
  5
C13
 10
7.44207
 20
3.62191
 30
0.000000
  70
    32
  0
VERTEX
  8
0
  5
C14
 10
7.44521
 20
3.62296
 30
0.000000
  70
    32
  0
VERTEX
  8
0
  5
C15
 10
7.44836
 20
3.62402
 30
0.000000
  70
    32
  0
VERTEX
  8
0
  5
C16
 10
7.45151
 20
3.62507
 30
0.000000
  70
    32
  0
VERTEX
  8
0
  5
C17
 10
7.45466
 20
3.62612
 30
0.000000
  70
    32
  0
VERTEX
  8
0
  5
C18
 10
7.45780
 20
3.62718
 30
0.000000
  70
    32
  0
VERTEX
  8
0
  5
C19
 10
7.46095
 20
3.62823
 30
0.000000
  70
    32
  0
VERTEX
  8
0
  5
C1A
 10
7.46410
 20
3.62928
 30
0.000000
  70
    32
  0
VERTEX
  8
0
  5
C1B
 10
7.46725
 20
3.63034
 30
0.000000
  70
    32
  0
VERTEX
  8
0
  5
C1C
 10
7.47040
 20
3.63139
 30
0.000000
  70
    32
  0
VERTEX
  8
0
  5
C1D
 10
7.47354
 20
3.63244
 30
0.000000
  70
    32
  0
VERTEX
  8
0
  5
C1E
 10
7.47669
 20
3.63350
 30
0.000000
  70
    32
  0
VERTEX
  8
0
  5
C1F
 10
7.47984
 20
3.63455
 30
0.000000
  70
    32
  0
VERTEX
  8
0
  5
C20
 10
7.48299
 20
3.63560
 30
0.000000
  70
    32
  0
VERTEX
  8
0
  5
C21
 10
7.48614
 20
3.63666
 30
0.000000
  70
    32
  0
VERTEX
  8
0
  5
C22
 10
7.48929
 20
3.63771
 30
0.000000
  70
    32
  0
VERTEX
  8
0
  5
C23
 10
7.49244
 20
3.63876
 30
0.000000
  70
    32
  0
VERTEX
  8
0
  5
C24
 10
7.49558
 20
3.63982
 30
0.000000
  70
    32
  0
VERTEX
  8
0
  5
C25
 10
7.49873
 20
3.64087
 30
0.000000
  70
    32
  0
VERTEX
  8
0
  5
C26
 10
7.50188
 20
3.64192
 30
0.000000
  70
    32
  0
VERTEX
  8
0
  5
C27
 10
7.50503
 20
3.64298
 30
0.000000
  70
    32
  0
VERTEX
  8
0
  5
C28
 10
7.50818
 20
3.64403
 30
0.000000
  70
    32
  0
VERTEX
  8
0
  5
C29
 10
7.51133
 20
3.64508
 30
0.000000
  70
    32
  0
VERTEX
  8
0
  5
C2A
 10
7.51448
 20
3.64614
 30
0.000000
  70
    32
  0
VERTEX
  8
0
  5
C2B
 10
7.51763
 20
3.64719
 30
0.000000
  70
    32
  0
VERTEX
  8
0
  5
C2C
 10
7.52078
 20
3.64824
 30
0.000000
  70
    32
  0
VERTEX
  8
0
  5
C2D
 10
7.52393
 20
3.64929
 30
0.000000
  70
    32
  0
VERTEX
  8
0
  5
C2E
 10
7.52708
 20
3.65035
 30
0.000000
  70
    32
  0
VERTEX
  8
0
  5
C2F
 10
7.53023
 20
3.65140
 30
0.000000
  70
    32
  0
VERTEX
  8
0
  5
C30
 10
7.53338
 20
3.65245
 30
0.000000
  70
    32
  0
VERTEX
  8
0
  5
C31
 10
7.53653
 20
3.65351
 30
0.000000
  70
    32
  0
VERTEX
  8
0
  5
C32
 10
7.53968
 20
3.65456
 30
0.000000
  70
    32
  0
VERTEX
  8
0
  5
C33
 10
7.54283
 20
3.65561
 30
0.000000
  70
    32
  0
VERTEX
  8
0
  5
C34
 10
7.54598
 20
3.65666
 30
0.000000
  70
    32
  0
VERTEX
  8
0
  5
C35
 10
7.54913
 20
3.65772
 30
0.000000
  70
    32
  0
VERTEX
  8
0
  5
C36
 10
7.55228
 20
3.65877
 30
0.000000
  70
    32
  0
VERTEX
  8
0
  5
C37
 10
7.55543
 20
3.65982
 30
0.000000
  70
    32
  0
VERTEX
  8
0
  5
C38
 10
7.55858
 20
3.66087
 30
0.000000
  70
    32
  0
VERTEX
  8
0
  5
C39
 10
7.56173
 20
3.66193
 30
0.000000
  70
    32
  0
VERTEX
  8
0
  5
C3A
 10
7.56488
 20
3.66298
 30
0.000000
  70
    32
  0
VERTEX
  8
0
  5
C3B
 10
7.56803
 20
3.66403
 30
0.000000
  70
    32
  0
VERTEX
  8
0
  5
C3C
 10
7.57118
 20
3.66508
 30
0.000000
  70
    32
  0
VERTEX
  8
0
  5
C3D
 10
7.57433
 20
3.66613
 30
0.000000
  70
    32
  0
VERTEX
  8
0
  5
C3E
 10
7.57749
 20
3.66719
 30
0.000000
  70
    32
  0
VERTEX
  8
0
  5
C3F
 10
7.58064
 20
3.66824
 30
0.000000
  70
    32
  0
VERTEX
  8
0
  5
C40
 10
7.58379
 20
3.66929
 30
0.000000
  70
    32
  0
VERTEX
  8
0
  5
C41
 10
7.58694
 20
3.67034
 30
0.000000
  70
    32
  0
VERTEX
  8
0
  5
C42
 10
7.59009
 20
3.67139
 30
0.000000
  70
    32
  0
VERTEX
  8
0
  5
C43
 10
7.59324
 20
3.67245
 30
0.000000
  70
    32
  0
VERTEX
  8
0
  5
C44
 10
7.59639
 20
3.67350
 30
0.000000
  70
    32
  0
VERTEX
  8
0
  5
C45
 10
7.59954
 20
3.67455
 30
0.000000
  70
    32
  0
VERTEX
  8
0
  5
C46
 10
7.60269
 20
3.67560
 30
0.000000
  70
    32
  0
VERTEX
  8
0
  5
C47
 10
7.60584
 20
3.67665
 30
0.000000
  70
    32
  0
VERTEX
  8
0
  5
C48
 10
7.60900
 20
3.67770
 30
0.000000
  70
    32
  0
VERTEX
  8
0
  5
C49
 10
7.61215
 20
3.67875
 30
0.000000
  70
    32
  0
VERTEX
  8
0
  5
C4A
 10
7.61530
 20
3.67981
 30
0.000000
  70
    32
  0
VERTEX
  8
0
  5
C4B
 10
7.61845
 20
3.68086
 30
0.000000
  70
    32
  0
VERTEX
  8
0
  5
C4C
 10
7.62160
 20
3.68191
 30
0.000000
  70
    32
  0
VERTEX
  8
0
  5
C4D
 10
7.62475
 20
3.68296
 30
0.000000
  70
    32
  0
VERTEX
  8
0
  5
C4E
 10
7.62790
 20
3.68401
 30
0.000000
  70
    32
  0
VERTEX
  8
0
  5
C4F
 10
7.63105
 20
3.68506
 30
0.000000
  70
    32
  0
VERTEX
  8
0
  5
C50
 10
7.63421
 20
3.68611
 30
0.000000
  70
    32
  0
VERTEX
  8
0
  5
C51
 10
7.63736
 20
3.68716
 30
0.000000
  70
    32
  0
VERTEX
  8
0
  5
C52
 10
7.64051
 20
3.68821
 30
0.000000
  70
    32
  0
VERTEX
  8
0
  5
C53
 10
7.64366
 20
3.68926
 30
0.000000
  70
    32
  0
VERTEX
  8
0
  5
C54
 10
7.64681
 20
3.69031
 30
0.000000
  70
    32
  0
VERTEX
  8
0
  5
C55
 10
7.64996
 20
3.69136
 30
0.000000
  70
    32
  0
VERTEX
  8
0
  5
C56
 10
7.65311
 20
3.69241
 30
0.000000
  70
    32
  0
VERTEX
  8
0
  5
C57
 10
7.65626
 20
3.69346
 30
0.000000
  70
    32
  0
VERTEX
  8
0
  5
C58
 10
7.65942
 20
3.69451
 30
0.000000
  70
    32
  0
VERTEX
  8
0
  5
C59
 10
7.66257
 20
3.69556
 30
0.000000
  70
    32
  0
VERTEX
  8
0
  5
C5A
 10
7.66572
 20
3.69661
 30
0.000000
  70
    32
  0
VERTEX
  8
0
  5
C5B
 10
7.66887
 20
3.69766
 30
0.000000
  70
    32
  0
VERTEX
  8
0
  5
C5C
 10
7.67202
 20
3.69871
 30
0.000000
  70
    32
  0
VERTEX
  8
0
  5
C5D
 10
7.67517
 20
3.69976
 30
0.000000
  70
    32
  0
VERTEX
  8
0
  5
C5E
 10
7.67832
 20
3.70081
 30
0.000000
  70
    32
  0
VERTEX
  8
0
  5
C5F
 10
7.68147
 20
3.70186
 30
0.000000
  70
    32
  0
VERTEX
  8
0
  5
C60
 10
7.68463
 20
3.70291
 30
0.000000
  70
    32
  0
VERTEX
  8
0
  5
C61
 10
7.68778
 20
3.70396
 30
0.000000
  70
    32
  0
VERTEX
  8
0
  5
C62
 10
7.69093
 20
3.70501
 30
0.000000
  70
    32
  0
VERTEX
  8
0
  5
C63
 10
7.69408
 20
3.70606
 30
0.000000
  70
    32
  0
VERTEX
  8
0
  5
C64
 10
7.69723
 20
3.70711
 30
0.000000
  70
    32
  0
VERTEX
  8
0
  5
C65
 10
7.70038
 20
3.70816
 30
0.000000
  70
    32
  0
VERTEX
  8
0
  5
C66
 10
7.70353
 20
3.70920
 30
0.000000
  70
    32
  0
VERTEX
  8
0
  5
C67
 10
7.70668
 20
3.71025
 30
0.000000
  70
    32
  0
VERTEX
  8
0
  5
C68
 10
7.70983
 20
3.71130
 30
0.000000
  70
    32
  0
VERTEX
  8
0
  5
C69
 10
7.71298
 20
3.71235
 30
0.000000
  70
    32
  0
VERTEX
  8
0
  5
C6A
 10
7.71614
 20
3.71340
 30
0.000000
  70
    32
  0
VERTEX
  8
0
  5
C6B
 10
7.71929
 20
3.71444
 30
0.000000
  70
    32
  0
VERTEX
  8
0
  5
C6C
 10
7.72244
 20
3.71549
 30
0.000000
  70
    32
  0
VERTEX
  8
0
  5
C6D
 10
7.72559
 20
3.71654
 30
0.000000
  70
    32
  0
VERTEX
  8
0
  5
C6E
 10
7.72874
 20
3.71759
 30
0.000000
  70
    32
  0
VERTEX
  8
0
  5
C6F
 10
7.73189
 20
3.71863
 30
0.000000
  70
    32
  0
VERTEX
  8
0
  5
C70
 10
7.73504
 20
3.71968
 30
0.000000
  70
    32
  0
VERTEX
  8
0
  5
C71
 10
7.73819
 20
3.72073
 30
0.000000
  70
    32
  0
VERTEX
  8
0
  5
C72
 10
7.74134
 20
3.72178
 30
0.000000
  70
    32
  0
VERTEX
  8
0
  5
C73
 10
7.74449
 20
3.72282
 30
0.000000
  70
    32
  0
VERTEX
  8
0
  5
C74
 10
7.74692
 20
3.72363
 30
0.000000
  70
    32
  0
VERTEX
  8
0
  5
C75
 10
7.74877
 20
3.72426
 30
0.000000
  70
    32
  0
VERTEX
  8
0
  5
C76
 10
7.75064
 20
3.72490
 30
0.000000
  70
    32
  0
VERTEX
  8
0
  5
C77
 10
7.75253
 20
3.72555
 30
0.000000
  70
    32
  0
VERTEX
  8
0
  5
C78
 10
7.75445
 20
3.72622
 30
0.000000
  70
    32
  0
VERTEX
  8
0
  5
C79
 10
7.75639
 20
3.72689
 30
0.000000
  70
    32
  0
VERTEX
  8
0
  5
C7A
 10
7.75834
 20
3.72758
 30
0.000000
  70
    32
  0
VERTEX
  8
0
  5
C7B
 10
7.76032
 20
3.72828
 30
0.000000
  70
    32
  0
VERTEX
  8
0
  5
C7C
 10
7.76232
 20
3.72899
 30
0.000000
  70
    32
  0
VERTEX
  8
0
  5
C7D
 10
7.76433
 20
3.72970
 30
0.000000
  70
    32
  0
VERTEX
  8
0
  5
C7E
 10
7.76637
 20
3.73043
 30
0.000000
  70
    32
  0
VERTEX
  8
0
  5
C7F
 10
7.76842
 20
3.73117
 30
0.000000
  70
    32
  0
VERTEX
  8
0
  5
C80
 10
7.77049
 20
3.73191
 30
0.000000
  70
    32
  0
VERTEX
  8
0
  5
C81
 10
7.77258
 20
3.73266
 30
0.000000
  70
    32
  0
VERTEX
  8
0
  5
C82
 10
7.77469
 20
3.73342
 30
0.000000
  70
    32
  0
VERTEX
  8
0
  5
C83
 10
7.77681
 20
3.73419
 30
0.000000
  70
    32
  0
VERTEX
  8
0
  5
C84
 10
7.77894
 20
3.73496
 30
0.000000
  70
    32
  0
VERTEX
  8
0
  5
C85
 10
7.78110
 20
3.73574
 30
0.000000
  70
    32
  0
VERTEX
  8
0
  5
C86
 10
7.78327
 20
3.73653
 30
0.000000
  70
    32
  0
VERTEX
  8
0
  5
C87
 10
7.78545
 20
3.73732
 30
0.000000
  70
    32
  0
VERTEX
  8
0
  5
C88
 10
7.78765
 20
3.73811
 30
0.000000
  70
    32
  0
VERTEX
  8
0
  5
C89
 10
7.78986
 20
3.73891
 30
0.000000
  70
    32
  0
VERTEX
  8
0
  5
C8A
 10
7.79208
 20
3.73971
 30
0.000000
  70
    32
  0
VERTEX
  8
0
  5
C8B
 10
7.79432
 20
3.74052
 30
0.000000
  70
    32
  0
VERTEX
  8
0
  5
C8C
 10
7.79657
 20
3.74133
 30
0.000000
  70
    32
  0
VERTEX
  8
0
  5
C8D
 10
7.79884
 20
3.74214
 30
0.000000
  70
    32
  0
VERTEX
  8
0
  5
C8E
 10
7.80111
 20
3.74296
 30
0.000000
  70
    32
  0
VERTEX
  8
0
  5
C8F
 10
7.80340
 20
3.74377
 30
0.000000
  70
    32
  0
VERTEX
  8
0
  5
C90
 10
7.80569
 20
3.74459
 30
0.000000
  70
    32
  0
VERTEX
  8
0
  5
C91
 10
7.80800
 20
3.74541
 30
0.000000
  70
    32
  0
VERTEX
  8
0
  5
C92
 10
7.81032
 20
3.74623
 30
0.000000
  70
    32
  0
VERTEX
  8
0
  5
C93
 10
7.81264
 20
3.74705
 30
0.000000
  70
    32
  0
VERTEX
  8
0
  5
C94
 10
7.81498
 20
3.74787
 30
0.000000
  70
    32
  0
VERTEX
  8
0
  5
C95
 10
7.81732
 20
3.74868
 30
0.000000
  70
    32
  0
VERTEX
  8
0
  5
C96
 10
7.81967
 20
3.74950
 30
0.000000
  70
    32
  0
VERTEX
  8
0
  5
C97
 10
7.82203
 20
3.75031
 30
0.000000
  70
    32
  0
VERTEX
  8
0
  5
C98
 10
7.82440
 20
3.75113
 30
0.000000
  70
    32
  0
VERTEX
  8
0
  5
C99
 10
7.82677
 20
3.75193
 30
0.000000
  70
    32
  0
VERTEX
  8
0
  5
C9A
 10
7.82915
 20
3.75274
 30
0.000000
  70
    32
  0
VERTEX
  8
0
  5
C9B
 10
7.83154
 20
3.75354
 30
0.000000
  70
    32
  0
VERTEX
  8
0
  5
C9C
 10
7.83393
 20
3.75434
 30
0.000000
  70
    32
  0
VERTEX
  8
0
  5
C9D
 10
7.83633
 20
3.75513
 30
0.000000
  70
    32
  0
VERTEX
  8
0
  5
C9E
 10
7.83873
 20
3.75592
 30
0.000000
  70
    32
  0
VERTEX
  8
0
  5
C9F
 10
7.84114
 20
3.75670
 30
0.000000
  70
    32
  0
VERTEX
  8
0
  5
CA0
 10
7.84355
 20
3.75748
 30
0.000000
  70
    32
  0
VERTEX
  8
0
  5
CA1
 10
7.84596
 20
3.75825
 30
0.000000
  70
    32
  0
VERTEX
  8
0
  5
CA2
 10
7.84838
 20
3.75902
 30
0.000000
  70
    32
  0
VERTEX
  8
0
  5
CA3
 10
7.85080
 20
3.75977
 30
0.000000
  70
    32
  0
VERTEX
  8
0
  5
CA4
 10
7.85322
 20
3.76052
 30
0.000000
  70
    32
  0
VERTEX
  8
0
  5
CA5
 10
7.85564
 20
3.76126
 30
0.000000
  70
    32
  0
VERTEX
  8
0
  5
CA6
 10
7.85806
 20
3.76200
 30
0.000000
  70
    32
  0
VERTEX
  8
0
  5
CA7
 10
7.86049
 20
3.76272
 30
0.000000
  70
    32
  0
VERTEX
  8
0
  5
CA8
 10
7.86291
 20
3.76343
 30
0.000000
  70
    32
  0
VERTEX
  8
0
  5
CA9
 10
7.86533
 20
3.76414
 30
0.000000
  70
    32
  0
VERTEX
  8
0
  5
CAA
 10
7.86776
 20
3.76483
 30
0.000000
  70
    32
  0
VERTEX
  8
0
  5
CAB
 10
7.87018
 20
3.76552
 30
0.000000
  70
    32
  0
VERTEX
  8
0
  5
CAC
 10
7.87260
 20
3.76619
 30
0.000000
  70
    32
  0
VERTEX
  8
0
  5
CAD
 10
7.87502
 20
3.76685
 30
0.000000
  70
    32
  0
VERTEX
  8
0
  5
CAE
 10
7.87744
 20
3.76750
 30
0.000000
  70
    32
  0
VERTEX
  8
0
  5
CAF
 10
7.87985
 20
3.76813
 30
0.000000
  70
    32
  0
VERTEX
  8
0
  5
CB0
 10
7.88226
 20
3.76875
 30
0.000000
  70
    32
  0
VERTEX
  8
0
  5
CB1
 10
7.88467
 20
3.76936
 30
0.000000
  70
    32
  0
VERTEX
  8
0
  5
CB2
 10
7.88707
 20
3.76996
 30
0.000000
  70
    32
  0
VERTEX
  8
0
  5
CB3
 10
7.88947
 20
3.77054
 30
0.000000
  70
    32
  0
VERTEX
  8
0
  5
CB4
 10
7.89187
 20
3.77111
 30
0.000000
  70
    32
  0
VERTEX
  8
0
  5
CB5
 10
7.89425
 20
3.77166
 30
0.000000
  70
    32
  0
VERTEX
  8
0
  5
CB6
 10
7.89664
 20
3.77219
 30
0.000000
  70
    32
  0
VERTEX
  8
0
  5
CB7
 10
7.89901
 20
3.77271
 30
0.000000
  70
    32
  0
VERTEX
  8
0
  5
CB8
 10
7.90138
 20
3.77321
 30
0.000000
  70
    32
  0
VERTEX
  8
0
  5
CB9
 10
7.90374
 20
3.77370
 30
0.000000
  70
    32
  0
VERTEX
  8
0
  5
CBA
 10
7.90610
 20
3.77417
 30
0.000000
  70
    32
  0
VERTEX
  8
0
  5
CBB
 10
7.90844
 20
3.77462
 30
0.000000
  70
    32
  0
VERTEX
  8
0
  5
CBC
 10
7.91078
 20
3.77505
 30
0.000000
  70
    32
  0
VERTEX
  8
0
  5
CBD
 10
7.91311
 20
3.77546
 30
0.000000
  70
    32
  0
VERTEX
  8
0
  5
CBE
 10
7.91543
 20
3.77586
 30
0.000000
  70
    32
  0
VERTEX
  8
0
  5
CBF
 10
7.91774
 20
3.77623
 30
0.000000
  70
    32
  0
VERTEX
  8
0
  5
CC0
 10
7.92004
 20
3.77658
 30
0.000000
  70
    32
  0
VERTEX
  8
0
  5
CC1
 10
7.92233
 20
3.77692
 30
0.000000
  70
    32
  0
VERTEX
  8
0
  5
CC2
 10
7.92461
 20
3.77723
 30
0.000000
  70
    32
  0
VERTEX
  8
0
  5
CC3
 10
7.92687
 20
3.77752
 30
0.000000
  70
    32
  0
VERTEX
  8
0
  5
CC4
 10
7.92913
 20
3.77779
 30
0.000000
  70
    32
  0
VERTEX
  8
0
  5
CC5
 10
7.93137
 20
3.77804
 30
0.000000
  70
    32
  0
VERTEX
  8
0
  5
CC6
 10
7.93360
 20
3.77826
 30
0.000000
  70
    32
  0
VERTEX
  8
0
  5
CC7
 10
7.93582
 20
3.77846
 30
0.000000
  70
    32
  0
VERTEX
  8
0
  5
CC8
 10
7.93802
 20
3.77864
 30
0.000000
  70
    32
  0
VERTEX
  8
0
  5
CC9
 10
7.94020
 20
3.77879
 30
0.000000
  70
    32
  0
VERTEX
  8
0
  5
CCA
 10
7.94238
 20
3.77892
 30
0.000000
  70
    32
  0
VERTEX
  8
0
  5
CCB
 10
7.94454
 20
3.77902
 30
0.000000
  70
    32
  0
VERTEX
  8
0
  5
CCC
 10
7.94668
 20
3.77910
 30
0.000000
  70
    32
  0
VERTEX
  8
0
  5
CCD
 10
7.94881
 20
3.77915
 30
0.000000
  70
    32
  0
VERTEX
  8
0
  5
CCE
 10
7.95092
 20
3.77917
 30
0.000000
  70
    32
  0
VERTEX
  8
0
  5
CCF
 10
7.95301
 20
3.77917
 30
0.000000
  70
    32
  0
VERTEX
  8
0
  5
CD0
 10
7.95509
 20
3.77914
 30
0.000000
  70
    32
  0
VERTEX
  8
0
  5
CD1
 10
7.95714
 20
3.77909
 30
0.000000
  70
    32
  0
VERTEX
  8
0
  5
CD2
 10
7.95918
 20
3.77900
 30
0.000000
  70
    32
  0
VERTEX
  8
0
  5
CD3
 10
7.96121
 20
3.77889
 30
0.000000
  70
    32
  0
VERTEX
  8
0
  5
CD4
 10
7.96321
 20
3.77875
 30
0.000000
  70
    32
  0
VERTEX
  8
0
  5
CD5
 10
7.96519
 20
3.77858
 30
0.000000
  70
    32
  0
SEQEND
  8
0
  5
CD6
  0
ATTDEF
  5
83
  8
DEFPOINTS
 10
0.0
 20
-0.005
 30
0.0
 40
0.001
  1
VITREOUS CHINA
  3

  2
MATERIAL
 70
     8
1001
AcDbAttr
1070
     0
1070
     1
  0
ATTDEF
  5
84
  8
DEFPOINTS
 10
0.0
 20
-0.0033333333333333
 30
0.0
 40
0.001
  1
BATHROOM SINK
  3

  2
PRODUCT
 70
     8
1001
AcDbAttr
1070
     0
1070
     1
  0
ATTDEF
  5
85
  8
DEFPOINTS
 10
0.0
 20
-0.0016666666666667
 30
0.0
 40
0.001
  1
MEMOIRS STATELY
  3

  2
TRADENAME
 70
     8
1001
AcDbAttr
1070
     0
1070
     1
  0
ATTDEF
  5
86
  8
DEFPOINTS
 10
0.0
 20
0.0
 30
0.0
 40
0.001
  1
K-2337-8
  3

  2
MODELNUMBER
 70
     8
1001
AcDbAttr
1070
     0
1070
     1
  0
ENDSEC
  0
EOF
