  0
SECTION
  2
HEADER
  9
$ACADVER
  1
AC1009
  9
$INSBASE
 10
0.0
 20
0.0
 30
0.0
  9
$EXTMIN
 10
-12.249898651784569
 20
-0.005
 30
0.0
  9
$EXTMAX
 10
12.249898651784569
 20
34.749979607262503
 30
0.0
  9
$LIMMIN
 10
0.0
 20
0.0
  9
$LIMMAX
 10
12.0
 20
9.0
  9
$ORTHOMODE
 70
     0
  9
$REGENMODE
 70
     1
  9
$FILLMODE
 70
     1
  9
$QTEXTMODE
 70
     0
  9
$MIRRTEXT
 70
     1
  9
$DRAGMODE
 70
     2
  9
$LTSCALE
 40
1.0
  9
$OSMODE
 70
    37
  9
$ATTMODE
 70
     1
  9
$TEXTSIZE
 40
0.001
  9
$TRACEWID
 40
0.05
  9
$TEXTSTYLE
  7
STANDARD
  9
$CLAYER
  8
0
  9
$CELTYPE
  6
BYLAYER
  9
$CECOLOR
 62
   256
  9
$DIMSCALE
 40
1.0
  9
$DIMASZ
 40
0.18
  9
$DIMEXO
 40
0.0625
  9
$DIMDLI
 40
0.38
  9
$DIMRND
 40
0.0
  9
$DIMDLE
 40
0.0
  9
$DIMEXE
 40
0.18
  9
$DIMTP
 40
0.0
  9
$DIMTM
 40
0.0
  9
$DIMTXT
 40
0.18
  9
$DIMCEN
 40
0.09
  9
$DIMTSZ
 40
0.0
  9
$DIMTOL
 70
     0
  9
$DIMLIM
 70
     0
  9
$DIMTIH
 70
     1
  9
$DIMTOH
 70
     1
  9
$DIMSE1
 70
     0
  9
$DIMSE2
 70
     0
  9
$DIMTAD
 70
     0
  9
$DIMZIN
 70
     0
  9
$DIMBLK
  1

  9
$DIMASO
 70
     1
  9
$DIMSHO
 70
     1
  9
$DIMPOST
  1

  9
$DIMAPOST
  1

  9
$DIMALT
 70
     0
  9
$DIMALTD
 70
     2
  9
$DIMALTF
 40
25.399999999999999
  9
$DIMLFAC
 40
1.0
  9
$DIMTOFL
 70
     0
  9
$DIMTVP
 40
0.0
  9
$DIMTIX
 70
     0
  9
$DIMSOXD
 70
     0
  9
$DIMSAH
 70
     0
  9
$DIMBLK1
  1

  9
$DIMBLK2
  1

  9
$DIMSTYLE
  2
STANDARD
  9
$DIMCLRD
 70
     0
  9
$DIMCLRE
 70
     0
  9
$DIMCLRT
 70
     0
  9
$DIMTFAC
 40
1.0
  9
$DIMGAP
 40
0.09
  9
$LUNITS
 70
     2
  9
$LUPREC
 70
     4
  9
$SKETCHINC
 40
0.1
  9
$FILLETRAD
 40
0.0
  9
$AUNITS
 70
     0
  9
$AUPREC
 70
     0
  9
$MENU
  1
.
  9
$ELEVATION
 40
0.0
  9
$PELEVATION
 40
0.0
  9
$THICKNESS
 40
0.0
  9
$LIMCHECK
 70
     0
  9
$BLIPMODE
 70
     0
  9
$CHAMFERA
 40
0.5
  9
$CHAMFERB
 40
0.5
  9
$SKPOLY
 70
     0
  9
$TDCREATE
 40
2451380.555432396
  9
$TDUPDATE
 40
2456700.4543388202
  9
$TDINDWG
 40
3.5209014815000002
  9
$TDUSRTIMER
 40
3.5208924421000001
  9
$USRTIMER
 70
     1
  9
$ANGBASE
 50
0.0
  9
$ANGDIR
 70
     0
  9
$PDMODE
 70
     0
  9
$PDSIZE
 40
0.0
  9
$PLINEWID
 40
0.0
  9
$COORDS
 70
     1
  9
$SPLFRAME
 70
     0
  9
$SPLINETYPE
 70
     6
  9
$SPLINESEGS
 70
     8
  9
$ATTDIA
 70
     0
  9
$ATTREQ
 70
     1
  9
$HANDLING
 70
     1
  9
$HANDSEED
  5
148
  9
$SURFTAB1
 70
     6
  9
$SURFTAB2
 70
     6
  9
$SURFTYPE
 70
     6
  9
$SURFU
 70
     6
  9
$SURFV
 70
     6
  9
$UCSNAME
  2

  9
$UCSORG
 10
0.0
 20
0.0
 30
0.0
  9
$UCSXDIR
 10
1.0
 20
0.0
 30
0.0
  9
$UCSYDIR
 10
0.0
 20
1.0
 30
0.0
  9
$PUCSNAME
  2

  9
$PUCSORG
 10
0.0
 20
0.0
 30
0.0
  9
$PUCSXDIR
 10
1.0
 20
0.0
 30
0.0
  9
$PUCSYDIR
 10
0.0
 20
1.0
 30
0.0
  9
$USERI1
 70
     0
  9
$USERI2
 70
     0
  9
$USERI3
 70
     0
  9
$USERI4
 70
     0
  9
$USERI5
 70
     0
  9
$USERR1
 40
0.0
  9
$USERR2
 40
0.0
  9
$USERR3
 40
0.0
  9
$USERR4
 40
0.0
  9
$USERR5
 40
0.0
  9
$WORLDVIEW
 70
     1
  9
$SHADEDGE
 70
     3
  9
$SHADEDIF
 70
    70
  9
$TILEMODE
 70
     1
  9
$MAXACTVP
 70
    64
  9
$PLIMCHECK
 70
     0
  9
$PEXTMIN
 10
1.0000000000000000E+020
 20
1.0000000000000000E+020
 30
1.0000000000000000E+020
  9
$PEXTMAX
 10
-1.0000000000000000E+020
 20
-1.0000000000000000E+020
 30
-1.0000000000000000E+020
  9
$PLIMMIN
 10
0.0
 20
0.0
  9
$PLIMMAX
 10
12.0
 20
9.0
  9
$UNITMODE
 70
     0
  9
$VISRETAIN
 70
     1
  9
$PLINEGEN
 70
     0
  9
$PSLTSCALE
 70
     1
  0
ENDSEC
  0
SECTION
  2
TABLES
  0
TABLE
  2
VPORT
 70
     1
  0
VPORT
  2
*ACTIVE
 70
     0
 10
0.0
 20
0.0
 11
1.0
 21
1.0
 12
-18.62136469330855
 22
97.599801123659901
 13
0.0
 23
0.0
 14
0.5
 24
0.5
 15
0.5
 25
0.5
 16
0.0
 26
0.0
 36
1.0
 17
0.0
 27
0.0
 37
0.0
 40
218.67749083148749
 41
1.1829652996845419
 42
50.0
 43
0.0
 44
0.0
 50
0.0
 51
0.0
 71
     0
 72
  5500
 73
     1
 74
     1
 75
     0
 76
     0
 77
     0
 78
     0
  0
ENDTAB
  0
TABLE
  2
LTYPE
 70
     2
  0
LTYPE
  2
CONTINUOUS
 70
     0
  3
Solid line
 72
    65
 73
     0
 40
0.0
  0
LTYPE
  2
PHANTOM2
 70
     0
  3
Phantom (.5x) ___ _ _ ___ _ _ ___ _ _ ___ _ _
 72
    65
 73
     6
 40
1.25
 49
0.625
 49
-0.125
 49
0.125
 49
-0.125
 49
0.125
 49
-0.125
  0
ENDTAB
  0
TABLE
  2
LAYER
 70
     2
  0
LAYER
  2
0
 70
     0
 62
     7
  6
CONTINUOUS
  0
LAYER
  2
DEFPOINTS
 70
     0
 62
     7
  6
CONTINUOUS
  0
ENDTAB
  0
TABLE
  2
STYLE
 70
     1
  0
STYLE
  2
STANDARD
 70
     0
 40
0.0
 41
1.0
 50
0.0
 71
     0
 42
0.001
  3
txt
  4

  0
ENDTAB
  0
TABLE
  2
VIEW
 70
     0
  0
ENDTAB
  0
TABLE
  2
UCS
 70
     0
  0
ENDTAB
  0
TABLE
  2
APPID
 70
     4
  0
APPID
  2
ACAD
 70
     0
  0
APPID
  2
ACAD_NAV_VCDISPLAY
 70
     0
  0
APPID
  2
AcDbAttr
 70
     0
  0
APPID
  2
ACAD_MLEADERVER
 70
     0
  0
ENDTAB
  0
TABLE
  2
DIMSTYLE
 70
     1
  0
DIMSTYLE
  2
STANDARD
 70
     0
  3

  4

  5

  6

  7

 40
1.0
 41
0.18
 42
0.0625
 43
0.38
 44
0.18
 45
0.0
 46
0.0
 47
0.0
 48
0.0
140
0.18
141
0.09
142
0.0
143
25.399999999999999
144
1.0
145
0.0
146
1.0
147
0.09
 71
     0
 72
     0
 73
     1
 74
     1
 75
     0
 76
     0
 77
     0
 78
     0
170
     0
171
     2
172
     0
173
     0
174
     0
175
     0
176
     0
177
     0
178
     0
  0
ENDTAB
  0
ENDSEC
  0
SECTION
  2
BLOCKS
  0
BLOCK
  8
0
  2
$MODEL_SPACE
 70
     2
 10
0.0
 20
0.0
 30
0.0
  3
$MODEL_SPACE
  1

  0
ENDBLK
  5
16
  8
0
  0
BLOCK
 67
     1
  8
0
  2
$PAPER_SPACE
 70
     0
 10
0.0
 20
0.0
 30
0.0
  3
$PAPER_SPACE
  1

  0
ENDBLK
  5
1D
 67
     1
  8
0
  0
ENDSEC
  0
SECTION
  2
ENTITIES
  0
LINE
  5
71
  8
0
 10
-4.0577791018473022
 20
27.246261502303689
 30
0.0
 11
4.0577791018473022
 21
27.246261502303689
 31
0.0
  0
LINE
  5
72
  8
0
 10
-4.0577791018472453
 20
26.697337349255569
 30
0.0
 11
4.0577791018472453
 21
26.697337349255569
 31
0.0
  0
LINE
  5
73
  8
0
 10
4.0577791018472453
 20
27.246261502303689
 30
0.0
 11
4.0577791018472453
 21
26.697337349255569
 31
0.0
  0
LINE
  5
74
  8
0
 10
5.5565906596334571
 20
-0.0000000000000071
 30
0.0
 11
-5.5565906596334571
 21
0.0000000000000071
 31
0.0
  0
ARC
  5
75
  8
0
 10
7.9038595691222318
 20
5.6214174522087808
 30
0.0
 40
4.6018294414663243
 50
181.40045697551119
 51
221.48266694420349
  0
ARC
  5
76
  8
0
 10
3.5953374344858271
 20
0.8526273632478407
 30
0.0
 40
1.5128207772935169
 50
1.920045992698018
 51
55.323476633388871
  0
ARC
  5
77
  8
0
 10
5.3012232995001787
 20
1.0094649059947109
 30
0.0
 40
0.2210673825873017
 50
208.69673619308981
 51
273.50125201959167
  0
ARC
  5
78
  8
0
 10
5.321103299272635
 20
0.5728810905788963
 30
0.0
 40
0.2160232769874333
 50
13.52816665944016
 51
91.692235432799606
  0
LINE
  5
79
  8
0
 10
5.5565906596334571
 20
-0.0000000000000071
 30
0.0
 11
5.5311330192848791
 21
0.6234139799880653
 31
0.0
  0
LINE
  5
7A
  8
0
 10
4.456045630855896
 20
2.0967367253670011
 30
0.0
 11
4.4563707804613841
 21
2.5731957968155181
 31
0.0
  0
LINE
  5
7B
  8
0
 10
3.3034047176483901
 20
5.5089480434889921
 30
0.0
 11
2.8833217948044871
 21
22.689673042017141
 31
0.0
  0
ARC
  5
7C
  8
0
 10
10.191296933486649
 20
22.723971518869799
 30
0.0
 40
7.308055624659068
 50
147.06435343644529
 51
180.2689039715454
  0
LINE
  5
7D
  8
0
 10
-4.4563707804620094
 20
2.5731957968155181
 30
0.0
 11
4.4563707804618948
 21
2.5731957968155181
 31
0.0
  0
LINE
  5
7E
  8
0
 10
-4.456045630855896
 20
2.0967367253669091
 30
0.0
 11
4.456045630855896
 21
2.0967367253669229
 31
0.0
  0
POLYLINE
  5
7F
  8
0
 66
     1
 10
0.0
 20
0.0
 30
0.0
  0
VERTEX
  5
80
  8
0
 10
12.249898651784569
 20
33.67656038619986
 30
0.0
  0
VERTEX
  5
81
  8
0
 10
12.249898651784569
 20
34.749979607262503
 30
0.0
  0
SEQEND
  5
82
  8
0
  0
POLYLINE
  5
83
  8
0
 66
     1
 10
0.0
 20
0.0
 30
0.0
  0
VERTEX
  5
84
  8
0
 10
10.276179222705141
 20
30.9562736862955
 30
0.0
  0
VERTEX
  5
85
  8
0
 10
10.276179222705141
 20
31.45732918529114
 30
0.0
  0
SEQEND
  5
86
  8
0
  0
POLYLINE
  5
87
  8
0
 66
     1
 10
0.0
 20
0.0
 30
0.0
  0
VERTEX
  5
88
  8
0
 10
10.39195340997307
 20
31.60048789928987
 30
0.0
  0
VERTEX
  5
89
  8
0
 10
11.088632038040879
 20
32.17285162135687
 30
0.0
  0
VERTEX
  5
8A
  8
0
 10
11.379016474958799
 20
32.602327763353173
 30
0.0
  0
VERTEX
  5
8B
  8
0
 10
11.553355590680781
 20
32.960495682278058
 30
0.0
  0
VERTEX
  5
8C
  8
0
 10
11.669400911876719
 20
33.318392467274968
 30
0.0
  0
VERTEX
  5
8D
  8
0
 10
11.72742357247472
 20
33.67656038619986
 30
0.0
  0
SEQEND
  5
8E
  8
0
  0
POLYLINE
  5
8F
  8
0
 66
     1
 10
0.0
 20
0.0
 30
0.0
  0
VERTEX
  5
90
  8
0
 10
10.39195340997307
 20
31.60048789928987
 30
0.0
  0
VERTEX
  5
91
  8
0
 10
10.333930749375099
 20
31.60048789928987
 30
0.0
  0
VERTEX
  5
92
  8
0
 10
10.276179222705141
 20
31.45732918529114
 30
0.0
  0
SEQEND
  5
93
  8
0
  0
ARC
  5
94
  8
0
 10
10.014826679269071
 20
24.321841897932568
 30
0.0
 40
6.6361619828103331
 50
91.30838643972676
 51
153.85276509605271
  0
LINE
  5
95
  8
0
 10
-4.0577791018472453
 20
27.246261502303689
 30
0.0
 11
-4.0577791018472453
 21
26.697337349255569
 31
0.0
  0
ARC
  5
96
  8
0
 10
-7.9038595691222318
 20
5.6214174522087808
 30
0.0
 40
4.6018294414663243
 50
318.51733305579307
 51
358.59954302448881
  0
ARC
  5
97
  8
0
 10
-3.5953374344858271
 20
0.8526273632478407
 30
0.0
 40
1.5128207772935169
 50
124.6765233666147
 51
178.07995400730201
  0
ARC
  5
98
  8
0
 10
-5.3012232995001787
 20
1.0094649059947109
 30
0.0
 40
0.2210673825873017
 50
266.49874798040833
 51
331.30326380691031
  0
ARC
  5
99
  8
0
 10
-5.321103299272635
 20
0.5728810905788963
 30
0.0
 40
0.2160232769874333
 50
88.307764567200408
 51
166.47183334055981
  0
LINE
  5
9A
  8
0
 10
-5.5565906596334571
 20
-0.0000000000000071
 30
0.0
 11
-5.5311330192848791
 21
0.6234139799880653
 31
0.0
  0
LINE
  5
9B
  8
0
 10
-4.456045630855896
 20
2.0967367253670011
 30
0.0
 11
-4.4563707804613841
 21
2.5731957968155181
 31
0.0
  0
LINE
  5
9C
  8
0
 10
-3.3034047176483901
 20
5.5089480434889921
 30
0.0
 11
-2.8833217948044871
 21
22.689673042017141
 31
0.0
  0
ARC
  5
9D
  8
0
 10
-10.191296933486621
 20
22.723971518869799
 30
0.0
 40
7.308055624659068
 50
359.7310960284546
 51
32.935646563553362
  0
POLYLINE
  5
9E
  8
0
 66
     1
 10
0.0
 20
0.0
 30
0.0
  0
VERTEX
  5
9F
  8
0
 10
-12.249898651784569
 20
33.67656038619986
 30
0.0
  0
VERTEX
  5
A0
  8
0
 10
-12.249898651784569
 20
34.749979607262503
 30
0.0
  0
SEQEND
  5
A1
  8
0
  0
POLYLINE
  5
A2
  8
0
 66
     1
 10
0.0
 20
0.0
 30
0.0
  0
VERTEX
  5
A3
  8
0
 10
-10.276179222705141
 20
30.9562736862955
 30
0.0
  0
VERTEX
  5
A4
  8
0
 10
-10.276179222705141
 20
31.45732918529114
 30
0.0
  0
SEQEND
  5
A5
  8
0
  0
POLYLINE
  5
A6
  8
0
 66
     1
 10
0.0
 20
0.0
 30
0.0
  0
VERTEX
  5
A7
  8
0
 10
-10.39195340997304
 20
31.60048789928987
 30
0.0
  0
VERTEX
  5
A8
  8
0
 10
-11.088632038040879
 20
32.17285162135687
 30
0.0
  0
VERTEX
  5
A9
  8
0
 10
-11.379016474958799
 20
32.602327763353173
 30
0.0
  0
VERTEX
  5
AA
  8
0
 10
-11.553355590680781
 20
32.960495682278058
 30
0.0
  0
VERTEX
  5
AB
  8
0
 10
-11.669400911876719
 20
33.318392467274968
 30
0.0
  0
VERTEX
  5
AC
  8
0
 10
-11.72742357247472
 20
33.67656038619986
 30
0.0
  0
SEQEND
  5
AD
  8
0
  0
POLYLINE
  5
AE
  8
0
 66
     1
 10
0.0
 20
0.0
 30
0.0
  0
VERTEX
  5
AF
  8
0
 10
-10.39195340997304
 20
31.60048789928987
 30
0.0
  0
VERTEX
  5
B0
  8
0
 10
-10.333930749375099
 20
31.60048789928987
 30
0.0
  0
VERTEX
  5
B1
  8
0
 10
-10.276179222705141
 20
31.45732918529114
 30
0.0
  0
SEQEND
  5
B2
  8
0
  0
ARC
  5
B3
  8
0
 10
-10.014826679269101
 20
24.321841897932568
 30
0.0
 40
6.6361619828103331
 50
26.147234903947979
 51
88.691613560276508
  0
POLYLINE
  5
B4
  8
0
 66
     1
 10
0.0
 20
0.0
 30
0.0
  0
VERTEX
  5
104
  8
0
 10
5.3147239620661821
 20
0.7888101536000179
 30
0.0
  0
VERTEX
  5
105
  8
0
 10
-0.0000000000000568
 20
0.7879926845999634
 30
0.0
  0
VERTEX
  5
106
  8
0
 10
-5.3147239620661821
 20
0.7888101536000179
 30
0.0
  0
SEQEND
  5
107
  8
0
  0
POLYLINE
  5
B5
  8
0
 66
     1
 10
0.0
 20
0.0
 30
0.0
  0
VERTEX
  5
108
  8
0
 10
10.276179222705141
 20
30.9562736862955
 30
0.0
  0
VERTEX
  5
109
  8
0
 10
0.0
 20
30.9562736862955
 30
0.0
  0
VERTEX
  5
10A
  8
0
 10
-10.276179222705141
 20
30.9562736862955
 30
0.0
  0
SEQEND
  5
10B
  8
0
  0
POLYLINE
  5
B6
  8
0
 66
     1
 10
0.0
 20
0.0
 30
0.0
  0
VERTEX
  5
10C
  8
0
 10
-10.333930749375099
 20
31.60048789928987
 30
0.0
  0
VERTEX
  5
10D
  8
0
 10
0.0
 20
31.60048789928987
 30
0.0
  0
VERTEX
  5
10E
  8
0
 10
10.333930749375099
 20
31.60048789928987
 30
0.0
  0
SEQEND
  5
10F
  8
0
  0
POLYLINE
  5
B7
  8
0
 66
     1
 10
0.0
 20
0.0
 30
0.0
  0
VERTEX
  5
110
  8
0
 10
-12.249898651784569
 20
33.67656038619986
 30
0.0
  0
VERTEX
  5
111
  8
0
 10
0.0
 20
33.67656038619986
 30
0.0
  0
VERTEX
  5
112
  8
0
 10
12.249898651784569
 20
33.67656038619986
 30
0.0
  0
SEQEND
  5
113
  8
0
  0
POLYLINE
  5
B8
  8
0
 66
     1
 10
0.0
 20
0.0
 30
0.0
  0
VERTEX
  5
114
  8
0
 10
12.249898651784569
 20
34.749979607262503
 30
0.0
  0
VERTEX
  5
115
  8
0
 10
0.0
 20
34.749979607262503
 30
0.0
  0
VERTEX
  5
116
  8
0
 10
-12.249898651784569
 20
34.749979607262503
 30
0.0
  0
SEQEND
  5
117
  8
0
  0
ATTDEF
  5
B9
  8
DEFPOINTS
 10
0.0
 20
-0.005
 30
0.0
 40
0.001
  1
FIRECLAY
  3

  2
MATERIAL
 70
     8
1001
AcDbAttr
1070
     0
1070
     1
  0
ATTDEF
  5
BB
  8
DEFPOINTS
 10
0.0
 20
-0.0033333333333333
 30
0.0
 40
0.001
  1
PEDESTAL SINK
  3

  2
PRODUCT
 70
     8
1001
AcDbAttr
1070
     0
1070
     1
  0
ATTDEF
  5
BC
  8
DEFPOINTS
 10
0.0
 20
-0.0016666666666667
 30
0.0
 40
0.001
  1
MEMOIRS STATELY
  3

  2
TRADENAME
 70
     8
1001
AcDbAttr
1070
     0
1070
     1
  0
ATTDEF
  5
BD
  8
DEFPOINTS
 10
0.0
 20
0.0
 30
0.0
 40
0.001
  1
K-2344
  3

  2
MODELNUMBER
 70
     8
1001
AcDbAttr
1070
     0
1070
     1
  0
ENDSEC
  0
EOF
