  0
SECTION
  2
HEADER
  9
$ACADVER
  1
AC1009
  9
$INSBASE
 10
0.0
 20
0.0
 30
0.0
  9
$EXTMIN
 10
-12.25
 20
-20.5
 30
0.0
  9
$EXTMAX
 10
12.25
 20
0.001
 30
0.0
  9
$LIMMIN
 10
0.0
 20
0.0
  9
$LIMMAX
 10
12.0
 20
9.0
  9
$ORTHOMODE
 70
     0
  9
$REGENMODE
 70
     1
  9
$FILLMODE
 70
     1
  9
$QTEXTMODE
 70
     0
  9
$MIRRTEXT
 70
     1
  9
$DRAGMODE
 70
     2
  9
$LTSCALE
 40
1.0
  9
$OSMODE
 70
    37
  9
$ATTMODE
 70
     1
  9
$TEXTSIZE
 40
0.001
  9
$TRACEWID
 40
0.05
  9
$TEXTSTYLE
  7
STANDARD
  9
$CLAYER
  8
0
  9
$CELTYPE
  6
BYLAYER
  9
$CECOLOR
 62
   256
  9
$DIMSCALE
 40
1.0
  9
$DIMASZ
 40
0.18
  9
$DIMEXO
 40
0.0625
  9
$DIMDLI
 40
0.38
  9
$DIMRND
 40
0.0
  9
$DIMDLE
 40
0.0
  9
$DIMEXE
 40
0.18
  9
$DIMTP
 40
0.0
  9
$DIMTM
 40
0.0
  9
$DIMTXT
 40
0.18
  9
$DIMCEN
 40
0.09
  9
$DIMTSZ
 40
0.0
  9
$DIMTOL
 70
     0
  9
$DIMLIM
 70
     0
  9
$DIMTIH
 70
     1
  9
$DIMTOH
 70
     1
  9
$DIMSE1
 70
     0
  9
$DIMSE2
 70
     0
  9
$DIMTAD
 70
     0
  9
$DIMZIN
 70
     0
  9
$DIMBLK
  1

  9
$DIMASO
 70
     1
  9
$DIMSHO
 70
     1
  9
$DIMPOST
  1

  9
$DIMAPOST
  1

  9
$DIMALT
 70
     0
  9
$DIMALTD
 70
     2
  9
$DIMALTF
 40
25.399999999999999
  9
$DIMLFAC
 40
1.0
  9
$DIMTOFL
 70
     0
  9
$DIMTVP
 40
0.0
  9
$DIMTIX
 70
     0
  9
$DIMSOXD
 70
     0
  9
$DIMSAH
 70
     0
  9
$DIMBLK1
  1

  9
$DIMBLK2
  1

  9
$DIMSTYLE
  2
STANDARD
  9
$DIMCLRD
 70
     0
  9
$DIMCLRE
 70
     0
  9
$DIMCLRT
 70
     0
  9
$DIMTFAC
 40
1.0
  9
$DIMGAP
 40
0.09
  9
$LUNITS
 70
     2
  9
$LUPREC
 70
     4
  9
$SKETCHINC
 40
0.1
  9
$FILLETRAD
 40
0.0
  9
$AUNITS
 70
     0
  9
$AUPREC
 70
     0
  9
$MENU
  1
.
  9
$ELEVATION
 40
0.0
  9
$PELEVATION
 40
0.0
  9
$THICKNESS
 40
0.0
  9
$LIMCHECK
 70
     0
  9
$BLIPMODE
 70
     0
  9
$CHAMFERA
 40
0.5
  9
$CHAMFERB
 40
0.5
  9
$SKPOLY
 70
     0
  9
$TDCREATE
 40
2451380.555432396
  9
$TDUPDATE
 40
2456700.45430985
  9
$TDINDWG
 40
3.5220546180999999
  9
$TDUSRTIMER
 40
3.5220455786999998
  9
$USRTIMER
 70
     1
  9
$ANGBASE
 50
0.0
  9
$ANGDIR
 70
     0
  9
$PDMODE
 70
     0
  9
$PDSIZE
 40
0.0
  9
$PLINEWID
 40
0.0
  9
$COORDS
 70
     1
  9
$SPLFRAME
 70
     0
  9
$SPLINETYPE
 70
     6
  9
$SPLINESEGS
 70
     8
  9
$ATTDIA
 70
     0
  9
$ATTREQ
 70
     1
  9
$HANDLING
 70
     1
  9
$HANDSEED
  5
15E
  9
$SURFTAB1
 70
     6
  9
$SURFTAB2
 70
     6
  9
$SURFTYPE
 70
     6
  9
$SURFU
 70
     6
  9
$SURFV
 70
     6
  9
$UCSNAME
  2

  9
$UCSORG
 10
0.0
 20
0.0
 30
0.0
  9
$UCSXDIR
 10
1.0
 20
0.0
 30
0.0
  9
$UCSYDIR
 10
0.0
 20
1.0
 30
0.0
  9
$PUCSNAME
  2

  9
$PUCSORG
 10
0.0
 20
0.0
 30
0.0
  9
$PUCSXDIR
 10
1.0
 20
0.0
 30
0.0
  9
$PUCSYDIR
 10
0.0
 20
1.0
 30
0.0
  9
$USERI1
 70
     0
  9
$USERI2
 70
     0
  9
$USERI3
 70
     0
  9
$USERI4
 70
     0
  9
$USERI5
 70
     0
  9
$USERR1
 40
0.0
  9
$USERR2
 40
0.0
  9
$USERR3
 40
0.0
  9
$USERR4
 40
0.0
  9
$USERR5
 40
0.0
  9
$WORLDVIEW
 70
     1
  9
$SHADEDGE
 70
     3
  9
$SHADEDIF
 70
    70
  9
$TILEMODE
 70
     1
  9
$MAXACTVP
 70
    64
  9
$PLIMCHECK
 70
     0
  9
$PEXTMIN
 10
1.0000000000000000E+020
 20
1.0000000000000000E+020
 30
1.0000000000000000E+020
  9
$PEXTMAX
 10
-1.0000000000000000E+020
 20
-1.0000000000000000E+020
 30
-1.0000000000000000E+020
  9
$PLIMMIN
 10
0.0
 20
0.0
  9
$PLIMMAX
 10
12.0
 20
9.0
  9
$UNITMODE
 70
     0
  9
$VISRETAIN
 70
     1
  9
$PLINEGEN
 70
     0
  9
$PSLTSCALE
 70
     1
  0
ENDSEC
  0
SECTION
  2
TABLES
  0
TABLE
  2
VPORT
 70
     1
  0
VPORT
  2
*ACTIVE
 70
     0
 10
0.0
 20
0.0
 11
1.0
 21
1.0
 12
6.3061574455399656
 22
3.5848016246122749
 13
0.0
 23
0.0
 14
0.5
 24
0.5
 15
0.5
 25
0.5
 16
0.0
 26
0.0
 36
1.0
 17
0.0
 27
0.0
 37
0.0
 40
78.688875830980663
 41
1.1829652996845419
 42
50.0
 43
0.0
 44
0.0
 50
0.0
 51
0.0
 71
     0
 72
  5500
 73
     1
 74
     1
 75
     0
 76
     0
 77
     0
 78
     0
  0
ENDTAB
  0
TABLE
  2
LTYPE
 70
     2
  0
LTYPE
  2
CONTINUOUS
 70
     0
  3
Solid line
 72
    65
 73
     0
 40
0.0
  0
LTYPE
  2
PHANTOM2
 70
     0
  3
Phantom (.5x) ___ _ _ ___ _ _ ___ _ _ ___ _ _
 72
    65
 73
     6
 40
1.25
 49
0.625
 49
-0.125
 49
0.125
 49
-0.125
 49
0.125
 49
-0.125
  0
ENDTAB
  0
TABLE
  2
LAYER
 70
     2
  0
LAYER
  2
0
 70
     0
 62
     7
  6
CONTINUOUS
  0
LAYER
  2
DEFPOINTS
 70
     0
 62
     7
  6
CONTINUOUS
  0
ENDTAB
  0
TABLE
  2
STYLE
 70
     1
  0
STYLE
  2
STANDARD
 70
     0
 40
0.0
 41
1.0
 50
0.0
 71
     0
 42
0.001
  3
txt
  4

  0
ENDTAB
  0
TABLE
  2
VIEW
 70
     0
  0
ENDTAB
  0
TABLE
  2
UCS
 70
     0
  0
ENDTAB
  0
TABLE
  2
APPID
 70
     4
  0
APPID
  2
ACAD
 70
     0
  0
APPID
  2
ACAD_NAV_VCDISPLAY
 70
     0
  0
APPID
  2
AcDbAttr
 70
     0
  0
APPID
  2
ACAD_MLEADERVER
 70
     0
  0
ENDTAB
  0
TABLE
  2
DIMSTYLE
 70
     1
  0
DIMSTYLE
  2
STANDARD
 70
     0
  3

  4

  5

  6

  7

 40
1.0
 41
0.18
 42
0.0625
 43
0.38
 44
0.18
 45
0.0
 46
0.0
 47
0.0
 48
0.0
140
0.18
141
0.09
142
0.0
143
25.399999999999999
144
1.0
145
0.0
146
1.0
147
0.09
 71
     0
 72
     0
 73
     1
 74
     1
 75
     0
 76
     0
 77
     0
 78
     0
170
     0
171
     2
172
     0
173
     0
174
     0
175
     0
176
     0
177
     0
178
     0
  0
ENDTAB
  0
ENDSEC
  0
SECTION
  2
BLOCKS
  0
BLOCK
  8
0
  2
$MODEL_SPACE
 70
     2
 10
0.0
 20
0.0
 30
0.0
  3
$MODEL_SPACE
  1

  0
ENDBLK
  5
16
  8
0
  0
BLOCK
 67
     1
  8
0
  2
$PAPER_SPACE
 70
     0
 10
0.0
 20
0.0
 30
0.0
  3
$PAPER_SPACE
  1

  0
ENDBLK
  5
1D
 67
     1
  8
0
  0
ENDSEC
  0
SECTION
  2
ENTITIES
  0
POLYLINE
  5
71
  8
0
 66
     1
 10
0.0
 20
0.0
 30
0.0
  0
VERTEX
  5
72
  8
0
 10
-8.3148050963781088
 20
-4.536640383090556
 30
0.0
  0
VERTEX
  5
73
  8
0
 10
-8.3148050963781088
 20
-17.507793534872452
 30
0.0
  0
SEQEND
  5
74
  8
0
  0
POLYLINE
  5
75
  8
0
 66
     1
 10
0.0
 20
0.0
 30
0.0
  0
VERTEX
  5
76
  8
0
 10
-7.9084608713735056
 20
-5.1860316211819528
 30
0.0
  0
VERTEX
  5
77
  8
0
 10
-7.9084608713735056
 20
-16.96690542762337
 30
0.0
  0
SEQEND
  5
78
  8
0
  0
POLYLINE
  5
79
  8
0
 66
     1
 10
0.0
 20
0.0
 30
0.0
  0
VERTEX
  5
7A
  8
0
 10
7.6759929135438361
 20
-17.183369173653841
 30
0.0
  0
VERTEX
  5
7B
  8
0
 10
7.7340420885444701
 20
-17.183369173653841
 30
0.0
  0
VERTEX
  5
7C
  8
0
 10
7.9084608713735056
 20
-17.021156993044539
 30
0.0
  0
VERTEX
  5
7D
  8
0
 10
7.9084608713735056
 20
-16.96690542762337
 30
0.0
  0
SEQEND
  5
7E
  8
0
  0
POLYLINE
  5
7F
  8
0
 66
     1
 10
0.0
 20
0.0
 30
0.0
  0
VERTEX
  5
80
  8
0
 10
-7.9084608713735056
 20
-16.96690542762337
 30
0.0
  0
VERTEX
  5
81
  8
0
 10
-7.9084608713735056
 20
-17.074594784984399
 30
0.0
  0
VERTEX
  5
82
  8
0
 10
-7.7923625213722403
 20
-17.183369173653841
 30
0.0
  0
VERTEX
  5
83
  8
0
 10
-7.6762641713709172
 20
-17.183369173653841
 30
0.0
  0
SEQEND
  5
84
  8
0
  0
POLYLINE
  5
85
  8
0
 66
     1
 10
0.0
 20
0.0
 30
0.0
  0
VERTEX
  5
86
  8
0
 10
-8.3148050963781088
 20
-17.507793534872452
 30
0.0
  0
VERTEX
  5
87
  8
0
 10
8.3148050963781088
 20
-17.507793534872452
 30
0.0
  0
SEQEND
  5
88
  8
0
  0
POLYLINE
  5
89
  8
0
 66
     1
 10
0.0
 20
0.0
 30
0.0
  0
VERTEX
  5
8A
  8
0
 10
7.6179437385431461
 20
-4.9150450519032196
 30
0.0
  0
VERTEX
  5
8B
  8
0
 10
7.5017097596282829
 20
-4.9695678751514967
 30
0.0
  0
VERTEX
  5
8C
  8
0
 10
7.2697843174528307
 20
-4.9695678751514967
 30
0.0
  0
VERTEX
  5
8D
  8
0
 10
7.0373163596231052
 20
-5.0238194405726651
 30
0.0
  0
VERTEX
  5
8E
  8
0
 10
6.6890213096191919
 20
-5.0238194405726651
 30
0.0
  0
VERTEX
  5
8F
  8
0
 10
6.2243566517868771
 20
-5.0777997481667247
 30
0.0
  0
VERTEX
  5
90
  8
0
 10
5.7598276228681007
 20
-5.0777997481667247
 30
0.0
  0
SEQEND
  5
91
  8
0
  0
POLYLINE
  5
92
  8
0
 66
     1
 10
0.0
 20
0.0
 30
0.0
  0
VERTEX
  5
93
  8
0
 10
-7.6762641713709172
 20
-4.9150450519032196
 30
0.0
  0
VERTEX
  5
94
  8
0
 10
-7.5604370791967312
 20
-4.9695678751514967
 30
0.0
  0
VERTEX
  5
95
  8
0
 10
-7.327969121367004
 20
-4.9695678751514967
 30
0.0
  0
VERTEX
  5
96
  8
0
 10
-7.0379945041908618
 20
-5.0238194405726651
 30
0.0
  0
VERTEX
  5
97
  8
0
 10
-6.6894281963598701
 20
-5.0238194405726651
 30
0.0
  0
VERTEX
  5
98
  8
0
 10
-5.5154853985432624
 20
-5.0777997481667247
 30
0.0
  0
VERTEX
  5
99
  8
0
 10
-5.051091998538026
 20
-5.0777997481667247
 30
0.0
  0
SEQEND
  5
9A
  8
0
  0
POLYLINE
  5
9B
  8
0
 66
     1
 10
0.0
 20
0.0
 30
0.0
  0
VERTEX
  5
9C
  8
0
 10
5.7598276228681007
 20
-5.0775284903396161
 30
0.0
  0
VERTEX
  5
9D
  8
0
 10
4.5282425367915371
 20
-5.0775284903396161
 30
0.0
  0
VERTEX
  5
9E
  8
0
 10
4.0057999617856117
 20
-5.1317800557607853
 30
0.0
  0
VERTEX
  5
9F
  8
0
 10
2.2058686500247968
 20
-5.1317800557607853
 30
0.0
  0
SEQEND
  5
A0
  8
0
  0
POLYLINE
  5
A1
  8
0
 66
     1
 10
0.0
 20
0.0
 30
0.0
  0
VERTEX
  5
A2
  8
0
 10
-5.051091998538026
 20
-5.0775284903396161
 30
0.0
  0
VERTEX
  5
A3
  8
0
 10
-4.5866985985327906
 20
-5.0775284903396161
 30
0.0
  0
VERTEX
  5
A4
  8
0
 10
-4.0642560235269789
 20
-5.1317800557607853
 30
0.0
  0
VERTEX
  5
A5
  8
0
 10
2.2058686500247968
 20
-5.1317800557607853
 30
0.0
  0
SEQEND
  5
A6
  8
0
  0
POLYLINE
  5
A7
  8
0
 66
     1
 10
0.0
 20
0.0
 30
0.0
  0
VERTEX
  5
A8
  8
0
 10
-7.6762641713709172
 20
-4.9150450519032196
 30
0.0
  0
VERTEX
  5
A9
  8
0
 10
7.6179437385431461
 20
-4.9150450519032196
 30
0.0
  0
SEQEND
  5
AA
  8
0
  0
POLYLINE
  5
AB
  8
0
 66
     1
 10
0.0
 20
0.0
 30
0.0
  0
VERTEX
  5
AC
  8
0
 10
8.3148050963781088
 20
-4.536640383090556
 30
0.0
  0
VERTEX
  5
AD
  8
0
 10
-8.3148050963781088
 20
-4.536640383090556
 30
0.0
  0
SEQEND
  5
AE
  8
0
  0
POLYLINE
  5
AF
  8
0
 66
     1
 10
0.0
 20
0.0
 30
0.0
  0
VERTEX
  5
B0
  8
0
 10
-7.6762641713709172
 20
-4.9150450519032196
 30
0.0
  0
VERTEX
  5
B1
  8
0
 10
-7.7345846041986874
 20
-4.9150450519032196
 30
0.0
  0
VERTEX
  5
B2
  8
0
 10
-7.8504116963728734
 20
-4.9695678751514967
 30
0.0
  0
VERTEX
  5
B3
  8
0
 10
-7.8504116963728734
 20
-5.0238194405726651
 30
0.0
  0
VERTEX
  5
B4
  8
0
 10
-7.9084608713735056
 20
-5.0775284903396161
 30
0.0
  0
VERTEX
  5
B5
  8
0
 10
-7.9084608713735056
 20
-5.1860316211819528
 30
0.0
  0
SEQEND
  5
B6
  8
0
  0
POLYLINE
  5
B7
  8
0
 66
     1
 10
0.0
 20
0.0
 30
0.0
  0
VERTEX
  5
B8
  8
0
 10
7.9084608713735056
 20
-16.96690542762337
 30
0.0
  0
VERTEX
  5
B9
  8
0
 10
7.9084608713735056
 20
-5.1860316211819528
 30
0.0
  0
SEQEND
  5
BA
  8
0
  0
POLYLINE
  5
BB
  8
0
 66
     1
 10
0.0
 20
0.0
 30
0.0
  0
VERTEX
  5
BC
  8
0
 10
8.3148050963781088
 20
-17.507793534872452
 30
0.0
  0
VERTEX
  5
BD
  8
0
 10
8.3148050963781088
 20
-4.536640383090556
 30
0.0
  0
SEQEND
  5
BE
  8
0
  0
POLYLINE
  5
BF
  8
0
 66
     1
 10
0.0
 20
0.0
 30
0.0
  0
VERTEX
  5
C0
  8
0
 10
7.9084608713735056
 20
-5.1860316211819528
 30
0.0
  0
VERTEX
  5
C1
  8
0
 10
7.9084608713735056
 20
-5.0775284903396161
 30
0.0
  0
VERTEX
  5
C2
  8
0
 10
7.7340420885444701
 20
-4.9150450519032196
 30
0.0
  0
VERTEX
  5
C3
  8
0
 10
7.6179437385431461
 20
-4.9150450519032196
 30
0.0
  0
SEQEND
  5
C4
  8
0
  0
POLYLINE
  5
C5
  8
0
 66
     1
 10
0.0
 20
0.0
 30
0.0
  0
VERTEX
  5
C6
  8
0
 10
-7.6762641713709172
 20
-17.183369173653841
 30
0.0
  0
VERTEX
  5
C7
  8
0
 10
-0.0001356289135401
 20
-17.237078223420809
 30
0.0
  0
VERTEX
  5
C8
  8
0
 10
7.6759929135438361
 20
-17.183369173653841
 30
0.0
  0
SEQEND
  5
C9
  8
0
  0
POLYLINE
  5
CA
  8
0
 66
     1
 10
0.0
 20
0.0
 30
0.0
 70
     1
  0
VERTEX
  5
11C
  8
0
 10
-12.06
 20
0.0
 30
0.0
  0
VERTEX
  5
11D
  8
0
 10
12.06
 20
0.0
 30
0.0
 42
-0.4142135623730951
  0
VERTEX
  5
11E
  8
0
 10
12.25
 20
-0.1899999999999977
 30
0.0
  0
VERTEX
  5
11F
  8
0
 10
12.25
 20
-20.309999999999999
 30
0.0
 42
-0.4142135623730951
  0
VERTEX
  5
120
  8
0
 10
12.06
 20
-20.5
 30
0.0
  0
VERTEX
  5
121
  8
0
 10
-12.06
 20
-20.5
 30
0.0
 42
-0.4142135623730951
  0
VERTEX
  5
122
  8
0
 10
-12.25
 20
-20.309999999999999
 30
0.0
  0
VERTEX
  5
123
  8
0
 10
-12.25
 20
-0.1899999999999977
 30
0.0
 42
-0.4142135623730951
  0
SEQEND
  5
124
  8
0
  0
POLYLINE
  5
CB
  8
0
 66
     1
 10
0.0
 20
0.0
 30
0.0
 70
     1
  0
VERTEX
  5
125
  8
0
 10
-11.51999999999998
 20
-19.579999999999998
 30
0.0
  0
VERTEX
  5
126
  8
0
 10
-11.51999999999998
 20
-0.9200000000000017
 30
0.0
 42
-0.4142135623730951
  0
VERTEX
  5
127
  8
0
 10
-11.329999999999981
 20
-0.730000000000004
 30
0.0
  0
VERTEX
  5
128
  8
0
 10
11.329999999999981
 20
-0.730000000000004
 30
0.0
 42
-0.4142135623730951
  0
VERTEX
  5
129
  8
0
 10
11.51999999999998
 20
-0.9200000000000017
 30
0.0
  0
VERTEX
  5
12A
  8
0
 10
11.51999999999998
 20
-19.579999999999998
 30
0.0
 42
-0.4142135623730951
  0
VERTEX
  5
12B
  8
0
 10
11.329999999999981
 20
-19.769999999999989
 30
0.0
  0
VERTEX
  5
12C
  8
0
 10
-11.329999999999981
 20
-19.769999999999989
 30
0.0
 42
-0.4142135623730951
  0
SEQEND
  5
12D
  8
0
  0
CIRCLE
  5
CC
  8
0
 10
0.0
 20
-8.75
 30
0.0
 40
0.875
  0
CIRCLE
  5
CD
  8
0
 10
0.0
 20
-8.75
 30
0.0
 40
1.375
  0
POINT
  5
CE
  8
DEFPOINTS
 10
-4.0
 20
-2.6249999999999991
 30
0.0
  0
POINT
  5
D0
  8
DEFPOINTS
 10
0.0
 20
-2.625
 30
0.0
  0
POINT
  5
D1
  8
DEFPOINTS
 10
4.0
 20
-2.625
 30
0.0
  0
ATTDEF
  5
D2
  8
DEFPOINTS
 10
0.0
 20
-0.005
 30
0.0
 40
0.001
  1
FIRECLAY
  3

  2
MATERIAL
 70
     8
1001
AcDbAttr
1070
     0
1070
     1
  0
ATTDEF
  5
D3
  8
DEFPOINTS
 10
0.0
 20
-0.0033333333333333
 30
0.0
 40
0.001
  1
PEDESTAL SINK
  3

  2
PRODUCT
 70
     8
1001
AcDbAttr
1070
     0
1070
     1
  0
ATTDEF
  5
D4
  8
DEFPOINTS
 10
0.0
 20
-0.0016666666666667
 30
0.0
 40
0.001
  1
MEMOIRS STATELY
  3

  2
TRADENAME
 70
     8
1001
AcDbAttr
1070
     0
1070
     1
  0
ATTDEF
  5
D5
  8
DEFPOINTS
 10
0.0
 20
0.0
 30
0.0
 40
0.001
  1
K-2344
  3

  2
MODELNUMBER
 70
     8
1001
AcDbAttr
1070
     0
1070
     1
  0
ENDSEC
  0
EOF
