  0
SECTION
  2
HEADER
  9
$ACADVER
  1
AC1009
  9
$INSBASE
 10
0.0
 20
0.0
 30
0.0
  9
$EXTMIN
 10
-20.5
 20
-0.0050000000001091
 30
0.0
  9
$EXTMAX
 10
0.0106666666666667
 20
34.74997960726251
 30
0.0
  9
$LIMMIN
 10
0.0
 20
0.0
  9
$LIMMAX
 10
12.0
 20
9.0
  9
$ORTHOMODE
 70
     0
  9
$REGENMODE
 70
     1
  9
$FILLMODE
 70
     1
  9
$QTEXTMODE
 70
     0
  9
$MIRRTEXT
 70
     1
  9
$DRAGMODE
 70
     2
  9
$LTSCALE
 40
1.0
  9
$OSMODE
 70
    37
  9
$ATTMODE
 70
     1
  9
$TEXTSIZE
 40
0.001
  9
$TRACEWID
 40
0.05
  9
$TEXTSTYLE
  7
STANDARD
  9
$CLAYER
  8
0
  9
$CELTYPE
  6
BYLAYER
  9
$CECOLOR
 62
   256
  9
$DIMSCALE
 40
1.0
  9
$DIMASZ
 40
0.18
  9
$DIMEXO
 40
0.0625
  9
$DIMDLI
 40
0.38
  9
$DIMRND
 40
0.0
  9
$DIMDLE
 40
0.0
  9
$DIMEXE
 40
0.18
  9
$DIMTP
 40
0.0
  9
$DIMTM
 40
0.0
  9
$DIMTXT
 40
0.18
  9
$DIMCEN
 40
0.09
  9
$DIMTSZ
 40
0.0
  9
$DIMTOL
 70
     0
  9
$DIMLIM
 70
     0
  9
$DIMTIH
 70
     1
  9
$DIMTOH
 70
     1
  9
$DIMSE1
 70
     0
  9
$DIMSE2
 70
     0
  9
$DIMTAD
 70
     0
  9
$DIMZIN
 70
     0
  9
$DIMBLK
  1

  9
$DIMASO
 70
     1
  9
$DIMSHO
 70
     1
  9
$DIMPOST
  1

  9
$DIMAPOST
  1

  9
$DIMALT
 70
     0
  9
$DIMALTD
 70
     2
  9
$DIMALTF
 40
25.399999999999999
  9
$DIMLFAC
 40
1.0
  9
$DIMTOFL
 70
     0
  9
$DIMTVP
 40
0.0
  9
$DIMTIX
 70
     0
  9
$DIMSOXD
 70
     0
  9
$DIMSAH
 70
     0
  9
$DIMBLK1
  1

  9
$DIMBLK2
  1

  9
$DIMSTYLE
  2
STANDARD
  9
$DIMCLRD
 70
     0
  9
$DIMCLRE
 70
     0
  9
$DIMCLRT
 70
     0
  9
$DIMTFAC
 40
1.0
  9
$DIMGAP
 40
0.09
  9
$LUNITS
 70
     2
  9
$LUPREC
 70
     4
  9
$SKETCHINC
 40
0.1
  9
$FILLETRAD
 40
0.0
  9
$AUNITS
 70
     0
  9
$AUPREC
 70
     0
  9
$MENU
  1
.
  9
$ELEVATION
 40
0.0
  9
$PELEVATION
 40
0.0
  9
$THICKNESS
 40
0.0
  9
$LIMCHECK
 70
     0
  9
$BLIPMODE
 70
     0
  9
$CHAMFERA
 40
0.5
  9
$CHAMFERB
 40
0.5
  9
$SKPOLY
 70
     0
  9
$TDCREATE
 40
2451380.555432396
  9
$TDUPDATE
 40
2456700.4542809962
  9
$TDINDWG
 40
3.5193937269000002
  9
$TDUSRTIMER
 40
3.5193846875000001
  9
$USRTIMER
 70
     1
  9
$ANGBASE
 50
0.0
  9
$ANGDIR
 70
     0
  9
$PDMODE
 70
     0
  9
$PDSIZE
 40
0.0
  9
$PLINEWID
 40
0.0
  9
$COORDS
 70
     1
  9
$SPLFRAME
 70
     0
  9
$SPLINETYPE
 70
     6
  9
$SPLINESEGS
 70
     8
  9
$ATTDIA
 70
     0
  9
$ATTREQ
 70
     1
  9
$HANDLING
 70
     1
  9
$HANDSEED
  5
14E
  9
$SURFTAB1
 70
     6
  9
$SURFTAB2
 70
     6
  9
$SURFTYPE
 70
     6
  9
$SURFU
 70
     6
  9
$SURFV
 70
     6
  9
$UCSNAME
  2

  9
$UCSORG
 10
0.0
 20
0.0
 30
0.0
  9
$UCSXDIR
 10
1.0
 20
0.0
 30
0.0
  9
$UCSYDIR
 10
0.0
 20
1.0
 30
0.0
  9
$PUCSNAME
  2

  9
$PUCSORG
 10
0.0
 20
0.0
 30
0.0
  9
$PUCSXDIR
 10
1.0
 20
0.0
 30
0.0
  9
$PUCSYDIR
 10
0.0
 20
1.0
 30
0.0
  9
$USERI1
 70
     0
  9
$USERI2
 70
     0
  9
$USERI3
 70
     0
  9
$USERI4
 70
     0
  9
$USERI5
 70
     0
  9
$USERR1
 40
0.0
  9
$USERR2
 40
0.0
  9
$USERR3
 40
0.0
  9
$USERR4
 40
0.0
  9
$USERR5
 40
0.0
  9
$WORLDVIEW
 70
     1
  9
$SHADEDGE
 70
     3
  9
$SHADEDIF
 70
    70
  9
$TILEMODE
 70
     1
  9
$MAXACTVP
 70
    64
  9
$PLIMCHECK
 70
     0
  9
$PEXTMIN
 10
1.0000000000000000E+020
 20
1.0000000000000000E+020
 30
1.0000000000000000E+020
  9
$PEXTMAX
 10
-1.0000000000000000E+020
 20
-1.0000000000000000E+020
 30
-1.0000000000000000E+020
  9
$PLIMMIN
 10
0.0
 20
0.0
  9
$PLIMMAX
 10
12.0
 20
9.0
  9
$UNITMODE
 70
     0
  9
$VISRETAIN
 70
     1
  9
$PLINEGEN
 70
     0
  9
$PSLTSCALE
 70
     1
  0
ENDSEC
  0
SECTION
  2
TABLES
  0
TABLE
  2
VPORT
 70
     1
  0
VPORT
  2
*ACTIVE
 70
     0
 10
0.0
 20
0.0
 11
1.0
 21
1.0
 12
6.407302623429131
 22
40.467648005215587
 13
0.0
 23
0.0
 14
0.5
 24
0.5
 15
0.5
 25
0.5
 16
0.0
 26
0.0
 36
1.0
 17
0.0
 27
0.0
 37
0.0
 40
190.26245196105799
 41
1.1829652996845419
 42
50.0
 43
0.0
 44
0.0
 50
0.0
 51
0.0
 71
     0
 72
  5500
 73
     1
 74
     1
 75
     0
 76
     0
 77
     0
 78
     0
  0
ENDTAB
  0
TABLE
  2
LTYPE
 70
     2
  0
LTYPE
  2
CONTINUOUS
 70
     0
  3
Solid line
 72
    65
 73
     0
 40
0.0
  0
LTYPE
  2
PHANTOM2
 70
     0
  3
Phantom (.5x) ___ _ _ ___ _ _ ___ _ _ ___ _ _
 72
    65
 73
     6
 40
1.25
 49
0.625
 49
-0.125
 49
0.125
 49
-0.125
 49
0.125
 49
-0.125
  0
ENDTAB
  0
TABLE
  2
LAYER
 70
     2
  0
LAYER
  2
0
 70
     0
 62
     7
  6
CONTINUOUS
  0
LAYER
  2
DEFPOINTS
 70
     0
 62
     7
  6
CONTINUOUS
  0
ENDTAB
  0
TABLE
  2
STYLE
 70
     1
  0
STYLE
  2
STANDARD
 70
     0
 40
0.0
 41
1.0
 50
0.0
 71
     0
 42
0.001
  3
txt
  4

  0
ENDTAB
  0
TABLE
  2
VIEW
 70
     0
  0
ENDTAB
  0
TABLE
  2
UCS
 70
     0
  0
ENDTAB
  0
TABLE
  2
APPID
 70
     4
  0
APPID
  2
ACAD
 70
     0
  0
APPID
  2
ACAD_NAV_VCDISPLAY
 70
     0
  0
APPID
  2
AcDbAttr
 70
     0
  0
APPID
  2
ACAD_MLEADERVER
 70
     0
  0
ENDTAB
  0
TABLE
  2
DIMSTYLE
 70
     1
  0
DIMSTYLE
  2
STANDARD
 70
     0
  3

  4

  5

  6

  7

 40
1.0
 41
0.18
 42
0.0625
 43
0.38
 44
0.18
 45
0.0
 46
0.0
 47
0.0
 48
0.0
140
0.18
141
0.09
142
0.0
143
25.399999999999999
144
1.0
145
0.0
146
1.0
147
0.09
 71
     0
 72
     0
 73
     1
 74
     1
 75
     0
 76
     0
 77
     0
 78
     0
170
     0
171
     2
172
     0
173
     0
174
     0
175
     0
176
     0
177
     0
178
     0
  0
ENDTAB
  0
ENDSEC
  0
SECTION
  2
BLOCKS
  0
BLOCK
  8
0
  2
$MODEL_SPACE
 70
     2
 10
0.0
 20
0.0
 30
0.0
  3
$MODEL_SPACE
  1

  0
ENDBLK
  5
16
  8
0
  0
BLOCK
 67
     1
  8
0
  2
$PAPER_SPACE
 70
     0
 10
0.0
 20
0.0
 30
0.0
  3
$PAPER_SPACE
  1

  0
ENDBLK
  5
1D
 67
     1
  8
0
  0
ENDSEC
  0
SECTION
  2
ENTITIES
  0
POLYLINE
  5
71
  8
0
 66
     1
 10
0.0
 20
0.0
 30
0.0
  0
VERTEX
  5
72
  8
0
 10
-20.5
 20
33.67764492191202
 30
0.0
  0
VERTEX
  5
73
  8
0
 10
-20.5
 20
34.74997960726251
 30
0.0
  0
SEQEND
  5
74
  8
0
  0
POLYLINE
  5
75
  8
0
 66
     1
 10
0.0
 20
0.0
 30
0.0
  0
VERTEX
  5
76
  8
0
 10
-12.637116087189611
 20
27.246261502303661
 30
0.0
  0
VERTEX
  5
77
  8
0
 10
-4.4145060437897987
 20
27.246261502303661
 30
0.0
  0
SEQEND
  5
78
  8
0
  0
ARC
  5
79
  8
0
 10
-2.0487636242535241
 20
26.380883480920222
 30
0.0
 40
2.519050677435219
 50
98.375918159282534
 51
159.90770581108421
  0
LINE
  5
7A
  8
0
 10
-13.59204072567004
 20
27.2462615023037
 30
0.0
 11
-4.6922208981526969
 21
27.2462615023037
 31
0.0
  0
LINE
  5
7B
  8
0
 10
-12.80777910184724
 20
26.69733734925558
 30
0.0
 11
-4.6922208981527538
 21
26.69733734925558
 31
0.0
  0
LINE
  5
7C
  8
0
 10
-4.6922208981527538
 20
27.2462615023037
 30
0.0
 11
-4.6922208981527538
 21
26.69733734925558
 31
0.0
  0
LINE
  5
7D
  8
0
 10
-3.193409340366542
 20
0.0
 30
0.0
 11
-14.306590659633461
 21
0.0000000000000142
 31
0.0
  0
ARC
  5
7E
  8
0
 10
-0.8461404308777673
 20
5.6214174522087879
 30
0.0
 40
4.6018294414663243
 50
181.4004569755111
 51
221.48266694420349
  0
ARC
  5
7F
  8
0
 10
-5.1546625655141716
 20
0.8526273632478478
 30
0.0
 40
1.5128207772935169
 50
1.920045992698072
 51
55.323476633388871
  0
ARC
  5
80
  8
0
 10
-3.44877670049982
 20
1.0094649059947181
 30
0.0
 40
0.2210673825873017
 50
208.69673619308981
 51
273.50125201959167
  0
ARC
  5
81
  8
0
 10
-3.4288967007273641
 20
0.5728810905789034
 30
0.0
 40
0.2160232769874333
 50
13.52816665944016
 51
91.692235432799606
  0
LINE
  5
82
  8
0
 10
-3.193409340366542
 20
0.0
 30
0.0
 11
-3.21886698071512
 21
0.6234139799880724
 31
0.0
  0
LINE
  5
83
  8
0
 10
-4.2939543691441031
 20
2.0967367253670091
 30
0.0
 11
-4.293629219538615
 21
2.5731957968155248
 31
0.0
  0
LINE
  5
84
  8
0
 10
-5.4465952823516091
 20
5.5089480434889992
 30
0.0
 11
-5.8666782051955124
 21
22.689673042017152
 31
0.0
  0
ARC
  5
85
  8
0
 10
1.4412969334866541
 20
22.723971518869799
 30
0.0
 40
7.308055624659068
 50
147.0643534364456
 51
180.2689039715454
  0
LINE
  5
86
  8
0
 10
-13.206370780462009
 20
2.5731957968155248
 30
0.0
 11
-4.2936292195381043
 21
2.5731957968155248
 31
0.0
  0
LINE
  5
87
  8
0
 10
-13.2060456308559
 20
2.0967367253669158
 30
0.0
 11
-4.2939543691441031
 21
2.09673672536693
 31
0.0
  0
LINE
  5
88
  8
0
 10
-12.80777910184724
 20
27.2462615023037
 30
0.0
 11
-12.80777910184724
 21
26.69733734925558
 31
0.0
  0
ARC
  5
89
  8
0
 10
-16.653859569122229
 20
5.6214174522087879
 30
0.0
 40
4.6018294414663243
 50
318.51733305579421
 51
358.59954302448881
  0
ARC
  5
8A
  8
0
 10
-12.345337434485829
 20
0.8526273632478478
 30
0.0
 40
1.5128207772935169
 50
124.6765233666134
 51
178.07995400730189
  0
ARC
  5
8B
  8
0
 10
-14.05122329950018
 20
1.0094649059947181
 30
0.0
 40
0.2210673825873017
 50
266.49874798040833
 51
331.30326380691031
  0
ARC
  5
8C
  8
0
 10
-14.071103299272631
 20
0.5728810905789034
 30
0.0
 40
0.2160232769874333
 50
88.307764567200408
 51
166.47183334055981
  0
LINE
  5
8D
  8
0
 10
-14.306590659633461
 20
0.0
 30
0.0
 11
-14.28113301928488
 21
0.6234139799880724
 31
0.0
  0
LINE
  5
8E
  8
0
 10
-13.2060456308559
 20
2.0967367253670091
 30
0.0
 11
-13.206370780461381
 21
2.5731957968155248
 31
0.0
  0
LINE
  5
8F
  8
0
 10
-12.053404717648389
 20
5.5089480434889992
 30
0.0
 11
-11.63332179480448
 21
22.689673042017152
 31
0.0
  0
ARC
  5
90
  8
0
 10
-18.941296933486619
 20
22.723971518869799
 30
0.0
 40
7.308055624659068
 50
359.7310960284546
 51
32.935646563552467
  0
POLYLINE
  5
91
  8
0
 66
     1
 10
0.0
 20
0.0
 30
0.0
  0
VERTEX
  5
102
  8
0
 10
-3.435276037933817
 20
0.788810153600025
 30
0.0
  0
VERTEX
  5
103
  8
0
 10
-8.7500000000000568
 20
0.7879926845999706
 30
0.0
  0
VERTEX
  5
104
  8
0
 10
-14.06472396206618
 20
0.788810153600025
 30
0.0
  0
SEQEND
  5
105
  8
0
  0
POLYLINE
  5
92
  8
0
 66
     1
 10
0.0
 20
0.0
 30
0.0
  0
VERTEX
  5
106
  8
0
 10
0.0
 20
30.9562736862955
 30
0.0
  0
VERTEX
  5
107
  8
0
 10
-8.75
 20
30.9562736862955
 30
0.0
  0
VERTEX
  5
108
  8
0
 10
-18.103397170356001
 20
30.9562736862955
 30
0.0
  0
SEQEND
  5
109
  8
0
  0
POLYLINE
  5
93
  8
0
 66
     1
 10
0.0
 20
0.0
 30
0.0
  0
VERTEX
  5
10A
  8
0
 10
-18.266769151831539
 20
31.600487899289881
 30
0.0
  0
VERTEX
  5
10B
  8
0
 10
-8.75
 20
31.600487899289881
 30
0.0
  0
VERTEX
  5
10C
  8
0
 10
0.0
 20
31.600487899289881
 30
0.0
  0
SEQEND
  5
10D
  8
0
  0
POLYLINE
  5
94
  8
0
 66
     1
 10
0.0
 20
0.0
 30
0.0
  0
VERTEX
  5
95
  8
0
 10
-20.5
 20
33.676560386199867
 30
0.0
  0
VERTEX
  5
96
  8
0
 10
-20.5
 20
34.74997960726251
 30
0.0
  0
SEQEND
  5
97
  8
0
  0
POLYLINE
  5
98
  8
0
 66
     1
 10
0.0
 20
0.0
 30
0.0
  0
VERTEX
  5
10E
  8
0
 10
0.0
 20
30.9562736862955
 30
0.0
  0
VERTEX
  5
10F
  8
0
 10
-8.2501013482154235
 20
30.9562736862955
 30
0.0
  0
VERTEX
  5
110
  8
0
 10
-18.103397170356001
 20
30.9562736862955
 30
0.0
  0
SEQEND
  5
111
  8
0
  0
POLYLINE
  5
99
  8
0
 66
     1
 10
0.0
 20
0.0
 30
0.0
  0
VERTEX
  5
112
  8
0
 10
-18.322814966274159
 20
31.600487899289881
 30
0.0
  0
VERTEX
  5
113
  8
0
 10
-8.2501013482154235
 20
31.600487899289881
 30
0.0
  0
VERTEX
  5
114
  8
0
 10
0.0
 20
31.600487899289881
 30
0.0
  0
SEQEND
  5
115
  8
0
  0
POLYLINE
  5
9A
  8
0
 66
     1
 10
0.0
 20
0.0
 30
0.0
  0
VERTEX
  5
116
  8
0
 10
-20.5
 20
33.676560386199867
 30
0.0
  0
VERTEX
  5
117
  8
0
 10
-8.2501013482154235
 20
33.676560386199867
 30
0.0
  0
VERTEX
  5
118
  8
0
 10
0.0
 20
33.676560386199867
 30
0.0
  0
SEQEND
  5
119
  8
0
  0
POLYLINE
  5
9B
  8
0
 66
     1
 10
0.0
 20
0.0
 30
0.0
  0
VERTEX
  5
11A
  8
0
 10
0.0
 20
34.74997960726251
 30
0.0
  0
VERTEX
  5
11B
  8
0
 10
-8.2501013482154235
 20
34.74997960726251
 30
0.0
  0
VERTEX
  5
11C
  8
0
 10
-20.5
 20
34.74997960726251
 30
0.0
  0
SEQEND
  5
11D
  8
0
  0
POLYLINE
  5
9C
  8
0
 66
     1
 10
0.0
 20
0.0
 30
0.0
  0
VERTEX
  5
9D
  8
0
 10
-18.103397170356001
 20
30.9562736862955
 30
0.0
  0
VERTEX
  5
9E
  8
0
 10
-18.103397170356001
 20
31.457329185291151
 30
0.0
  0
SEQEND
  5
9F
  8
0
  0
POLYLINE
  5
A0
  8
0
 66
     1
 10
0.0
 20
0.0
 30
0.0
  0
VERTEX
  5
A1
  8
0
 10
-18.322814966274159
 20
31.600487899289881
 30
0.0
  0
VERTEX
  5
A2
  8
0
 10
-19.103766839720091
 20
32.17285162135687
 30
0.0
  0
VERTEX
  5
A3
  8
0
 10
-19.47010164867029
 20
32.602327763353181
 30
0.0
  0
VERTEX
  5
A4
  8
0
 10
-19.644440764392272
 20
32.960495682278072
 30
0.0
  0
VERTEX
  5
A5
  8
0
 10
-19.760486085588209
 20
33.318392467274968
 30
0.0
  0
VERTEX
  5
A6
  8
0
 10
-19.818508746186211
 20
33.676560386199867
 30
0.0
  0
SEQEND
  5
A7
  8
0
  0
POLYLINE
  5
A8
  8
0
 66
     1
 10
0.0
 20
0.0
 30
0.0
  0
VERTEX
  5
A9
  8
0
 10
-18.266769151831539
 20
31.600487899289881
 30
0.0
  0
VERTEX
  5
AA
  8
0
 10
-18.103397170356001
 20
31.457329185291151
 30
0.0
  0
SEQEND
  5
AB
  8
0
  0
ARC
  5
AC
  8
0
 10
-20.4632631446791
 20
23.545870365436269
 30
0.0
 40
7.8042675567473827
 50
28.30400164369199
 51
71.719483674496516
  0
LINE
  5
AD
  8
0
 10
0.0
 20
34.74997960726251
 30
0.0
 11
0.0
 21
29.323881416940178
 31
0.0
  0
ARC
  5
AE
  8
0
 10
16.71645989558823
 20
-66.949250943540392
 30
0.0
 40
97.713643090099865
 50
99.850386264376922
 51
101.2913626703583
  0
ATTDEF
  5
AF
  8
0
 10
-8.7499999999995453
 20
-0.0050000000001091
 30
0.0
 40
0.001
  1
FIRECLAY
 71
     2
  3

  2
MATERIAL
 70
     8
  0
ATTDEF
  5
B0
  8
0
 10
-8.7499999999995453
 20
-0.0033333333331029
 30
0.0
 40
0.001
  1
LAVATORY
 71
     2
  3

  2
PRODUCT
 70
     8
  0
ATTDEF
  5
B1
  8
0
 10
-8.7499999999995453
 20
-0.0016666666665515
 30
0.0
 40
0.001
  1
MEMOIRS
 71
     2
  3

  2
TRADENAME
 70
     8
  0
ATTDEF
  5
B2
  8
0
 10
-8.7499999999995453
 20
0.0
 30
0.0
 40
0.001
  1
K-2344-8
 71
     2
  3

  2
MODELNUMBER
 70
     8
  0
ATTDEF
  5
B3
  8
0
 10
-8.7500000000004547
 20
-0.0050000000001091
 30
0.0
 40
0.001
  1
FIRECLAY
  3

  2
MATERIAL
 70
     8
  0
ATTDEF
  5
B4
  8
0
 10
-8.7500000000004547
 20
-0.0033333333331029
 30
0.0
 40
0.001
  1
LAVATORY
  3

  2
PRODUCT
 70
     8
  0
ATTDEF
  5
B5
  8
0
 10
-8.7500000000004547
 20
-0.0016666666665515
 30
0.0
 40
0.001
  1
MEMOIRS
  3

  2
TRADENAME
 70
     8
  0
ATTDEF
  5
B6
  8
0
 10
-8.7500000000004547
 20
0.0
 30
0.0
 40
0.001
  1
K-2344-8
  3

  2
MODELNUMBER
 70
     8
  0
ATTDEF
  5
B7
  8
DEFPOINTS
 10
0.0
 20
-0.005
 30
0.0
 40
0.001
  1
FIRECLAY
  3

  2
MATERIAL
 70
     8
1001
AcDbAttr
1070
     0
1070
     1
  0
ATTDEF
  5
B9
  8
DEFPOINTS
 10
0.0
 20
-0.0033333333333333
 30
0.0
 40
0.001
  1
PEDESTAL SINK
  3

  2
PRODUCT
 70
     8
1001
AcDbAttr
1070
     0
1070
     1
  0
ATTDEF
  5
BA
  8
DEFPOINTS
 10
0.0
 20
-0.0016666666666667
 30
0.0
 40
0.001
  1
MEMOIRS STATELY
  3

  2
TRADENAME
 70
     8
1001
AcDbAttr
1070
     0
1070
     1
  0
ATTDEF
  5
BB
  8
DEFPOINTS
 10
0.0
 20
0.0
 30
0.0
 40
0.001
  1
K-2344
  3

  2
MODELNUMBER
 70
     8
1001
AcDbAttr
1070
     0
1070
     1
  0
ENDSEC
  0
EOF
