  0
SECTION
  2
HEADER
  9
$ACADVER
  1
AC1009
  9
$INSBASE
 10
457.40180137788508
 20
52.198882914295751
 30
0.0
  9
$EXTMIN
 10
446.05609441311589
 20
33.33510296929321
 30
0.0
  9
$EXTMAX
 10
468.74750834265433
 20
52.205610603795847
 30
0.0
  9
$LIMMIN
 10
0.0
 20
0.0
  9
$LIMMAX
 10
11.692913385800001
 20
8.2677165353999982
  9
$ORTHOMODE
 70
     1
  9
$REGENMODE
 70
     1
  9
$FILLMODE
 70
     1
  9
$QTEXTMODE
 70
     0
  9
$MIRRTEXT
 70
     0
  9
$DRAGMODE
 70
     2
  9
$LTSCALE
 40
0.6431102362
  9
$OSMODE
 70
  3071
  9
$ATTMODE
 70
     1
  9
$TEXTSIZE
 40
0.2
  9
$TRACEWID
 40
0.05
  9
$TEXTSTYLE
  7
STANDARD
  9
$CLAYER
  8
0
  9
$CELTYPE
  6
BYLAYER
  9
$CECOLOR
 62
   256
  9
$DIMSCALE
 40
1.0
  9
$DIMASZ
 40
0.1875
  9
$DIMEXO
 40
0.0625
  9
$DIMDLI
 40
0.4443307087
  9
$DIMRND
 40
0.0
  9
$DIMDLE
 40
0.0
  9
$DIMEXE
 40
0.125
  9
$DIMTP
 40
0.01
  9
$DIMTM
 40
0.01
  9
$DIMTXT
 40
2.0
  9
$DIMCEN
 40
0.1052362205
  9
$DIMTSZ
 40
0.0
  9
$DIMTOL
 70
     1
  9
$DIMLIM
 70
     0
  9
$DIMTIH
 70
     1
  9
$DIMTOH
 70
     1
  9
$DIMSE1
 70
     0
  9
$DIMSE2
 70
     0
  9
$DIMTAD
 70
     0
  9
$DIMZIN
 70
     0
  9
$DIMBLK
  1

  9
$DIMASO
 70
     1
  9
$DIMSHO
 70
     1
  9
$DIMPOST
  1
\X
  9
$DIMAPOST
  1

  9
$DIMALT
 70
     1
  9
$DIMALTD
 70
     2
  9
$DIMALTF
 40
25.399999999999999
  9
$DIMLFAC
 40
1.0
  9
$DIMTOFL
 70
     0
  9
$DIMTVP
 40
0.0
  9
$DIMTIX
 70
     0
  9
$DIMSOXD
 70
     0
  9
$DIMSAH
 70
     0
  9
$DIMBLK1
  1

  9
$DIMBLK2
  1

  9
$DIMSTYLE
  2
STANDARD
  9
$DIMCLRD
 70
     0
  9
$DIMCLRE
 70
     0
  9
$DIMCLRT
 70
     0
  9
$DIMTFAC
 40
1.0
  9
$DIMGAP
 40
0.09
  9
$LUNITS
 70
     2
  9
$LUPREC
 70
     4
  9
$SKETCHINC
 40
0.1
  9
$FILLETRAD
 40
0.0
  9
$AUNITS
 70
     0
  9
$AUPREC
 70
     0
  9
$MENU
  1
.
  9
$ELEVATION
 40
0.0
  9
$PELEVATION
 40
0.0
  9
$THICKNESS
 40
0.0
  9
$LIMCHECK
 70
     0
  9
$BLIPMODE
 70
     0
  9
$CHAMFERA
 40
0.0
  9
$CHAMFERB
 40
0.0
  9
$SKPOLY
 70
     0
  9
$TDCREATE
 40
2458060.4683680669
  9
$TDUPDATE
 40
2458619.6420527082
  9
$TDINDWG
 40
0.2492501736
  9
$TDUSRTIMER
 40
0.2492501736
  9
$USRTIMER
 70
     1
  9
$ANGBASE
 50
0.0
  9
$ANGDIR
 70
     0
  9
$PDMODE
 70
     0
  9
$PDSIZE
 40
0.3125
  9
$PLINEWID
 40
0.0
  9
$COORDS
 70
     1
  9
$SPLFRAME
 70
     0
  9
$SPLINETYPE
 70
     6
  9
$SPLINESEGS
 70
     8
  9
$ATTDIA
 70
     1
  9
$ATTREQ
 70
     1
  9
$HANDLING
 70
     1
  9
$HANDSEED
  5
461A
  9
$SURFTAB1
 70
     6
  9
$SURFTAB2
 70
     6
  9
$SURFTYPE
 70
     6
  9
$SURFU
 70
     6
  9
$SURFV
 70
     6
  9
$UCSNAME
  2

  9
$UCSORG
 10
0.0
 20
0.0
 30
0.0
  9
$UCSXDIR
 10
1.0
 20
0.0
 30
0.0
  9
$UCSYDIR
 10
0.0
 20
1.0
 30
0.0
  9
$PUCSNAME
  2

  9
$PUCSORG
 10
0.0
 20
0.0
 30
0.0
  9
$PUCSXDIR
 10
1.0
 20
0.0
 30
0.0
  9
$PUCSYDIR
 10
0.0
 20
1.0
 30
0.0
  9
$USERI1
 70
     0
  9
$USERI2
 70
     0
  9
$USERI3
 70
     0
  9
$USERI4
 70
     0
  9
$USERI5
 70
     0
  9
$USERR1
 40
0.0
  9
$USERR2
 40
0.0
  9
$USERR3
 40
0.0
  9
$USERR4
 40
0.0
  9
$USERR5
 40
0.0
  9
$WORLDVIEW
 70
     1
  9
$SHADEDGE
 70
     3
  9
$SHADEDIF
 70
    70
  9
$TILEMODE
 70
     1
  9
$MAXACTVP
 70
    64
  9
$PLIMCHECK
 70
     0
  9
$PEXTMIN
 10
1.0000000000000000E+020
 20
1.0000000000000000E+020
 30
1.0000000000000000E+020
  9
$PEXTMAX
 10
-1.0000000000000000E+020
 20
-1.0000000000000000E+020
 30
-1.0000000000000000E+020
  9
$PLIMMIN
 10
0.0
 20
0.0
  9
$PLIMMAX
 10
12.0
 20
9.0
  9
$UNITMODE
 70
     0
  9
$VISRETAIN
 70
     1
  9
$PLINEGEN
 70
     0
  9
$PSLTSCALE
 70
     1
  0
ENDSEC
  0
SECTION
  2
TABLES
  0
TABLE
  2
VPORT
 70
     1
  0
VPORT
  2
*ACTIVE
 70
     0
 10
0.0
 20
0.0
 11
1.0
 21
1.0
 12
0.0
 22
0.0
 13
0.0
 23
0.0
 14
1.0
 24
1.0
 15
0.0
 25
0.0
 16
0.0
 26
0.0
 36
82.992562627298895
 17
457.40180137788508
 27
42.770356786544518
 37
0.0
 40
29.51264685699114
 41
2.0984340044742731
 42
50.0
 43
0.0
 44
0.0
 50
0.0
 51
0.0
 71
     0
 72
   100
 73
     1
 74
     1
 75
     0
 76
     0
 77
     0
 78
     0
  0
ENDTAB
  0
TABLE
  2
LTYPE
 70
     2
  0
LTYPE
  2
CONTINUOUS
 70
     0
  3
Solid line
 72
    65
 73
     0
 40
0.0
  0
LTYPE
  2
PHANTOM2
 70
     0
  3
___ _ _ ___ _ _ ___ _ _ ___ _ _
 72
    65
 73
     6
 40
1.25
 49
0.625
 49
-0.125
 49
0.125
 49
-0.125
 49
0.125
 49
-0.125
  0
ENDTAB
  0
TABLE
  2
LAYER
 70
     2
  0
LAYER
  2
0
 70
     0
 62
   255
  6
CONTINUOUS
  0
LAYER
  2
DEFPOINTS
 70
     0
 62
     7
  6
CONTINUOUS
  0
ENDTAB
  0
TABLE
  2
STYLE
 70
     1
  0
STYLE
  2
STANDARD
 70
     0
 40
0.0
 41
0.8
 50
0.0
 71
     0
 42
0.2
  3
txt
  4

  0
ENDTAB
  0
TABLE
  2
VIEW
 70
     0
  0
ENDTAB
  0
TABLE
  2
UCS
 70
     0
  0
ENDTAB
  0
TABLE
  2
APPID
 70
     9
  0
APPID
  2
ACAD
 70
     0
  0
APPID
  2
ACAD_MLEADERVER
 70
     0
  0
APPID
  2
ACAD_EXEMPT_FROM_CAD_STANDARDS
 70
     0
  0
APPID
  2
ACAD_NAV_VCDISPLAY
 70
     0
  0
APPID
  2
ACAECLAYERSTANDARD
 70
     0
  0
APPID
  2
ACCMTRANSPARENCY
 70
     0
  0
APPID
  2
ACAD_DSTYLE_DIMJAG
 70
     0
  0
APPID
  2
ACAD_DSTYLE_DIMTALN
 70
     0
  0
APPID
  2
ACDBATTR
 70
     0
  0
ENDTAB
  0
TABLE
  2
DIMSTYLE
 70
     1
  0
DIMSTYLE
  2
STANDARD
 70
     0
  3

  4

  5

  6

  7

 40
1.0
 41
0.1875
 42
0.0625
 43
0.38
 44
0.125
 45
0.0
 46
0.0
 47
0.01
 48
0.01
140
0.15625
141
0.09
142
0.0
143
25.399999999999999
144
1.0
145
0.0
146
1.0
147
0.09
 71
     1
 72
     0
 73
     1
 74
     1
 75
     0
 76
     0
 77
     0
 78
     4
170
     0
171
     2
172
     0
173
     0
174
     0
175
     0
176
     0
177
     0
178
     0
  0
ENDTAB
  0
ENDSEC
  0
SECTION
  2
BLOCKS
  0
BLOCK
  8
0
  2
$MODEL_SPACE
 70
     0
 10
0.0
 20
0.0
 30
0.0
  3
$MODEL_SPACE
  1

  0
ENDBLK
  5
21
  8
0
  0
BLOCK
 67
     1
  8
0
  2
$PAPER_SPACE
 70
     0
 10
0.0
 20
0.0
 30
0.0
  3
$PAPER_SPACE
  1

  0
ENDBLK
  5
1D
 67
     1
  8
0
  0
ENDSEC
  0
SECTION
  2
ENTITIES
  0
ATTDEF
  5
3930
  8
DEFPOINTS
 10
457.39803535578409
 20
52.204610603795857
 30
0.0
 40
0.001
  1
K-2362-1
  3

  2
MODELNUMBER
 70
     0
1001
ACDBATTR
1070
     0
1070
     1
  0
ATTDEF
  5
3931
  8
DEFPOINTS
 10
457.39803535578409
 20
52.202943937129191
 30
0.0
 40
0.001
  1
CIMARRON
  3

  2
TRADENAME
 70
     0
1001
ACDBATTR
1070
     0
1070
     1
  0
ATTDEF
  5
3932
  8
DEFPOINTS
 10
457.39803535578409
 20
52.201277270462533
 30
0.0
 40
0.001
  1
BATHROOM SINK
  3

  2
PRODUCT
 70
     0
1001
ACDBATTR
1070
     0
1070
     1
  0
ATTDEF
  5
3933
  8
DEFPOINTS
 10
457.39803535578409
 20
52.199610603795861
 30
0.0
 40
0.001
  1
VITREOUS CHINA
  3

  2
MATERIAL
 70
     0
1001
ACDBATTR
1070
     0
1070
     1
  0
LINE
  5
43D4
  8
0
 10
446.55683228508508
 20
52.198882914295751
 30
0.0
 11
468.24677047068502
 21
52.198882914295758
 31
0.0
  0
ARC
  5
43D5
  8
0
 10
454.1998974724375
 20
36.503544395371662
 30
0.0
 40
10.41182789271949
 50
102.47225751994981
 51
108.599015843245
  0
CIRCLE
  5
43D6
  8
0
 10
457.40180137938512
 20
44.178882914295762
 30
0.0
 40
0.7867693661000001
  0
CIRCLE
  5
43D8
  8
0
 10
457.40180137938512
 20
49.588882914295752
 30
0.0
 40
0.69
  0
ARC
  5
43DA
  8
0
 10
446.59116169605261
 20
51.663987872009237
 30
0.0
 40
0.5359955361008782
 50
93.67219032204396
 51
176.62749222225429
  0
LINE
  5
43DB
  8
0
 10
446.05609441311589
 20
51.695519085922179
 30
0.0
 11
446.05609441311589
 21
38.61875560609576
 31
0.0
  0
ARC
  5
43DC
  8
0
 10
448.79465422924631
 20
38.78290957955091
 30
0.0
 40
2.7434752401881108
 50
183.4303028755192
 51
232.1529133958534
  0
ARC
  5
43DD
  8
0
 10
457.97862561428531
 20
52.282337820743543
 30
0.0
 40
19.066066012283329
 50
235.2512736907978
 51
245.13014765796359
  0
ARC
  5
43DE
  8
0
 10
457.43960703622889
 20
51.118825031983413
 30
0.0
 40
17.783762247365349
 50
245.12920604960789
 51
269.87819752275999
  0
LINE
  5
43DF
  8
0
 10
460.34673779061188
 20
46.949190854395752
 30
0.0
 11
454.45686496515839
 21
46.949190854395752
 31
0.0
  0
ARC
  5
43E0
  8
0
 10
454.70056798440248
 20
33.395591522612527
 30
0.0
 40
13.5557901285061
 50
91.030106440439809
 51
101.7014604806467
  0
ARC
  5
43E1
  8
0
 10
454.22802221934512
 20
36.45920412585405
 30
0.0
 40
10.46283011787116
 50
108.66754345199671
 51
127.16817571326121
  0
ARC
  5
43E2
  8
0
 10
448.92367282109211
 20
43.403116669533993
 30
0.0
 40
1.7250975403739821
 50
126.11715392895729
 51
174.63000973996239
  0
ARC
  5
43E3
  8
0
 10
225.80571454237719
 20
40.544809974326249
 30
0.0
 40
221.42102473053279
 50
359.59147723969608
 51
0.7814274857432725
  0
ARC
  5
43E4
  8
0
 10
449.06898369488511
 20
38.891440370733953
 30
0.0
 40
1.8493793593604351
 50
177.68706180721901
 51
236.37540171843079
  0
ARC
  5
43E5
  8
0
 10
457.80366104550211
 20
51.941835549469253
 30
0.0
 40
17.553110577220188
 50
236.22336457662971
 51
248.34374868910371
  0
ARC
  5
43E6
  8
0
 10
457.40700510392247
 20
50.964574445135568
 30
0.0
 40
16.49845096188433
 50
248.3715731915762
 51
269.98192851284512
  0
CIRCLE
  5
43E7
  8
0
 10
457.40180137938512
 20
44.178882914295762
 30
0.0
 40
1.086910126799999
  0
ARC
  5
43E8
  8
0
 10
457.46569938290992
 20
44.852019179097361
 30
0.0
 40
1.9994564415255931
 50
91.83135241451177
 51
104.58816152643899
  0
ARC
  5
43E9
  8
0
 10
457.43161169527679
 20
48.647916131377713
 30
0.0
 40
1.919217119526671
 50
255.83953438006191
 51
269.11001520285947
  0
ARC
  5
43EA
  8
0
 10
460.6037052833326
 20
36.503544395371662
 30
0.0
 40
10.41182789271949
 50
71.400984156755001
 51
77.527742480050193
  0
ARC
  5
43EB
  8
0
 10
468.21244105971749
 20
51.663987872009237
 30
0.0
 40
0.5359955361008782
 50
3.3725077777456658
 51
86.327809677956026
  0
LINE
  5
43EC
  8
0
 10
468.74750834265433
 20
51.695519085922179
 30
0.0
 11
468.74750834265433
 21
38.61875560609576
 31
0.0
  0
ARC
  5
43ED
  8
0
 10
466.0089485265238
 20
38.78290957955091
 30
0.0
 40
2.7434752401881108
 50
307.84708660414663
 51
356.5696971244808
  0
ARC
  5
43EE
  8
0
 10
456.82497714148468
 20
52.282337820743543
 30
0.0
 40
19.066066012283329
 50
294.86985234203638
 51
304.74872630920231
  0
ARC
  5
43EF
  8
0
 10
457.36399571954132
 20
51.118825031983413
 30
0.0
 40
17.783762247365349
 50
270.12180247724001
 51
294.870793950392
  0
ARC
  5
43F0
  8
0
 10
460.10303477136767
 20
33.395591522612527
 30
0.0
 40
13.5557901285061
 50
78.298539519353227
 51
88.969893559560191
  0
ARC
  5
43F1
  8
0
 10
460.57558053642509
 20
36.45920412585405
 30
0.0
 40
10.46283011787116
 50
52.83182428673878
 51
71.332456548003293
  0
ARC
  5
43F2
  8
0
 10
465.87992993467799
 20
43.403116669533993
 30
0.0
 40
1.7250975403739821
 50
5.3699902600375662
 51
53.882846071042671
  0
ARC
  5
43F3
  8
0
 10
688.99788821339303
 20
40.544809974326249
 30
0.0
 40
221.42102473053279
 50
179.21857251425669
 51
180.4085227603039
  0
ARC
  5
43F4
  8
0
 10
465.734619060885
 20
38.891440370733953
 30
0.0
 40
1.8493793593604351
 50
303.62459828156921
 51
2.3129381927809991
  0
ARC
  5
43F5
  8
0
 10
456.99994171026788
 20
51.941835549469253
 30
0.0
 40
17.553110577220188
 50
291.65625131089632
 51
303.77663542337029
  0
ARC
  5
43F6
  8
0
 10
457.39659765184769
 20
50.964574445135568
 30
0.0
 40
16.49845096188433
 50
270.01807148715488
 51
291.6284268084238
  0
ARC
  5
43F7
  8
0
 10
457.3379033728603
 20
44.852019179097361
 30
0.0
 40
1.9994564415255931
 50
75.411838473560962
 51
88.168647585488216
  0
ARC
  5
43F8
  8
0
 10
457.37199106049331
 20
48.647916131377713
 30
0.0
 40
1.919217119526671
 50
270.88998479714053
 51
284.16046561993812
  0
POINT
  5
43FA
  8
DEFPOINTS
 10
457.40180137938512
 20
49.588882914295752
 30
0.0
  0
ENDSEC
  0
EOF
