  0
SECTION
  2
HEADER
  9
$ACADVER
  1
AC1009
  9
$INSBASE
 10
0.0
 20
0.0
 30
0.0
  9
$EXTMIN
 10
-10.90694898994197
 20
-8.2766419326687668
 30
-0.0015258207003583
  9
$EXTMAX
 10
10.906696371640059
 20
8.2769107029417128
 30
0.0000000349246037
  9
$LIMMIN
 10
0.0
 20
0.0
  9
$LIMMAX
 10
12.0
 20
9.0
  9
$ORTHOMODE
 70
     0
  9
$REGENMODE
 70
     1
  9
$FILLMODE
 70
     1
  9
$QTEXTMODE
 70
     0
  9
$MIRRTEXT
 70
     1
  9
$DRAGMODE
 70
     2
  9
$LTSCALE
 40
1.0
  9
$OSMODE
 70
    37
  9
$ATTMODE
 70
     1
  9
$TEXTSIZE
 40
0.001
  9
$TRACEWID
 40
0.05
  9
$TEXTSTYLE
  7
STANDARD
  9
$CLAYER
  8
0
  9
$CELTYPE
  6
BYLAYER
  9
$CECOLOR
 62
   256
  9
$DIMSCALE
 40
1.0
  9
$DIMASZ
 40
0.18
  9
$DIMEXO
 40
0.0625
  9
$DIMDLI
 40
0.38
  9
$DIMRND
 40
0.0
  9
$DIMDLE
 40
0.0
  9
$DIMEXE
 40
0.18
  9
$DIMTP
 40
0.0
  9
$DIMTM
 40
0.0
  9
$DIMTXT
 40
0.18
  9
$DIMCEN
 40
0.09
  9
$DIMTSZ
 40
0.0
  9
$DIMTOL
 70
     0
  9
$DIMLIM
 70
     0
  9
$DIMTIH
 70
     1
  9
$DIMTOH
 70
     1
  9
$DIMSE1
 70
     0
  9
$DIMSE2
 70
     0
  9
$DIMTAD
 70
     0
  9
$DIMZIN
 70
     0
  9
$DIMBLK
  1

  9
$DIMASO
 70
     1
  9
$DIMSHO
 70
     1
  9
$DIMPOST
  1

  9
$DIMAPOST
  1

  9
$DIMALT
 70
     0
  9
$DIMALTD
 70
     2
  9
$DIMALTF
 40
25.399999999999999
  9
$DIMLFAC
 40
1.0
  9
$DIMTOFL
 70
     0
  9
$DIMTVP
 40
0.0
  9
$DIMTIX
 70
     0
  9
$DIMSOXD
 70
     0
  9
$DIMSAH
 70
     0
  9
$DIMBLK1
  1

  9
$DIMBLK2
  1

  9
$DIMSTYLE
  2
STANDARD
  9
$DIMCLRD
 70
     0
  9
$DIMCLRE
 70
     0
  9
$DIMCLRT
 70
     0
  9
$DIMTFAC
 40
1.0
  9
$DIMGAP
 40
0.09
  9
$LUNITS
 70
     2
  9
$LUPREC
 70
     4
  9
$SKETCHINC
 40
0.1
  9
$FILLETRAD
 40
0.0
  9
$AUNITS
 70
     0
  9
$AUPREC
 70
     0
  9
$MENU
  1
.
  9
$ELEVATION
 40
0.0
  9
$PELEVATION
 40
0.0
  9
$THICKNESS
 40
0.0
  9
$LIMCHECK
 70
     0
  9
$BLIPMODE
 70
     0
  9
$CHAMFERA
 40
0.5
  9
$CHAMFERB
 40
0.5
  9
$SKPOLY
 70
     0
  9
$TDCREATE
 40
2451380.5970990621
  9
$TDUPDATE
 40
2456524.7066834029
  9
$TDINDWG
 40
1.4398490046000001
  9
$TDUSRTIMER
 40
1.4398399653
  9
$USRTIMER
 70
     1
  9
$ANGBASE
 50
0.0
  9
$ANGDIR
 70
     0
  9
$PDMODE
 70
     0
  9
$PDSIZE
 40
0.0
  9
$PLINEWID
 40
0.0
  9
$COORDS
 70
     1
  9
$SPLFRAME
 70
     0
  9
$SPLINETYPE
 70
     6
  9
$SPLINESEGS
 70
     8
  9
$ATTDIA
 70
     0
  9
$ATTREQ
 70
     1
  9
$HANDLING
 70
     1
  9
$HANDSEED
  5
50A
  9
$SURFTAB1
 70
     6
  9
$SURFTAB2
 70
     6
  9
$SURFTYPE
 70
     6
  9
$SURFU
 70
     6
  9
$SURFV
 70
     6
  9
$UCSNAME
  2

  9
$UCSORG
 10
0.0
 20
0.0
 30
0.0
  9
$UCSXDIR
 10
1.0
 20
0.0
 30
0.0
  9
$UCSYDIR
 10
0.0
 20
1.0
 30
0.0
  9
$PUCSNAME
  2

  9
$PUCSORG
 10
0.0
 20
0.0
 30
0.0
  9
$PUCSXDIR
 10
1.0
 20
0.0
 30
0.0
  9
$PUCSYDIR
 10
0.0
 20
1.0
 30
0.0
  9
$USERI1
 70
     0
  9
$USERI2
 70
     0
  9
$USERI3
 70
     0
  9
$USERI4
 70
     0
  9
$USERI5
 70
     0
  9
$USERR1
 40
0.0
  9
$USERR2
 40
0.0
  9
$USERR3
 40
0.0
  9
$USERR4
 40
0.0
  9
$USERR5
 40
0.0
  9
$WORLDVIEW
 70
     1
  9
$SHADEDGE
 70
     3
  9
$SHADEDIF
 70
    70
  9
$TILEMODE
 70
     1
  9
$MAXACTVP
 70
    64
  9
$PLIMCHECK
 70
     0
  9
$PEXTMIN
 10
1.0000000000000000E+020
 20
1.0000000000000000E+020
 30
1.0000000000000000E+020
  9
$PEXTMAX
 10
-1.0000000000000000E+020
 20
-1.0000000000000000E+020
 30
-1.0000000000000000E+020
  9
$PLIMMIN
 10
0.0
 20
0.0
  9
$PLIMMAX
 10
12.0
 20
9.0
  9
$UNITMODE
 70
     0
  9
$VISRETAIN
 70
     1
  9
$PLINEGEN
 70
     0
  9
$PSLTSCALE
 70
     1
  0
ENDSEC
  0
SECTION
  2
TABLES
  0
TABLE
  2
VPORT
 70
     1
  0
VPORT
  2
*ACTIVE
 70
     0
 10
0.0
 20
0.0
 11
1.0
 21
1.0
 12
-0.0001263091509545
 22
0.000134385136473
 13
0.0
 23
0.0
 14
0.5
 24
0.5
 15
0.5
 25
0.5
 16
0.0
 26
0.0
 36
1.0
 17
0.0
 27
0.0
 37
0.0
 40
16.65594574469673
 41
1.976264189886481
 42
50.0
 43
0.0
 44
0.0
 50
0.0
 51
0.0
 71
     0
 72
  2500
 73
     1
 74
     1
 75
     0
 76
     0
 77
     0
 78
     0
  0
ENDTAB
  0
TABLE
  2
LTYPE
 70
     2
  0
LTYPE
  2
CONTINUOUS
 70
     0
  3
Solid line
 72
    65
 73
     0
 40
0.0
  0
LTYPE
  2
PHANTOM2
 70
     0
  3
Phantom (.5x) ___ _ _ ___ _ _ ___ _ _ ___ _ _
 72
    65
 73
     6
 40
1.25
 49
0.625
 49
-0.125
 49
0.125
 49
-0.125
 49
0.125
 49
-0.125
  0
ENDTAB
  0
TABLE
  2
LAYER
 70
     2
  0
LAYER
  2
0
 70
     0
 62
     7
  6
CONTINUOUS
  0
LAYER
  2
DEFPOINTS
 70
     0
 62
     7
  6
CONTINUOUS
  0
ENDTAB
  0
TABLE
  2
STYLE
 70
     1
  0
STYLE
  2
STANDARD
 70
     0
 40
0.0
 41
1.0
 50
0.0
 71
     0
 42
0.001
  3
txt
  4

  0
ENDTAB
  0
TABLE
  2
VIEW
 70
     0
  0
ENDTAB
  0
TABLE
  2
UCS
 70
     0
  0
ENDTAB
  0
TABLE
  2
APPID
 70
     4
  0
APPID
  2
ACAD
 70
     0
  0
APPID
  2
ACAD_NAV_VCDISPLAY
 70
     0
  0
APPID
  2
ACDBATTR
 70
     0
  0
APPID
  2
ACAD_MLEADERVER
 70
     0
  0
ENDTAB
  0
TABLE
  2
DIMSTYLE
 70
     1
  0
DIMSTYLE
  2
STANDARD
 70
     0
  3

  4

  5

  6

  7

 40
1.0
 41
0.18
 42
0.0625
 43
0.38
 44
0.18
 45
0.0
 46
0.0
 47
0.0
 48
0.0
140
0.18
141
0.09
142
0.0
143
25.399999999999999
144
1.0
145
0.0
146
1.0
147
0.09
 71
     0
 72
     0
 73
     1
 74
     1
 75
     0
 76
     0
 77
     0
 78
     0
170
     0
171
     2
172
     0
173
     0
174
     0
175
     0
176
     0
177
     0
178
     0
  0
ENDTAB
  0
ENDSEC
  0
SECTION
  2
BLOCKS
  0
BLOCK
  8
0
  2
$MODEL_SPACE
 70
     2
 10
0.0
 20
0.0
 30
0.0
  3
$MODEL_SPACE
  1

  0
ENDBLK
  5
16
  8
0
  0
BLOCK
 67
     1
  8
0
  2
$PAPER_SPACE
 70
     0
 10
0.0
 20
0.0
 30
0.0
  3
$PAPER_SPACE
  1

  0
ENDBLK
  5
1D
 67
     1
  8
0
  0
ENDSEC
  0
SECTION
  2
ENTITIES
  0
POLYLINE
  5
70
  8
0
 66
     1
 10
0.0
 20
0.0
 30
0.0
  0
VERTEX
  5
71
  8
0
 10
-8.0617281386867035
 20
-4.8964234512958518
 30
0.0
  0
VERTEX
  5
72
  8
0
 10
-9.4802451821197167
 20
-6.8454637120371506
 30
0.0
  0
SEQEND
  5
73
  8
0
  0
POLYLINE
  5
74
  8
0
 66
     1
 10
0.0
 20
0.0
 30
0.0
  0
VERTEX
  5
75
  8
0
 10
-8.1088799997132792
 20
2.3748457749203382
 30
0.0
  0
VERTEX
  5
76
  8
0
 10
-9.4437047973115114
 20
3.0761773632678948
 30
0.0
  0
SEQEND
  5
77
  8
0
  0
POLYLINE
  8
0
  5
280
  66
     1
 10
0.000000
 20
0.000000
 30
0.000000
  70
     8
  0
VERTEX
  8
0
  5
281
 10
-9.59069
 20
3.02207
 30
0.000000
  70
    32
  0
VERTEX
  8
0
  5
282
 10
-9.59123
 20
3.02374
 30
0.000000
  70
    32
  0
VERTEX
  8
0
  5
283
 10
-9.59177
 20
3.02541
 30
0.000000
  70
    32
  0
VERTEX
  8
0
  5
284
 10
-9.59230
 20
3.02707
 30
0.000000
  70
    32
  0
VERTEX
  8
0
  5
285
 10
-9.59284
 20
3.02874
 30
0.000000
  70
    32
  0
VERTEX
  8
0
  5
286
 10
-9.59336
 20
3.03041
 30
0.000000
  70
    32
  0
VERTEX
  8
0
  5
287
 10
-9.59389
 20
3.03208
 30
0.000000
  70
    32
  0
VERTEX
  8
0
  5
288
 10
-9.59441
 20
3.03375
 30
0.000000
  70
    32
  0
VERTEX
  8
0
  5
289
 10
-9.59493
 20
3.03542
 30
0.000000
  70
    32
  0
VERTEX
  8
0
  5
28A
 10
-9.59544
 20
3.03710
 30
0.000000
  70
    32
  0
VERTEX
  8
0
  5
28B
 10
-9.59595
 20
3.03877
 30
0.000000
  70
    32
  0
VERTEX
  8
0
  5
28C
 10
-9.59646
 20
3.04044
 30
0.000000
  70
    32
  0
VERTEX
  8
0
  5
28D
 10
-9.59696
 20
3.04212
 30
0.000000
  70
    32
  0
VERTEX
  8
0
  5
28E
 10
-9.59746
 20
3.04379
 30
0.000000
  70
    32
  0
VERTEX
  8
0
  5
28F
 10
-9.59796
 20
3.04547
 30
0.000000
  70
    32
  0
VERTEX
  8
0
  5
290
 10
-9.59845
 20
3.04714
 30
0.000000
  70
    32
  0
VERTEX
  8
0
  5
291
 10
-9.59894
 20
3.04882
 30
0.000000
  70
    32
  0
VERTEX
  8
0
  5
292
 10
-9.59943
 20
3.05050
 30
0.000000
  70
    32
  0
VERTEX
  8
0
  5
293
 10
-9.59991
 20
3.05218
 30
0.000000
  70
    32
  0
VERTEX
  8
0
  5
294
 10
-9.60039
 20
3.05386
 30
0.000000
  70
    32
  0
VERTEX
  8
0
  5
295
 10
-9.60087
 20
3.05554
 30
0.000000
  70
    32
  0
VERTEX
  8
0
  5
296
 10
-9.60134
 20
3.05722
 30
0.000000
  70
    32
  0
VERTEX
  8
0
  5
297
 10
-9.60181
 20
3.05890
 30
0.000000
  70
    32
  0
VERTEX
  8
0
  5
298
 10
-9.60228
 20
3.06058
 30
0.000000
  70
    32
  0
VERTEX
  8
0
  5
299
 10
-9.60275
 20
3.06226
 30
0.000000
  70
    32
  0
VERTEX
  8
0
  5
29A
 10
-9.60321
 20
3.06394
 30
0.000000
  70
    32
  0
VERTEX
  8
0
  5
29B
 10
-9.60366
 20
3.06563
 30
0.000000
  70
    32
  0
VERTEX
  8
0
  5
29C
 10
-9.60412
 20
3.06731
 30
0.000000
  70
    32
  0
VERTEX
  8
0
  5
29D
 10
-9.60457
 20
3.06900
 30
0.000000
  70
    32
  0
VERTEX
  8
0
  5
29E
 10
-9.60502
 20
3.07068
 30
0.000000
  70
    32
  0
VERTEX
  8
0
  5
29F
 10
-9.60546
 20
3.07237
 30
0.000000
  70
    32
  0
VERTEX
  8
0
  5
2A0
 10
-9.60590
 20
3.07406
 30
0.000000
  70
    32
  0
VERTEX
  8
0
  5
2A1
 10
-9.60634
 20
3.07575
 30
0.000000
  70
    32
  0
VERTEX
  8
0
  5
2A2
 10
-9.60678
 20
3.07743
 30
0.000000
  70
    32
  0
VERTEX
  8
0
  5
2A3
 10
-9.60721
 20
3.07912
 30
0.000000
  70
    32
  0
VERTEX
  8
0
  5
2A4
 10
-9.60764
 20
3.08081
 30
0.000000
  70
    32
  0
VERTEX
  8
0
  5
2A5
 10
-9.60807
 20
3.08250
 30
0.000000
  70
    32
  0
VERTEX
  8
0
  5
2A6
 10
-9.60849
 20
3.08420
 30
0.000000
  70
    32
  0
VERTEX
  8
0
  5
2A7
 10
-9.60891
 20
3.08589
 30
0.000000
  70
    32
  0
VERTEX
  8
0
  5
2A8
 10
-9.60933
 20
3.08758
 30
0.000000
  70
    32
  0
VERTEX
  8
0
  5
2A9
 10
-9.60975
 20
3.08927
 30
0.000000
  70
    32
  0
VERTEX
  8
0
  5
2AA
 10
-9.61016
 20
3.09097
 30
0.000000
  70
    32
  0
VERTEX
  8
0
  5
2AB
 10
-9.61057
 20
3.09266
 30
0.000000
  70
    32
  0
VERTEX
  8
0
  5
2AC
 10
-9.61098
 20
3.09436
 30
0.000000
  70
    32
  0
VERTEX
  8
0
  5
2AD
 10
-9.61138
 20
3.09605
 30
0.000000
  70
    32
  0
VERTEX
  8
0
  5
2AE
 10
-9.61178
 20
3.09775
 30
0.000000
  70
    32
  0
VERTEX
  8
0
  5
2AF
 10
-9.61218
 20
3.09944
 30
0.000000
  70
    32
  0
VERTEX
  8
0
  5
2B0
 10
-9.61257
 20
3.10114
 30
0.000000
  70
    32
  0
VERTEX
  8
0
  5
2B1
 10
-9.61296
 20
3.10284
 30
0.000000
  70
    32
  0
VERTEX
  8
0
  5
2B2
 10
-9.61335
 20
3.10454
 30
0.000000
  70
    32
  0
VERTEX
  8
0
  5
2B3
 10
-9.61374
 20
3.10624
 30
0.000000
  70
    32
  0
VERTEX
  8
0
  5
2B4
 10
-9.61413
 20
3.10794
 30
0.000000
  70
    32
  0
VERTEX
  8
0
  5
2B5
 10
-9.61451
 20
3.10964
 30
0.000000
  70
    32
  0
VERTEX
  8
0
  5
2B6
 10
-9.61489
 20
3.11134
 30
0.000000
  70
    32
  0
VERTEX
  8
0
  5
2B7
 10
-9.61526
 20
3.11304
 30
0.000000
  70
    32
  0
VERTEX
  8
0
  5
2B8
 10
-9.61563
 20
3.11474
 30
0.000000
  70
    32
  0
VERTEX
  8
0
  5
2B9
 10
-9.61601
 20
3.11644
 30
0.000000
  70
    32
  0
VERTEX
  8
0
  5
2BA
 10
-9.61637
 20
3.11815
 30
0.000000
  70
    32
  0
VERTEX
  8
0
  5
2BB
 10
-9.61674
 20
3.11985
 30
0.000000
  70
    32
  0
VERTEX
  8
0
  5
2BC
 10
-9.61710
 20
3.12156
 30
0.000000
  70
    32
  0
VERTEX
  8
0
  5
2BD
 10
-9.61746
 20
3.12326
 30
0.000000
  70
    32
  0
VERTEX
  8
0
  5
2BE
 10
-9.61782
 20
3.12497
 30
0.000000
  70
    32
  0
VERTEX
  8
0
  5
2BF
 10
-9.61817
 20
3.12667
 30
0.000000
  70
    32
  0
VERTEX
  8
0
  5
2C0
 10
-9.61853
 20
3.12838
 30
0.000000
  70
    32
  0
VERTEX
  8
0
  5
2C1
 10
-9.61888
 20
3.13009
 30
0.000000
  70
    32
  0
VERTEX
  8
0
  5
2C2
 10
-9.61923
 20
3.13180
 30
0.000000
  70
    32
  0
VERTEX
  8
0
  5
2C3
 10
-9.61957
 20
3.13350
 30
0.000000
  70
    32
  0
VERTEX
  8
0
  5
2C4
 10
-9.61991
 20
3.13521
 30
0.000000
  70
    32
  0
VERTEX
  8
0
  5
2C5
 10
-9.62025
 20
3.13692
 30
0.000000
  70
    32
  0
VERTEX
  8
0
  5
2C6
 10
-9.62059
 20
3.13863
 30
0.000000
  70
    32
  0
VERTEX
  8
0
  5
2C7
 10
-9.62093
 20
3.14034
 30
0.000000
  70
    32
  0
VERTEX
  8
0
  5
2C8
 10
-9.62126
 20
3.14205
 30
0.000000
  70
    32
  0
VERTEX
  8
0
  5
2C9
 10
-9.62159
 20
3.14377
 30
0.000000
  70
    32
  0
VERTEX
  8
0
  5
2CA
 10
-9.62192
 20
3.14548
 30
0.000000
  70
    32
  0
VERTEX
  8
0
  5
2CB
 10
-9.62225
 20
3.14719
 30
0.000000
  70
    32
  0
VERTEX
  8
0
  5
2CC
 10
-9.62257
 20
3.14890
 30
0.000000
  70
    32
  0
VERTEX
  8
0
  5
2CD
 10
-9.62289
 20
3.15062
 30
0.000000
  70
    32
  0
VERTEX
  8
0
  5
2CE
 10
-9.62321
 20
3.15233
 30
0.000000
  70
    32
  0
VERTEX
  8
0
  5
2CF
 10
-9.62353
 20
3.15405
 30
0.000000
  70
    32
  0
VERTEX
  8
0
  5
2D0
 10
-9.62384
 20
3.15576
 30
0.000000
  70
    32
  0
VERTEX
  8
0
  5
2D1
 10
-9.62415
 20
3.15748
 30
0.000000
  70
    32
  0
VERTEX
  8
0
  5
2D2
 10
-9.62446
 20
3.15920
 30
0.000000
  70
    32
  0
VERTEX
  8
0
  5
2D3
 10
-9.62477
 20
3.16091
 30
0.000000
  70
    32
  0
VERTEX
  8
0
  5
2D4
 10
-9.62508
 20
3.16263
 30
0.000000
  70
    32
  0
VERTEX
  8
0
  5
2D5
 10
-9.62538
 20
3.16435
 30
0.000000
  70
    32
  0
VERTEX
  8
0
  5
2D6
 10
-9.62568
 20
3.16607
 30
0.000000
  70
    32
  0
VERTEX
  8
0
  5
2D7
 10
-9.62598
 20
3.16779
 30
0.000000
  70
    32
  0
VERTEX
  8
0
  5
2D8
 10
-9.62628
 20
3.16950
 30
0.000000
  70
    32
  0
VERTEX
  8
0
  5
2D9
 10
-9.62658
 20
3.17122
 30
0.000000
  70
    32
  0
VERTEX
  8
0
  5
2DA
 10
-9.62687
 20
3.17294
 30
0.000000
  70
    32
  0
VERTEX
  8
0
  5
2DB
 10
-9.62716
 20
3.17467
 30
0.000000
  70
    32
  0
VERTEX
  8
0
  5
2DC
 10
-9.62745
 20
3.17639
 30
0.000000
  70
    32
  0
VERTEX
  8
0
  5
2DD
 10
-9.62774
 20
3.17811
 30
0.000000
  70
    32
  0
VERTEX
  8
0
  5
2DE
 10
-9.62802
 20
3.17983
 30
0.000000
  70
    32
  0
VERTEX
  8
0
  5
2DF
 10
-9.62831
 20
3.18155
 30
0.000000
  70
    32
  0
VERTEX
  8
0
  5
2E0
 10
-9.62859
 20
3.18328
 30
0.000000
  70
    32
  0
VERTEX
  8
0
  5
2E1
 10
-9.62887
 20
3.18500
 30
0.000000
  70
    32
  0
VERTEX
  8
0
  5
2E2
 10
-9.62915
 20
3.18673
 30
0.000000
  70
    32
  0
VERTEX
  8
0
  5
2E3
 10
-9.62942
 20
3.18845
 30
0.000000
  70
    32
  0
VERTEX
  8
0
  5
2E4
 10
-9.62969
 20
3.19018
 30
0.000000
  70
    32
  0
VERTEX
  8
0
  5
2E5
 10
-9.62997
 20
3.19190
 30
0.000000
  70
    32
  0
VERTEX
  8
0
  5
2E6
 10
-9.63024
 20
3.19363
 30
0.000000
  70
    32
  0
VERTEX
  8
0
  5
2E7
 10
-9.63051
 20
3.19535
 30
0.000000
  70
    32
  0
VERTEX
  8
0
  5
2E8
 10
-9.63077
 20
3.19708
 30
0.000000
  70
    32
  0
VERTEX
  8
0
  5
2E9
 10
-9.63104
 20
3.19881
 30
0.000000
  70
    32
  0
VERTEX
  8
0
  5
2EA
 10
-9.63130
 20
3.20054
 30
0.000000
  70
    32
  0
VERTEX
  8
0
  5
2EB
 10
-9.63156
 20
3.20226
 30
0.000000
  70
    32
  0
VERTEX
  8
0
  5
2EC
 10
-9.63182
 20
3.20399
 30
0.000000
  70
    32
  0
VERTEX
  8
0
  5
2ED
 10
-9.63208
 20
3.20572
 30
0.000000
  70
    32
  0
VERTEX
  8
0
  5
2EE
 10
-9.63233
 20
3.20745
 30
0.000000
  70
    32
  0
VERTEX
  8
0
  5
2EF
 10
-9.63259
 20
3.20918
 30
0.000000
  70
    32
  0
VERTEX
  8
0
  5
2F0
 10
-9.63284
 20
3.21091
 30
0.000000
  70
    32
  0
VERTEX
  8
0
  5
2F1
 10
-9.63309
 20
3.21264
 30
0.000000
  70
    32
  0
VERTEX
  8
0
  5
2F2
 10
-9.63334
 20
3.21437
 30
0.000000
  70
    32
  0
VERTEX
  8
0
  5
2F3
 10
-9.63359
 20
3.21611
 30
0.000000
  70
    32
  0
VERTEX
  8
0
  5
2F4
 10
-9.63383
 20
3.21784
 30
0.000000
  70
    32
  0
VERTEX
  8
0
  5
2F5
 10
-9.63408
 20
3.21957
 30
0.000000
  70
    32
  0
VERTEX
  8
0
  5
2F6
 10
-9.63432
 20
3.22130
 30
0.000000
  70
    32
  0
VERTEX
  8
0
  5
2F7
 10
-9.63456
 20
3.22304
 30
0.000000
  70
    32
  0
VERTEX
  8
0
  5
2F8
 10
-9.63480
 20
3.22477
 30
0.000000
  70
    32
  0
VERTEX
  8
0
  5
2F9
 10
-9.63504
 20
3.22650
 30
0.000000
  70
    32
  0
VERTEX
  8
0
  5
2FA
 10
-9.63528
 20
3.22824
 30
0.000000
  70
    32
  0
VERTEX
  8
0
  5
2FB
 10
-9.63551
 20
3.22997
 30
0.000000
  70
    32
  0
VERTEX
  8
0
  5
2FC
 10
-9.63575
 20
3.23171
 30
0.000000
  70
    32
  0
VERTEX
  8
0
  5
2FD
 10
-9.63598
 20
3.23345
 30
0.000000
  70
    32
  0
VERTEX
  8
0
  5
2FE
 10
-9.63621
 20
3.23518
 30
0.000000
  70
    32
  0
VERTEX
  8
0
  5
2FF
 10
-9.63644
 20
3.23692
 30
0.000000
  70
    32
  0
VERTEX
  8
0
  5
300
 10
-9.63667
 20
3.23865
 30
0.000000
  70
    32
  0
SEQEND
  8
0
  5
301
  0
POLYLINE
  8
0
  5
302
  66
     1
 10
0.000000
 20
0.000000
 30
0.000000
  70
     8
  0
VERTEX
  8
0
  5
303
 10
-9.59069
 20
3.02224
 30
0.000000
  70
    32
  0
VERTEX
  8
0
  5
304
 10
-9.59019
 20
3.02077
 30
0.000000
  70
    32
  0
VERTEX
  8
0
  5
305
 10
-9.58969
 20
3.01931
 30
0.000000
  70
    32
  0
VERTEX
  8
0
  5
306
 10
-9.58919
 20
3.01786
 30
0.000000
  70
    32
  0
VERTEX
  8
0
  5
307
 10
-9.58868
 20
3.01641
 30
0.000000
  70
    32
  0
VERTEX
  8
0
  5
308
 10
-9.58818
 20
3.01497
 30
0.000000
  70
    32
  0
VERTEX
  8
0
  5
309
 10
-9.58767
 20
3.01355
 30
0.000000
  70
    32
  0
VERTEX
  8
0
  5
30A
 10
-9.58717
 20
3.01213
 30
0.000000
  70
    32
  0
VERTEX
  8
0
  5
30B
 10
-9.58666
 20
3.01072
 30
0.000000
  70
    32
  0
VERTEX
  8
0
  5
30C
 10
-9.58615
 20
3.00932
 30
0.000000
  70
    32
  0
VERTEX
  8
0
  5
30D
 10
-9.58564
 20
3.00792
 30
0.000000
  70
    32
  0
VERTEX
  8
0
  5
30E
 10
-9.58513
 20
3.00654
 30
0.000000
  70
    32
  0
VERTEX
  8
0
  5
30F
 10
-9.58461
 20
3.00516
 30
0.000000
  70
    32
  0
VERTEX
  8
0
  5
310
 10
-9.58410
 20
3.00380
 30
0.000000
  70
    32
  0
VERTEX
  8
0
  5
311
 10
-9.58359
 20
3.00244
 30
0.000000
  70
    32
  0
VERTEX
  8
0
  5
312
 10
-9.58307
 20
3.00109
 30
0.000000
  70
    32
  0
VERTEX
  8
0
  5
313
 10
-9.58255
 20
2.99975
 30
0.000000
  70
    32
  0
VERTEX
  8
0
  5
314
 10
-9.58203
 20
2.99841
 30
0.000000
  70
    32
  0
VERTEX
  8
0
  5
315
 10
-9.58151
 20
2.99709
 30
0.000000
  70
    32
  0
VERTEX
  8
0
  5
316
 10
-9.58099
 20
2.99577
 30
0.000000
  70
    32
  0
VERTEX
  8
0
  5
317
 10
-9.58047
 20
2.99447
 30
0.000000
  70
    32
  0
VERTEX
  8
0
  5
318
 10
-9.57995
 20
2.99317
 30
0.000000
  70
    32
  0
VERTEX
  8
0
  5
319
 10
-9.57943
 20
2.99188
 30
0.000000
  70
    32
  0
VERTEX
  8
0
  5
31A
 10
-9.57890
 20
2.99060
 30
0.000000
  70
    32
  0
VERTEX
  8
0
  5
31B
 10
-9.57837
 20
2.98933
 30
0.000000
  70
    32
  0
VERTEX
  8
0
  5
31C
 10
-9.57785
 20
2.98806
 30
0.000000
  70
    32
  0
VERTEX
  8
0
  5
31D
 10
-9.57732
 20
2.98681
 30
0.000000
  70
    32
  0
VERTEX
  8
0
  5
31E
 10
-9.57679
 20
2.98556
 30
0.000000
  70
    32
  0
VERTEX
  8
0
  5
31F
 10
-9.57626
 20
2.98432
 30
0.000000
  70
    32
  0
VERTEX
  8
0
  5
320
 10
-9.57573
 20
2.98309
 30
0.000000
  70
    32
  0
VERTEX
  8
0
  5
321
 10
-9.57520
 20
2.98187
 30
0.000000
  70
    32
  0
VERTEX
  8
0
  5
322
 10
-9.57467
 20
2.98066
 30
0.000000
  70
    32
  0
VERTEX
  8
0
  5
323
 10
-9.57413
 20
2.97946
 30
0.000000
  70
    32
  0
VERTEX
  8
0
  5
324
 10
-9.57360
 20
2.97826
 30
0.000000
  70
    32
  0
VERTEX
  8
0
  5
325
 10
-9.57306
 20
2.97707
 30
0.000000
  70
    32
  0
VERTEX
  8
0
  5
326
 10
-9.57252
 20
2.97590
 30
0.000000
  70
    32
  0
VERTEX
  8
0
  5
327
 10
-9.57199
 20
2.97473
 30
0.000000
  70
    32
  0
VERTEX
  8
0
  5
328
 10
-9.57145
 20
2.97357
 30
0.000000
  70
    32
  0
VERTEX
  8
0
  5
329
 10
-9.57091
 20
2.97241
 30
0.000000
  70
    32
  0
VERTEX
  8
0
  5
32A
 10
-9.57037
 20
2.97127
 30
0.000000
  70
    32
  0
VERTEX
  8
0
  5
32B
 10
-9.56983
 20
2.97013
 30
0.000000
  70
    32
  0
VERTEX
  8
0
  5
32C
 10
-9.56928
 20
2.96901
 30
0.000000
  70
    32
  0
VERTEX
  8
0
  5
32D
 10
-9.56874
 20
2.96789
 30
0.000000
  70
    32
  0
VERTEX
  8
0
  5
32E
 10
-9.56820
 20
2.96678
 30
0.000000
  70
    32
  0
VERTEX
  8
0
  5
32F
 10
-9.56765
 20
2.96568
 30
0.000000
  70
    32
  0
VERTEX
  8
0
  5
330
 10
-9.56711
 20
2.96459
 30
0.000000
  70
    32
  0
VERTEX
  8
0
  5
331
 10
-9.56656
 20
2.96350
 30
0.000000
  70
    32
  0
VERTEX
  8
0
  5
332
 10
-9.56601
 20
2.96243
 30
0.000000
  70
    32
  0
VERTEX
  8
0
  5
333
 10
-9.56546
 20
2.96136
 30
0.000000
  70
    32
  0
VERTEX
  8
0
  5
334
 10
-9.56491
 20
2.96030
 30
0.000000
  70
    32
  0
VERTEX
  8
0
  5
335
 10
-9.56436
 20
2.95925
 30
0.000000
  70
    32
  0
VERTEX
  8
0
  5
336
 10
-9.56381
 20
2.95821
 30
0.000000
  70
    32
  0
VERTEX
  8
0
  5
337
 10
-9.56326
 20
2.95718
 30
0.000000
  70
    32
  0
VERTEX
  8
0
  5
338
 10
-9.56271
 20
2.95616
 30
0.000000
  70
    32
  0
VERTEX
  8
0
  5
339
 10
-9.56216
 20
2.95514
 30
0.000000
  70
    32
  0
VERTEX
  8
0
  5
33A
 10
-9.56160
 20
2.95414
 30
0.000000
  70
    32
  0
VERTEX
  8
0
  5
33B
 10
-9.56105
 20
2.95314
 30
0.000000
  70
    32
  0
VERTEX
  8
0
  5
33C
 10
-9.56049
 20
2.95215
 30
0.000000
  70
    32
  0
VERTEX
  8
0
  5
33D
 10
-9.55994
 20
2.95117
 30
0.000000
  70
    32
  0
VERTEX
  8
0
  5
33E
 10
-9.55938
 20
2.95019
 30
0.000000
  70
    32
  0
VERTEX
  8
0
  5
33F
 10
-9.55882
 20
2.94923
 30
0.000000
  70
    32
  0
VERTEX
  8
0
  5
340
 10
-9.55826
 20
2.94827
 30
0.000000
  70
    32
  0
VERTEX
  8
0
  5
341
 10
-9.55771
 20
2.94733
 30
0.000000
  70
    32
  0
VERTEX
  8
0
  5
342
 10
-9.55715
 20
2.94639
 30
0.000000
  70
    32
  0
VERTEX
  8
0
  5
343
 10
-9.55659
 20
2.94546
 30
0.000000
  70
    32
  0
VERTEX
  8
0
  5
344
 10
-9.55603
 20
2.94454
 30
0.000000
  70
    32
  0
VERTEX
  8
0
  5
345
 10
-9.55546
 20
2.94362
 30
0.000000
  70
    32
  0
VERTEX
  8
0
  5
346
 10
-9.55490
 20
2.94272
 30
0.000000
  70
    32
  0
VERTEX
  8
0
  5
347
 10
-9.55434
 20
2.94182
 30
0.000000
  70
    32
  0
VERTEX
  8
0
  5
348
 10
-9.55378
 20
2.94094
 30
0.000000
  70
    32
  0
VERTEX
  8
0
  5
349
 10
-9.55321
 20
2.94006
 30
0.000000
  70
    32
  0
VERTEX
  8
0
  5
34A
 10
-9.55265
 20
2.93919
 30
0.000000
  70
    32
  0
VERTEX
  8
0
  5
34B
 10
-9.55208
 20
2.93832
 30
0.000000
  70
    32
  0
VERTEX
  8
0
  5
34C
 10
-9.55152
 20
2.93747
 30
0.000000
  70
    32
  0
VERTEX
  8
0
  5
34D
 10
-9.55095
 20
2.93663
 30
0.000000
  70
    32
  0
VERTEX
  8
0
  5
34E
 10
-9.55038
 20
2.93579
 30
0.000000
  70
    32
  0
VERTEX
  8
0
  5
34F
 10
-9.54981
 20
2.93496
 30
0.000000
  70
    32
  0
VERTEX
  8
0
  5
350
 10
-9.54925
 20
2.93414
 30
0.000000
  70
    32
  0
VERTEX
  8
0
  5
351
 10
-9.54868
 20
2.93333
 30
0.000000
  70
    32
  0
VERTEX
  8
0
  5
352
 10
-9.54811
 20
2.93253
 30
0.000000
  70
    32
  0
VERTEX
  8
0
  5
353
 10
-9.54754
 20
2.93174
 30
0.000000
  70
    32
  0
VERTEX
  8
0
  5
354
 10
-9.54697
 20
2.93095
 30
0.000000
  70
    32
  0
VERTEX
  8
0
  5
355
 10
-9.54640
 20
2.93017
 30
0.000000
  70
    32
  0
VERTEX
  8
0
  5
356
 10
-9.54583
 20
2.92940
 30
0.000000
  70
    32
  0
VERTEX
  8
0
  5
357
 10
-9.54525
 20
2.92865
 30
0.000000
  70
    32
  0
VERTEX
  8
0
  5
358
 10
-9.54468
 20
2.92789
 30
0.000000
  70
    32
  0
VERTEX
  8
0
  5
359
 10
-9.54411
 20
2.92715
 30
0.000000
  70
    32
  0
VERTEX
  8
0
  5
35A
 10
-9.54354
 20
2.92642
 30
0.000000
  70
    32
  0
VERTEX
  8
0
  5
35B
 10
-9.54296
 20
2.92569
 30
0.000000
  70
    32
  0
VERTEX
  8
0
  5
35C
 10
-9.54239
 20
2.92497
 30
0.000000
  70
    32
  0
VERTEX
  8
0
  5
35D
 10
-9.54181
 20
2.92426
 30
0.000000
  70
    32
  0
VERTEX
  8
0
  5
35E
 10
-9.54124
 20
2.92356
 30
0.000000
  70
    32
  0
VERTEX
  8
0
  5
35F
 10
-9.54066
 20
2.92287
 30
0.000000
  70
    32
  0
VERTEX
  8
0
  5
360
 10
-9.54009
 20
2.92219
 30
0.000000
  70
    32
  0
VERTEX
  8
0
  5
361
 10
-9.53951
 20
2.92151
 30
0.000000
  70
    32
  0
VERTEX
  8
0
  5
362
 10
-9.53894
 20
2.92085
 30
0.000000
  70
    32
  0
VERTEX
  8
0
  5
363
 10
-9.53836
 20
2.92019
 30
0.000000
  70
    32
  0
VERTEX
  8
0
  5
364
 10
-9.53778
 20
2.91954
 30
0.000000
  70
    32
  0
VERTEX
  8
0
  5
365
 10
-9.53720
 20
2.91890
 30
0.000000
  70
    32
  0
VERTEX
  8
0
  5
366
 10
-9.53663
 20
2.91826
 30
0.000000
  70
    32
  0
VERTEX
  8
0
  5
367
 10
-9.53605
 20
2.91764
 30
0.000000
  70
    32
  0
VERTEX
  8
0
  5
368
 10
-9.53547
 20
2.91702
 30
0.000000
  70
    32
  0
VERTEX
  8
0
  5
369
 10
-9.53489
 20
2.91642
 30
0.000000
  70
    32
  0
VERTEX
  8
0
  5
36A
 10
-9.53431
 20
2.91582
 30
0.000000
  70
    32
  0
VERTEX
  8
0
  5
36B
 10
-9.53373
 20
2.91523
 30
0.000000
  70
    32
  0
VERTEX
  8
0
  5
36C
 10
-9.53315
 20
2.91465
 30
0.000000
  70
    32
  0
VERTEX
  8
0
  5
36D
 10
-9.53257
 20
2.91407
 30
0.000000
  70
    32
  0
VERTEX
  8
0
  5
36E
 10
-9.53199
 20
2.91351
 30
0.000000
  70
    32
  0
VERTEX
  8
0
  5
36F
 10
-9.53141
 20
2.91295
 30
0.000000
  70
    32
  0
VERTEX
  8
0
  5
370
 10
-9.53083
 20
2.91240
 30
0.000000
  70
    32
  0
VERTEX
  8
0
  5
371
 10
-9.53025
 20
2.91186
 30
0.000000
  70
    32
  0
VERTEX
  8
0
  5
372
 10
-9.52967
 20
2.91133
 30
0.000000
  70
    32
  0
VERTEX
  8
0
  5
373
 10
-9.52908
 20
2.91081
 30
0.000000
  70
    32
  0
VERTEX
  8
0
  5
374
 10
-9.52850
 20
2.91029
 30
0.000000
  70
    32
  0
VERTEX
  8
0
  5
375
 10
-9.52792
 20
2.90979
 30
0.000000
  70
    32
  0
VERTEX
  8
0
  5
376
 10
-9.52734
 20
2.90929
 30
0.000000
  70
    32
  0
VERTEX
  8
0
  5
377
 10
-9.52675
 20
2.90880
 30
0.000000
  70
    32
  0
VERTEX
  8
0
  5
378
 10
-9.52617
 20
2.90832
 30
0.000000
  70
    32
  0
VERTEX
  8
0
  5
379
 10
-9.52559
 20
2.90785
 30
0.000000
  70
    32
  0
VERTEX
  8
0
  5
37A
 10
-9.52501
 20
2.90738
 30
0.000000
  70
    32
  0
VERTEX
  8
0
  5
37B
 10
-9.52442
 20
2.90693
 30
0.000000
  70
    32
  0
VERTEX
  8
0
  5
37C
 10
-9.52384
 20
2.90648
 30
0.000000
  70
    32
  0
VERTEX
  8
0
  5
37D
 10
-9.52326
 20
2.90604
 30
0.000000
  70
    32
  0
VERTEX
  8
0
  5
37E
 10
-9.52267
 20
2.90561
 30
0.000000
  70
    32
  0
VERTEX
  8
0
  5
37F
 10
-9.52209
 20
2.90519
 30
0.000000
  70
    32
  0
VERTEX
  8
0
  5
380
 10
-9.52151
 20
2.90478
 30
0.000000
  70
    32
  0
VERTEX
  8
0
  5
381
 10
-9.52092
 20
2.90437
 30
0.000000
  70
    32
  0
VERTEX
  8
0
  5
382
 10
-9.52034
 20
2.90398
 30
0.000000
  70
    32
  0
SEQEND
  8
0
  5
383
  0
CIRCLE
  5
7A
  8
0
 10
0.0
 20
-1.161385252289278
 30
0.0
 40
0.875
  0
CIRCLE
  5
7B
  8
0
 10
0.0
 20
-1.161385252289278
 30
0.0
 40
1.4750000000000001
  0
POLYLINE
  5
7F
  8
0
 10
-0.4400282021942985
 20
-6.5603900141439899
 30
0.0
 66
     1
 70
     8
  0
VERTEX
  8
0
  5
384
 10
-0.440028
 20
-6.56039
 30
0.000000
  70
    32
  0
VERTEX
  8
0
  5
385
 10
-0.439498
 20
-6.56795
 30
0.000000
  70
    32
  0
VERTEX
  8
0
  5
386
 10
-0.437909
 20
-6.57549
 30
0.000000
  70
    32
  0
VERTEX
  8
0
  5
387
 10
-0.435266
 20
-6.58300
 30
0.000000
  70
    32
  0
VERTEX
  8
0
  5
388
 10
-0.431573
 20
-6.59045
 30
0.000000
  70
    32
  0
VERTEX
  8
0
  5
389
 10
-0.426841
 20
-6.59783
 30
0.000000
  70
    32
  0
VERTEX
  8
0
  5
38A
 10
-0.421081
 20
-6.60512
 30
0.000000
  70
    32
  0
VERTEX
  8
0
  5
38B
 10
-0.414306
 20
-6.61231
 30
0.000000
  70
    32
  0
VERTEX
  8
0
  5
38C
 10
-0.406533
 20
-6.61936
 30
0.000000
  70
    32
  0
VERTEX
  8
0
  5
38D
 10
-0.397781
 20
-6.62628
 30
0.000000
  70
    32
  0
VERTEX
  8
0
  5
38E
 10
-0.388070
 20
-6.63303
 30
0.000000
  70
    32
  0
VERTEX
  8
0
  5
38F
 10
-0.377425
 20
-6.63961
 30
0.000000
  70
    32
  0
VERTEX
  8
0
  5
390
 10
-0.365870
 20
-6.64600
 30
0.000000
  70
    32
  0
VERTEX
  8
0
  5
391
 10
-0.353434
 20
-6.65219
 30
0.000000
  70
    32
  0
VERTEX
  8
0
  5
392
 10
-0.340146
 20
-6.65815
 30
0.000000
  70
    32
  0
VERTEX
  8
0
  5
393
 10
-0.326039
 20
-6.66388
 30
0.000000
  70
    32
  0
VERTEX
  8
0
  5
394
 10
-0.311147
 20
-6.66936
 30
0.000000
  70
    32
  0
VERTEX
  8
0
  5
395
 10
-0.295505
 20
-6.67457
 30
0.000000
  70
    32
  0
VERTEX
  8
0
  5
396
 10
-0.279151
 20
-6.67951
 30
0.000000
  70
    32
  0
VERTEX
  8
0
  5
397
 10
-0.262124
 20
-6.68417
 30
0.000000
  70
    32
  0
VERTEX
  8
0
  5
398
 10
-0.244467
 20
-6.68852
 30
0.000000
  70
    32
  0
VERTEX
  8
0
  5
399
 10
-0.226220
 20
-6.69257
 30
0.000000
  70
    32
  0
VERTEX
  8
0
  5
39A
 10
-0.207428
 20
-6.69630
 30
0.000000
  70
    32
  0
VERTEX
  8
0
  5
39B
 10
-0.188136
 20
-6.69970
 30
0.000000
  70
    32
  0
VERTEX
  8
0
  5
39C
 10
-0.168392
 20
-6.70276
 30
0.000000
  70
    32
  0
VERTEX
  8
0
  5
39D
 10
-0.148241
 20
-6.70548
 30
0.000000
  70
    32
  0
VERTEX
  8
0
  5
39E
 10
-0.127733
 20
-6.70786
 30
0.000000
  70
    32
  0
VERTEX
  8
0
  5
39F
 10
-0.106918
 20
-6.70987
 30
0.000000
  70
    32
  0
VERTEX
  8
0
  5
3A0
 10
-0.0858452
 20
-6.71153
 30
0.000000
  70
    32
  0
VERTEX
  8
0
  5
3A1
 10
-0.0645655
 20
-6.71282
 30
0.000000
  70
    32
  0
VERTEX
  8
0
  5
3A2
 10
-0.0431303
 20
-6.71375
 30
0.000000
  70
    32
  0
VERTEX
  8
0
  5
3A3
 10
-0.0215912
 20
-6.71431
 30
0.000000
  70
    32
  0
VERTEX
  8
0
  5
3A4
 10
-2.69440e-017
 20
-6.71449
 30
0.000000
  70
    32
  0
VERTEX
  8
0
  5
3A5
 10
0.0215912
 20
-6.71431
 30
0.000000
  70
    32
  0
VERTEX
  8
0
  5
3A6
 10
0.0431303
 20
-6.71375
 30
0.000000
  70
    32
  0
VERTEX
  8
0
  5
3A7
 10
0.0645655
 20
-6.71282
 30
0.000000
  70
    32
  0
VERTEX
  8
0
  5
3A8
 10
0.0858452
 20
-6.71153
 30
0.000000
  70
    32
  0
VERTEX
  8
0
  5
3A9
 10
0.106918
 20
-6.70987
 30
0.000000
  70
    32
  0
VERTEX
  8
0
  5
3AA
 10
0.127733
 20
-6.70786
 30
0.000000
  70
    32
  0
VERTEX
  8
0
  5
3AB
 10
0.148241
 20
-6.70548
 30
0.000000
  70
    32
  0
VERTEX
  8
0
  5
3AC
 10
0.168392
 20
-6.70276
 30
0.000000
  70
    32
  0
VERTEX
  8
0
  5
3AD
 10
0.188136
 20
-6.69970
 30
0.000000
  70
    32
  0
VERTEX
  8
0
  5
3AE
 10
0.207428
 20
-6.69630
 30
0.000000
  70
    32
  0
VERTEX
  8
0
  5
3AF
 10
0.226220
 20
-6.69257
 30
0.000000
  70
    32
  0
VERTEX
  8
0
  5
3B0
 10
0.244467
 20
-6.68852
 30
0.000000
  70
    32
  0
VERTEX
  8
0
  5
3B1
 10
0.262124
 20
-6.68417
 30
0.000000
  70
    32
  0
VERTEX
  8
0
  5
3B2
 10
0.279151
 20
-6.67951
 30
0.000000
  70
    32
  0
VERTEX
  8
0
  5
3B3
 10
0.295505
 20
-6.67457
 30
0.000000
  70
    32
  0
VERTEX
  8
0
  5
3B4
 10
0.311147
 20
-6.66936
 30
0.000000
  70
    32
  0
VERTEX
  8
0
  5
3B5
 10
0.326039
 20
-6.66388
 30
0.000000
  70
    32
  0
VERTEX
  8
0
  5
3B6
 10
0.340146
 20
-6.65815
 30
0.000000
  70
    32
  0
VERTEX
  8
0
  5
3B7
 10
0.353434
 20
-6.65219
 30
0.000000
  70
    32
  0
VERTEX
  8
0
  5
3B8
 10
0.365870
 20
-6.64600
 30
0.000000
  70
    32
  0
VERTEX
  8
0
  5
3B9
 10
0.377425
 20
-6.63961
 30
0.000000
  70
    32
  0
VERTEX
  8
0
  5
3BA
 10
0.388070
 20
-6.63303
 30
0.000000
  70
    32
  0
VERTEX
  8
0
  5
3BB
 10
0.397781
 20
-6.62628
 30
0.000000
  70
    32
  0
VERTEX
  8
0
  5
3BC
 10
0.406533
 20
-6.61936
 30
0.000000
  70
    32
  0
VERTEX
  8
0
  5
3BD
 10
0.414306
 20
-6.61231
 30
0.000000
  70
    32
  0
VERTEX
  8
0
  5
3BE
 10
0.421081
 20
-6.60512
 30
0.000000
  70
    32
  0
VERTEX
  8
0
  5
3BF
 10
0.426841
 20
-6.59783
 30
0.000000
  70
    32
  0
VERTEX
  8
0
  5
3C0
 10
0.431573
 20
-6.59045
 30
0.000000
  70
    32
  0
VERTEX
  8
0
  5
3C1
 10
0.435266
 20
-6.58300
 30
0.000000
  70
    32
  0
VERTEX
  8
0
  5
3C2
 10
0.437909
 20
-6.57549
 30
0.000000
  70
    32
  0
VERTEX
  8
0
  5
3C3
 10
0.439498
 20
-6.56795
 30
0.000000
  70
    32
  0
VERTEX
  8
0
  5
3C4
 10
0.440028
 20
-6.56039
 30
0.000000
  70
    32
  0
VERTEX
  8
0
  5
3C5
 10
0.439498
 20
-6.55283
 30
0.000000
  70
    32
  0
VERTEX
  8
0
  5
3C6
 10
0.437909
 20
-6.54529
 30
0.000000
  70
    32
  0
VERTEX
  8
0
  5
3C7
 10
0.435266
 20
-6.53778
 30
0.000000
  70
    32
  0
VERTEX
  8
0
  5
3C8
 10
0.431573
 20
-6.53033
 30
0.000000
  70
    32
  0
VERTEX
  8
0
  5
3C9
 10
0.426841
 20
-6.52295
 30
0.000000
  70
    32
  0
VERTEX
  8
0
  5
3CA
 10
0.421081
 20
-6.51566
 30
0.000000
  70
    32
  0
VERTEX
  8
0
  5
3CB
 10
0.414306
 20
-6.50847
 30
0.000000
  70
    32
  0
VERTEX
  8
0
  5
3CC
 10
0.406533
 20
-6.50142
 30
0.000000
  70
    32
  0
VERTEX
  8
0
  5
3CD
 10
0.397781
 20
-6.49450
 30
0.000000
  70
    32
  0
VERTEX
  8
0
  5
3CE
 10
0.388070
 20
-6.48775
 30
0.000000
  70
    32
  0
VERTEX
  8
0
  5
3CF
 10
0.377425
 20
-6.48117
 30
0.000000
  70
    32
  0
VERTEX
  8
0
  5
3D0
 10
0.365870
 20
-6.47478
 30
0.000000
  70
    32
  0
VERTEX
  8
0
  5
3D1
 10
0.353434
 20
-6.46859
 30
0.000000
  70
    32
  0
VERTEX
  8
0
  5
3D2
 10
0.340146
 20
-6.46263
 30
0.000000
  70
    32
  0
VERTEX
  8
0
  5
3D3
 10
0.326039
 20
-6.45690
 30
0.000000
  70
    32
  0
VERTEX
  8
0
  5
3D4
 10
0.311147
 20
-6.45142
 30
0.000000
  70
    32
  0
VERTEX
  8
0
  5
3D5
 10
0.295505
 20
-6.44621
 30
0.000000
  70
    32
  0
VERTEX
  8
0
  5
3D6
 10
0.279151
 20
-6.44127
 30
0.000000
  70
    32
  0
VERTEX
  8
0
  5
3D7
 10
0.262124
 20
-6.43661
 30
0.000000
  70
    32
  0
VERTEX
  8
0
  5
3D8
 10
0.244467
 20
-6.43226
 30
0.000000
  70
    32
  0
VERTEX
  8
0
  5
3D9
 10
0.226220
 20
-6.42821
 30
0.000000
  70
    32
  0
VERTEX
  8
0
  5
3DA
 10
0.207428
 20
-6.42448
 30
0.000000
  70
    32
  0
VERTEX
  8
0
  5
3DB
 10
0.188136
 20
-6.42108
 30
0.000000
  70
    32
  0
VERTEX
  8
0
  5
3DC
 10
0.168392
 20
-6.41802
 30
0.000000
  70
    32
  0
VERTEX
  8
0
  5
3DD
 10
0.148241
 20
-6.41530
 30
0.000000
  70
    32
  0
VERTEX
  8
0
  5
3DE
 10
0.127733
 20
-6.41292
 30
0.000000
  70
    32
  0
VERTEX
  8
0
  5
3DF
 10
0.106918
 20
-6.41091
 30
0.000000
  70
    32
  0
VERTEX
  8
0
  5
3E0
 10
0.0858452
 20
-6.40925
 30
0.000000
  70
    32
  0
VERTEX
  8
0
  5
3E1
 10
0.0645655
 20
-6.40796
 30
0.000000
  70
    32
  0
VERTEX
  8
0
  5
3E2
 10
0.0431303
 20
-6.40703
 30
0.000000
  70
    32
  0
VERTEX
  8
0
  5
3E3
 10
0.0215912
 20
-6.40647
 30
0.000000
  70
    32
  0
VERTEX
  8
0
  5
3E4
 10
8.08319e-017
 20
-6.40629
 30
0.000000
  70
    32
  0
VERTEX
  8
0
  5
3E5
 10
-0.0215912
 20
-6.40647
 30
0.000000
  70
    32
  0
VERTEX
  8
0
  5
3E6
 10
-0.0431303
 20
-6.40703
 30
0.000000
  70
    32
  0
VERTEX
  8
0
  5
3E7
 10
-0.0645655
 20
-6.40796
 30
0.000000
  70
    32
  0
VERTEX
  8
0
  5
3E8
 10
-0.0858452
 20
-6.40925
 30
0.000000
  70
    32
  0
VERTEX
  8
0
  5
3E9
 10
-0.106918
 20
-6.41091
 30
0.000000
  70
    32
  0
VERTEX
  8
0
  5
3EA
 10
-0.127733
 20
-6.41292
 30
0.000000
  70
    32
  0
VERTEX
  8
0
  5
3EB
 10
-0.148241
 20
-6.41530
 30
0.000000
  70
    32
  0
VERTEX
  8
0
  5
3EC
 10
-0.168392
 20
-6.41802
 30
0.000000
  70
    32
  0
VERTEX
  8
0
  5
3ED
 10
-0.188136
 20
-6.42108
 30
0.000000
  70
    32
  0
VERTEX
  8
0
  5
3EE
 10
-0.207428
 20
-6.42448
 30
0.000000
  70
    32
  0
VERTEX
  8
0
  5
3EF
 10
-0.226220
 20
-6.42821
 30
0.000000
  70
    32
  0
VERTEX
  8
0
  5
3F0
 10
-0.244467
 20
-6.43226
 30
0.000000
  70
    32
  0
VERTEX
  8
0
  5
3F1
 10
-0.262124
 20
-6.43661
 30
0.000000
  70
    32
  0
VERTEX
  8
0
  5
3F2
 10
-0.279151
 20
-6.44127
 30
0.000000
  70
    32
  0
VERTEX
  8
0
  5
3F3
 10
-0.295505
 20
-6.44621
 30
0.000000
  70
    32
  0
VERTEX
  8
0
  5
3F4
 10
-0.311147
 20
-6.45142
 30
0.000000
  70
    32
  0
VERTEX
  8
0
  5
3F5
 10
-0.326039
 20
-6.45690
 30
0.000000
  70
    32
  0
VERTEX
  8
0
  5
3F6
 10
-0.340146
 20
-6.46263
 30
0.000000
  70
    32
  0
VERTEX
  8
0
  5
3F7
 10
-0.353434
 20
-6.46859
 30
0.000000
  70
    32
  0
VERTEX
  8
0
  5
3F8
 10
-0.365870
 20
-6.47478
 30
0.000000
  70
    32
  0
VERTEX
  8
0
  5
3F9
 10
-0.377425
 20
-6.48117
 30
0.000000
  70
    32
  0
VERTEX
  8
0
  5
3FA
 10
-0.388070
 20
-6.48775
 30
0.000000
  70
    32
  0
VERTEX
  8
0
  5
3FB
 10
-0.397781
 20
-6.49450
 30
0.000000
  70
    32
  0
VERTEX
  8
0
  5
3FC
 10
-0.406533
 20
-6.50142
 30
0.000000
  70
    32
  0
VERTEX
  8
0
  5
3FD
 10
-0.414306
 20
-6.50847
 30
0.000000
  70
    32
  0
VERTEX
  8
0
  5
3FE
 10
-0.421081
 20
-6.51566
 30
0.000000
  70
    32
  0
VERTEX
  8
0
  5
3FF
 10
-0.426841
 20
-6.52295
 30
0.000000
  70
    32
  0
VERTEX
  8
0
  5
400
 10
-0.431573
 20
-6.53033
 30
0.000000
  70
    32
  0
VERTEX
  8
0
  5
401
 10
-0.435266
 20
-6.53778
 30
0.000000
  70
    32
  0
VERTEX
  8
0
  5
402
 10
-0.437909
 20
-6.54529
 30
0.000000
  70
    32
  0
VERTEX
  8
0
  5
403
 10
-0.439498
 20
-6.55283
 30
0.000000
  70
    32
  0
VERTEX
  8
0
  5
404
 10
-0.440028
 20
-6.56039
 30
0.000000
  70
    32
  0
SEQEND
  8
0
  5
405
  0
POLYLINE
  5
80
  8
0
 66
     1
 10
0.0
 20
0.0
 30
0.0
  0
VERTEX
  5
81
  8
0
 10
8.0617281386867035
 20
-4.8964234512958447
 30
0.0
  0
VERTEX
  5
82
  8
0
 10
9.4802451821197167
 20
-6.8454637120371444
 30
0.0
  0
SEQEND
  5
83
  8
0
  0
POLYLINE
  5
84
  8
0
 66
     1
 10
0.0
 20
0.0
 30
0.0
  0
VERTEX
  5
85
  8
0
 10
8.1088799997132792
 20
2.3748457749203449
 30
0.0
  0
VERTEX
  5
86
  8
0
 10
9.4437047973115114
 20
3.0761773632679019
 30
0.0
  0
SEQEND
  5
87
  8
0
  0
POLYLINE
  8
0
  5
406
  66
     1
 10
0.000000
 20
0.000000
 30
0.000000
  70
     8
  0
VERTEX
  8
0
  5
407
 10
9.59069
 20
3.02207
 30
0.000000
  70
    32
  0
VERTEX
  8
0
  5
408
 10
9.59123
 20
3.02374
 30
0.000000
  70
    32
  0
VERTEX
  8
0
  5
409
 10
9.59177
 20
3.02541
 30
0.000000
  70
    32
  0
VERTEX
  8
0
  5
40A
 10
9.59230
 20
3.02707
 30
0.000000
  70
    32
  0
VERTEX
  8
0
  5
40B
 10
9.59284
 20
3.02874
 30
0.000000
  70
    32
  0
VERTEX
  8
0
  5
40C
 10
9.59336
 20
3.03041
 30
0.000000
  70
    32
  0
VERTEX
  8
0
  5
40D
 10
9.59389
 20
3.03208
 30
0.000000
  70
    32
  0
VERTEX
  8
0
  5
40E
 10
9.59441
 20
3.03375
 30
0.000000
  70
    32
  0
VERTEX
  8
0
  5
40F
 10
9.59493
 20
3.03542
 30
0.000000
  70
    32
  0
VERTEX
  8
0
  5
410
 10
9.59544
 20
3.03710
 30
0.000000
  70
    32
  0
VERTEX
  8
0
  5
411
 10
9.59595
 20
3.03877
 30
0.000000
  70
    32
  0
VERTEX
  8
0
  5
412
 10
9.59646
 20
3.04044
 30
0.000000
  70
    32
  0
VERTEX
  8
0
  5
413
 10
9.59696
 20
3.04212
 30
0.000000
  70
    32
  0
VERTEX
  8
0
  5
414
 10
9.59746
 20
3.04379
 30
0.000000
  70
    32
  0
VERTEX
  8
0
  5
415
 10
9.59796
 20
3.04547
 30
0.000000
  70
    32
  0
VERTEX
  8
0
  5
416
 10
9.59845
 20
3.04714
 30
0.000000
  70
    32
  0
VERTEX
  8
0
  5
417
 10
9.59894
 20
3.04882
 30
0.000000
  70
    32
  0
VERTEX
  8
0
  5
418
 10
9.59943
 20
3.05050
 30
0.000000
  70
    32
  0
VERTEX
  8
0
  5
419
 10
9.59991
 20
3.05218
 30
0.000000
  70
    32
  0
VERTEX
  8
0
  5
41A
 10
9.60039
 20
3.05386
 30
0.000000
  70
    32
  0
VERTEX
  8
0
  5
41B
 10
9.60087
 20
3.05554
 30
0.000000
  70
    32
  0
VERTEX
  8
0
  5
41C
 10
9.60134
 20
3.05722
 30
0.000000
  70
    32
  0
VERTEX
  8
0
  5
41D
 10
9.60181
 20
3.05890
 30
0.000000
  70
    32
  0
VERTEX
  8
0
  5
41E
 10
9.60228
 20
3.06058
 30
0.000000
  70
    32
  0
VERTEX
  8
0
  5
41F
 10
9.60275
 20
3.06226
 30
0.000000
  70
    32
  0
VERTEX
  8
0
  5
420
 10
9.60321
 20
3.06394
 30
0.000000
  70
    32
  0
VERTEX
  8
0
  5
421
 10
9.60366
 20
3.06563
 30
0.000000
  70
    32
  0
VERTEX
  8
0
  5
422
 10
9.60412
 20
3.06731
 30
0.000000
  70
    32
  0
VERTEX
  8
0
  5
423
 10
9.60457
 20
3.06900
 30
0.000000
  70
    32
  0
VERTEX
  8
0
  5
424
 10
9.60502
 20
3.07068
 30
0.000000
  70
    32
  0
VERTEX
  8
0
  5
425
 10
9.60546
 20
3.07237
 30
0.000000
  70
    32
  0
VERTEX
  8
0
  5
426
 10
9.60590
 20
3.07406
 30
0.000000
  70
    32
  0
VERTEX
  8
0
  5
427
 10
9.60634
 20
3.07575
 30
0.000000
  70
    32
  0
VERTEX
  8
0
  5
428
 10
9.60678
 20
3.07743
 30
0.000000
  70
    32
  0
VERTEX
  8
0
  5
429
 10
9.60721
 20
3.07912
 30
0.000000
  70
    32
  0
VERTEX
  8
0
  5
42A
 10
9.60764
 20
3.08081
 30
0.000000
  70
    32
  0
VERTEX
  8
0
  5
42B
 10
9.60807
 20
3.08250
 30
0.000000
  70
    32
  0
VERTEX
  8
0
  5
42C
 10
9.60849
 20
3.08420
 30
0.000000
  70
    32
  0
VERTEX
  8
0
  5
42D
 10
9.60891
 20
3.08589
 30
0.000000
  70
    32
  0
VERTEX
  8
0
  5
42E
 10
9.60933
 20
3.08758
 30
0.000000
  70
    32
  0
VERTEX
  8
0
  5
42F
 10
9.60975
 20
3.08927
 30
0.000000
  70
    32
  0
VERTEX
  8
0
  5
430
 10
9.61016
 20
3.09097
 30
0.000000
  70
    32
  0
VERTEX
  8
0
  5
431
 10
9.61057
 20
3.09266
 30
0.000000
  70
    32
  0
VERTEX
  8
0
  5
432
 10
9.61098
 20
3.09436
 30
0.000000
  70
    32
  0
VERTEX
  8
0
  5
433
 10
9.61138
 20
3.09605
 30
0.000000
  70
    32
  0
VERTEX
  8
0
  5
434
 10
9.61178
 20
3.09775
 30
0.000000
  70
    32
  0
VERTEX
  8
0
  5
435
 10
9.61218
 20
3.09944
 30
0.000000
  70
    32
  0
VERTEX
  8
0
  5
436
 10
9.61257
 20
3.10114
 30
0.000000
  70
    32
  0
VERTEX
  8
0
  5
437
 10
9.61296
 20
3.10284
 30
0.000000
  70
    32
  0
VERTEX
  8
0
  5
438
 10
9.61335
 20
3.10454
 30
0.000000
  70
    32
  0
VERTEX
  8
0
  5
439
 10
9.61374
 20
3.10624
 30
0.000000
  70
    32
  0
VERTEX
  8
0
  5
43A
 10
9.61413
 20
3.10794
 30
0.000000
  70
    32
  0
VERTEX
  8
0
  5
43B
 10
9.61451
 20
3.10964
 30
0.000000
  70
    32
  0
VERTEX
  8
0
  5
43C
 10
9.61489
 20
3.11134
 30
0.000000
  70
    32
  0
VERTEX
  8
0
  5
43D
 10
9.61526
 20
3.11304
 30
0.000000
  70
    32
  0
VERTEX
  8
0
  5
43E
 10
9.61563
 20
3.11474
 30
0.000000
  70
    32
  0
VERTEX
  8
0
  5
43F
 10
9.61601
 20
3.11644
 30
0.000000
  70
    32
  0
VERTEX
  8
0
  5
440
 10
9.61637
 20
3.11815
 30
0.000000
  70
    32
  0
VERTEX
  8
0
  5
441
 10
9.61674
 20
3.11985
 30
0.000000
  70
    32
  0
VERTEX
  8
0
  5
442
 10
9.61710
 20
3.12156
 30
0.000000
  70
    32
  0
VERTEX
  8
0
  5
443
 10
9.61746
 20
3.12326
 30
0.000000
  70
    32
  0
VERTEX
  8
0
  5
444
 10
9.61782
 20
3.12497
 30
0.000000
  70
    32
  0
VERTEX
  8
0
  5
445
 10
9.61817
 20
3.12667
 30
0.000000
  70
    32
  0
VERTEX
  8
0
  5
446
 10
9.61853
 20
3.12838
 30
0.000000
  70
    32
  0
VERTEX
  8
0
  5
447
 10
9.61888
 20
3.13009
 30
0.000000
  70
    32
  0
VERTEX
  8
0
  5
448
 10
9.61923
 20
3.13180
 30
0.000000
  70
    32
  0
VERTEX
  8
0
  5
449
 10
9.61957
 20
3.13350
 30
0.000000
  70
    32
  0
VERTEX
  8
0
  5
44A
 10
9.61991
 20
3.13521
 30
0.000000
  70
    32
  0
VERTEX
  8
0
  5
44B
 10
9.62025
 20
3.13692
 30
0.000000
  70
    32
  0
VERTEX
  8
0
  5
44C
 10
9.62059
 20
3.13863
 30
0.000000
  70
    32
  0
VERTEX
  8
0
  5
44D
 10
9.62093
 20
3.14034
 30
0.000000
  70
    32
  0
VERTEX
  8
0
  5
44E
 10
9.62126
 20
3.14205
 30
0.000000
  70
    32
  0
VERTEX
  8
0
  5
44F
 10
9.62159
 20
3.14377
 30
0.000000
  70
    32
  0
VERTEX
  8
0
  5
450
 10
9.62192
 20
3.14548
 30
0.000000
  70
    32
  0
VERTEX
  8
0
  5
451
 10
9.62225
 20
3.14719
 30
0.000000
  70
    32
  0
VERTEX
  8
0
  5
452
 10
9.62257
 20
3.14890
 30
0.000000
  70
    32
  0
VERTEX
  8
0
  5
453
 10
9.62289
 20
3.15062
 30
0.000000
  70
    32
  0
VERTEX
  8
0
  5
454
 10
9.62321
 20
3.15233
 30
0.000000
  70
    32
  0
VERTEX
  8
0
  5
455
 10
9.62353
 20
3.15405
 30
0.000000
  70
    32
  0
VERTEX
  8
0
  5
456
 10
9.62384
 20
3.15576
 30
0.000000
  70
    32
  0
VERTEX
  8
0
  5
457
 10
9.62415
 20
3.15748
 30
0.000000
  70
    32
  0
VERTEX
  8
0
  5
458
 10
9.62446
 20
3.15920
 30
0.000000
  70
    32
  0
VERTEX
  8
0
  5
459
 10
9.62477
 20
3.16091
 30
0.000000
  70
    32
  0
VERTEX
  8
0
  5
45A
 10
9.62508
 20
3.16263
 30
0.000000
  70
    32
  0
VERTEX
  8
0
  5
45B
 10
9.62538
 20
3.16435
 30
0.000000
  70
    32
  0
VERTEX
  8
0
  5
45C
 10
9.62568
 20
3.16607
 30
0.000000
  70
    32
  0
VERTEX
  8
0
  5
45D
 10
9.62598
 20
3.16779
 30
0.000000
  70
    32
  0
VERTEX
  8
0
  5
45E
 10
9.62628
 20
3.16950
 30
0.000000
  70
    32
  0
VERTEX
  8
0
  5
45F
 10
9.62658
 20
3.17122
 30
0.000000
  70
    32
  0
VERTEX
  8
0
  5
460
 10
9.62687
 20
3.17294
 30
0.000000
  70
    32
  0
VERTEX
  8
0
  5
461
 10
9.62716
 20
3.17467
 30
0.000000
  70
    32
  0
VERTEX
  8
0
  5
462
 10
9.62745
 20
3.17639
 30
0.000000
  70
    32
  0
VERTEX
  8
0
  5
463
 10
9.62774
 20
3.17811
 30
0.000000
  70
    32
  0
VERTEX
  8
0
  5
464
 10
9.62802
 20
3.17983
 30
0.000000
  70
    32
  0
VERTEX
  8
0
  5
465
 10
9.62831
 20
3.18155
 30
0.000000
  70
    32
  0
VERTEX
  8
0
  5
466
 10
9.62859
 20
3.18328
 30
0.000000
  70
    32
  0
VERTEX
  8
0
  5
467
 10
9.62887
 20
3.18500
 30
0.000000
  70
    32
  0
VERTEX
  8
0
  5
468
 10
9.62915
 20
3.18673
 30
0.000000
  70
    32
  0
VERTEX
  8
0
  5
469
 10
9.62942
 20
3.18845
 30
0.000000
  70
    32
  0
VERTEX
  8
0
  5
46A
 10
9.62969
 20
3.19018
 30
0.000000
  70
    32
  0
VERTEX
  8
0
  5
46B
 10
9.62997
 20
3.19190
 30
0.000000
  70
    32
  0
VERTEX
  8
0
  5
46C
 10
9.63024
 20
3.19363
 30
0.000000
  70
    32
  0
VERTEX
  8
0
  5
46D
 10
9.63051
 20
3.19535
 30
0.000000
  70
    32
  0
VERTEX
  8
0
  5
46E
 10
9.63077
 20
3.19708
 30
0.000000
  70
    32
  0
VERTEX
  8
0
  5
46F
 10
9.63104
 20
3.19881
 30
0.000000
  70
    32
  0
VERTEX
  8
0
  5
470
 10
9.63130
 20
3.20054
 30
0.000000
  70
    32
  0
VERTEX
  8
0
  5
471
 10
9.63156
 20
3.20226
 30
0.000000
  70
    32
  0
VERTEX
  8
0
  5
472
 10
9.63182
 20
3.20399
 30
0.000000
  70
    32
  0
VERTEX
  8
0
  5
473
 10
9.63208
 20
3.20572
 30
0.000000
  70
    32
  0
VERTEX
  8
0
  5
474
 10
9.63233
 20
3.20745
 30
0.000000
  70
    32
  0
VERTEX
  8
0
  5
475
 10
9.63259
 20
3.20918
 30
0.000000
  70
    32
  0
VERTEX
  8
0
  5
476
 10
9.63284
 20
3.21091
 30
0.000000
  70
    32
  0
VERTEX
  8
0
  5
477
 10
9.63309
 20
3.21264
 30
0.000000
  70
    32
  0
VERTEX
  8
0
  5
478
 10
9.63334
 20
3.21437
 30
0.000000
  70
    32
  0
VERTEX
  8
0
  5
479
 10
9.63359
 20
3.21611
 30
0.000000
  70
    32
  0
VERTEX
  8
0
  5
47A
 10
9.63383
 20
3.21784
 30
0.000000
  70
    32
  0
VERTEX
  8
0
  5
47B
 10
9.63408
 20
3.21957
 30
0.000000
  70
    32
  0
VERTEX
  8
0
  5
47C
 10
9.63432
 20
3.22130
 30
0.000000
  70
    32
  0
VERTEX
  8
0
  5
47D
 10
9.63456
 20
3.22304
 30
0.000000
  70
    32
  0
VERTEX
  8
0
  5
47E
 10
9.63480
 20
3.22477
 30
0.000000
  70
    32
  0
VERTEX
  8
0
  5
47F
 10
9.63504
 20
3.22650
 30
0.000000
  70
    32
  0
VERTEX
  8
0
  5
480
 10
9.63528
 20
3.22824
 30
0.000000
  70
    32
  0
VERTEX
  8
0
  5
481
 10
9.63551
 20
3.22997
 30
0.000000
  70
    32
  0
VERTEX
  8
0
  5
482
 10
9.63575
 20
3.23171
 30
0.000000
  70
    32
  0
VERTEX
  8
0
  5
483
 10
9.63598
 20
3.23345
 30
0.000000
  70
    32
  0
VERTEX
  8
0
  5
484
 10
9.63621
 20
3.23518
 30
0.000000
  70
    32
  0
VERTEX
  8
0
  5
485
 10
9.63644
 20
3.23692
 30
0.000000
  70
    32
  0
VERTEX
  8
0
  5
486
 10
9.63667
 20
3.23865
 30
0.000000
  70
    32
  0
SEQEND
  8
0
  5
487
  0
POLYLINE
  8
0
  5
488
  66
     1
 10
0.000000
 20
0.000000
 30
0.000000
  70
     8
  0
VERTEX
  8
0
  5
489
 10
9.59069
 20
3.02224
 30
0.000000
  70
    32
  0
VERTEX
  8
0
  5
48A
 10
9.59019
 20
3.02077
 30
0.000000
  70
    32
  0
VERTEX
  8
0
  5
48B
 10
9.58969
 20
3.01931
 30
0.000000
  70
    32
  0
VERTEX
  8
0
  5
48C
 10
9.58919
 20
3.01786
 30
0.000000
  70
    32
  0
VERTEX
  8
0
  5
48D
 10
9.58868
 20
3.01641
 30
0.000000
  70
    32
  0
VERTEX
  8
0
  5
48E
 10
9.58818
 20
3.01497
 30
0.000000
  70
    32
  0
VERTEX
  8
0
  5
48F
 10
9.58767
 20
3.01355
 30
0.000000
  70
    32
  0
VERTEX
  8
0
  5
490
 10
9.58717
 20
3.01213
 30
0.000000
  70
    32
  0
VERTEX
  8
0
  5
491
 10
9.58666
 20
3.01072
 30
0.000000
  70
    32
  0
VERTEX
  8
0
  5
492
 10
9.58615
 20
3.00932
 30
0.000000
  70
    32
  0
VERTEX
  8
0
  5
493
 10
9.58564
 20
3.00792
 30
0.000000
  70
    32
  0
VERTEX
  8
0
  5
494
 10
9.58513
 20
3.00654
 30
0.000000
  70
    32
  0
VERTEX
  8
0
  5
495
 10
9.58461
 20
3.00516
 30
0.000000
  70
    32
  0
VERTEX
  8
0
  5
496
 10
9.58410
 20
3.00380
 30
0.000000
  70
    32
  0
VERTEX
  8
0
  5
497
 10
9.58359
 20
3.00244
 30
0.000000
  70
    32
  0
VERTEX
  8
0
  5
498
 10
9.58307
 20
3.00109
 30
0.000000
  70
    32
  0
VERTEX
  8
0
  5
499
 10
9.58255
 20
2.99975
 30
0.000000
  70
    32
  0
VERTEX
  8
0
  5
49A
 10
9.58203
 20
2.99841
 30
0.000000
  70
    32
  0
VERTEX
  8
0
  5
49B
 10
9.58151
 20
2.99709
 30
0.000000
  70
    32
  0
VERTEX
  8
0
  5
49C
 10
9.58099
 20
2.99577
 30
0.000000
  70
    32
  0
VERTEX
  8
0
  5
49D
 10
9.58047
 20
2.99447
 30
0.000000
  70
    32
  0
VERTEX
  8
0
  5
49E
 10
9.57995
 20
2.99317
 30
0.000000
  70
    32
  0
VERTEX
  8
0
  5
49F
 10
9.57943
 20
2.99188
 30
0.000000
  70
    32
  0
VERTEX
  8
0
  5
4A0
 10
9.57890
 20
2.99060
 30
0.000000
  70
    32
  0
VERTEX
  8
0
  5
4A1
 10
9.57837
 20
2.98933
 30
0.000000
  70
    32
  0
VERTEX
  8
0
  5
4A2
 10
9.57785
 20
2.98806
 30
0.000000
  70
    32
  0
VERTEX
  8
0
  5
4A3
 10
9.57732
 20
2.98681
 30
0.000000
  70
    32
  0
VERTEX
  8
0
  5
4A4
 10
9.57679
 20
2.98556
 30
0.000000
  70
    32
  0
VERTEX
  8
0
  5
4A5
 10
9.57626
 20
2.98432
 30
0.000000
  70
    32
  0
VERTEX
  8
0
  5
4A6
 10
9.57573
 20
2.98309
 30
0.000000
  70
    32
  0
VERTEX
  8
0
  5
4A7
 10
9.57520
 20
2.98187
 30
0.000000
  70
    32
  0
VERTEX
  8
0
  5
4A8
 10
9.57467
 20
2.98066
 30
0.000000
  70
    32
  0
VERTEX
  8
0
  5
4A9
 10
9.57413
 20
2.97946
 30
0.000000
  70
    32
  0
VERTEX
  8
0
  5
4AA
 10
9.57360
 20
2.97826
 30
0.000000
  70
    32
  0
VERTEX
  8
0
  5
4AB
 10
9.57306
 20
2.97707
 30
0.000000
  70
    32
  0
VERTEX
  8
0
  5
4AC
 10
9.57252
 20
2.97590
 30
0.000000
  70
    32
  0
VERTEX
  8
0
  5
4AD
 10
9.57199
 20
2.97473
 30
0.000000
  70
    32
  0
VERTEX
  8
0
  5
4AE
 10
9.57145
 20
2.97357
 30
0.000000
  70
    32
  0
VERTEX
  8
0
  5
4AF
 10
9.57091
 20
2.97241
 30
0.000000
  70
    32
  0
VERTEX
  8
0
  5
4B0
 10
9.57037
 20
2.97127
 30
0.000000
  70
    32
  0
VERTEX
  8
0
  5
4B1
 10
9.56983
 20
2.97013
 30
0.000000
  70
    32
  0
VERTEX
  8
0
  5
4B2
 10
9.56928
 20
2.96901
 30
0.000000
  70
    32
  0
VERTEX
  8
0
  5
4B3
 10
9.56874
 20
2.96789
 30
0.000000
  70
    32
  0
VERTEX
  8
0
  5
4B4
 10
9.56820
 20
2.96678
 30
0.000000
  70
    32
  0
VERTEX
  8
0
  5
4B5
 10
9.56765
 20
2.96568
 30
0.000000
  70
    32
  0
VERTEX
  8
0
  5
4B6
 10
9.56711
 20
2.96459
 30
0.000000
  70
    32
  0
VERTEX
  8
0
  5
4B7
 10
9.56656
 20
2.96350
 30
0.000000
  70
    32
  0
VERTEX
  8
0
  5
4B8
 10
9.56601
 20
2.96243
 30
0.000000
  70
    32
  0
VERTEX
  8
0
  5
4B9
 10
9.56546
 20
2.96136
 30
0.000000
  70
    32
  0
VERTEX
  8
0
  5
4BA
 10
9.56491
 20
2.96030
 30
0.000000
  70
    32
  0
VERTEX
  8
0
  5
4BB
 10
9.56436
 20
2.95925
 30
0.000000
  70
    32
  0
VERTEX
  8
0
  5
4BC
 10
9.56381
 20
2.95821
 30
0.000000
  70
    32
  0
VERTEX
  8
0
  5
4BD
 10
9.56326
 20
2.95718
 30
0.000000
  70
    32
  0
VERTEX
  8
0
  5
4BE
 10
9.56271
 20
2.95616
 30
0.000000
  70
    32
  0
VERTEX
  8
0
  5
4BF
 10
9.56216
 20
2.95514
 30
0.000000
  70
    32
  0
VERTEX
  8
0
  5
4C0
 10
9.56160
 20
2.95414
 30
0.000000
  70
    32
  0
VERTEX
  8
0
  5
4C1
 10
9.56105
 20
2.95314
 30
0.000000
  70
    32
  0
VERTEX
  8
0
  5
4C2
 10
9.56049
 20
2.95215
 30
0.000000
  70
    32
  0
VERTEX
  8
0
  5
4C3
 10
9.55994
 20
2.95117
 30
0.000000
  70
    32
  0
VERTEX
  8
0
  5
4C4
 10
9.55938
 20
2.95019
 30
0.000000
  70
    32
  0
VERTEX
  8
0
  5
4C5
 10
9.55882
 20
2.94923
 30
0.000000
  70
    32
  0
VERTEX
  8
0
  5
4C6
 10
9.55826
 20
2.94827
 30
0.000000
  70
    32
  0
VERTEX
  8
0
  5
4C7
 10
9.55771
 20
2.94733
 30
0.000000
  70
    32
  0
VERTEX
  8
0
  5
4C8
 10
9.55715
 20
2.94639
 30
0.000000
  70
    32
  0
VERTEX
  8
0
  5
4C9
 10
9.55659
 20
2.94546
 30
0.000000
  70
    32
  0
VERTEX
  8
0
  5
4CA
 10
9.55603
 20
2.94454
 30
0.000000
  70
    32
  0
VERTEX
  8
0
  5
4CB
 10
9.55546
 20
2.94362
 30
0.000000
  70
    32
  0
VERTEX
  8
0
  5
4CC
 10
9.55490
 20
2.94272
 30
0.000000
  70
    32
  0
VERTEX
  8
0
  5
4CD
 10
9.55434
 20
2.94182
 30
0.000000
  70
    32
  0
VERTEX
  8
0
  5
4CE
 10
9.55378
 20
2.94094
 30
0.000000
  70
    32
  0
VERTEX
  8
0
  5
4CF
 10
9.55321
 20
2.94006
 30
0.000000
  70
    32
  0
VERTEX
  8
0
  5
4D0
 10
9.55265
 20
2.93919
 30
0.000000
  70
    32
  0
VERTEX
  8
0
  5
4D1
 10
9.55208
 20
2.93832
 30
0.000000
  70
    32
  0
VERTEX
  8
0
  5
4D2
 10
9.55152
 20
2.93747
 30
0.000000
  70
    32
  0
VERTEX
  8
0
  5
4D3
 10
9.55095
 20
2.93663
 30
0.000000
  70
    32
  0
VERTEX
  8
0
  5
4D4
 10
9.55038
 20
2.93579
 30
0.000000
  70
    32
  0
VERTEX
  8
0
  5
4D5
 10
9.54981
 20
2.93496
 30
0.000000
  70
    32
  0
VERTEX
  8
0
  5
4D6
 10
9.54925
 20
2.93414
 30
0.000000
  70
    32
  0
VERTEX
  8
0
  5
4D7
 10
9.54868
 20
2.93333
 30
0.000000
  70
    32
  0
VERTEX
  8
0
  5
4D8
 10
9.54811
 20
2.93253
 30
0.000000
  70
    32
  0
VERTEX
  8
0
  5
4D9
 10
9.54754
 20
2.93174
 30
0.000000
  70
    32
  0
VERTEX
  8
0
  5
4DA
 10
9.54697
 20
2.93095
 30
0.000000
  70
    32
  0
VERTEX
  8
0
  5
4DB
 10
9.54640
 20
2.93017
 30
0.000000
  70
    32
  0
VERTEX
  8
0
  5
4DC
 10
9.54583
 20
2.92940
 30
0.000000
  70
    32
  0
VERTEX
  8
0
  5
4DD
 10
9.54525
 20
2.92865
 30
0.000000
  70
    32
  0
VERTEX
  8
0
  5
4DE
 10
9.54468
 20
2.92789
 30
0.000000
  70
    32
  0
VERTEX
  8
0
  5
4DF
 10
9.54411
 20
2.92715
 30
0.000000
  70
    32
  0
VERTEX
  8
0
  5
4E0
 10
9.54354
 20
2.92642
 30
0.000000
  70
    32
  0
VERTEX
  8
0
  5
4E1
 10
9.54296
 20
2.92569
 30
0.000000
  70
    32
  0
VERTEX
  8
0
  5
4E2
 10
9.54239
 20
2.92497
 30
0.000000
  70
    32
  0
VERTEX
  8
0
  5
4E3
 10
9.54181
 20
2.92426
 30
0.000000
  70
    32
  0
VERTEX
  8
0
  5
4E4
 10
9.54124
 20
2.92356
 30
0.000000
  70
    32
  0
VERTEX
  8
0
  5
4E5
 10
9.54066
 20
2.92287
 30
0.000000
  70
    32
  0
VERTEX
  8
0
  5
4E6
 10
9.54009
 20
2.92219
 30
0.000000
  70
    32
  0
VERTEX
  8
0
  5
4E7
 10
9.53951
 20
2.92151
 30
0.000000
  70
    32
  0
VERTEX
  8
0
  5
4E8
 10
9.53894
 20
2.92085
 30
0.000000
  70
    32
  0
VERTEX
  8
0
  5
4E9
 10
9.53836
 20
2.92019
 30
0.000000
  70
    32
  0
VERTEX
  8
0
  5
4EA
 10
9.53778
 20
2.91954
 30
0.000000
  70
    32
  0
VERTEX
  8
0
  5
4EB
 10
9.53720
 20
2.91890
 30
0.000000
  70
    32
  0
VERTEX
  8
0
  5
4EC
 10
9.53663
 20
2.91826
 30
0.000000
  70
    32
  0
VERTEX
  8
0
  5
4ED
 10
9.53605
 20
2.91764
 30
0.000000
  70
    32
  0
VERTEX
  8
0
  5
4EE
 10
9.53547
 20
2.91702
 30
0.000000
  70
    32
  0
VERTEX
  8
0
  5
4EF
 10
9.53489
 20
2.91642
 30
0.000000
  70
    32
  0
VERTEX
  8
0
  5
4F0
 10
9.53431
 20
2.91582
 30
0.000000
  70
    32
  0
VERTEX
  8
0
  5
4F1
 10
9.53373
 20
2.91523
 30
0.000000
  70
    32
  0
VERTEX
  8
0
  5
4F2
 10
9.53315
 20
2.91465
 30
0.000000
  70
    32
  0
VERTEX
  8
0
  5
4F3
 10
9.53257
 20
2.91407
 30
0.000000
  70
    32
  0
VERTEX
  8
0
  5
4F4
 10
9.53199
 20
2.91351
 30
0.000000
  70
    32
  0
VERTEX
  8
0
  5
4F5
 10
9.53141
 20
2.91295
 30
0.000000
  70
    32
  0
VERTEX
  8
0
  5
4F6
 10
9.53083
 20
2.91240
 30
0.000000
  70
    32
  0
VERTEX
  8
0
  5
4F7
 10
9.53025
 20
2.91186
 30
0.000000
  70
    32
  0
VERTEX
  8
0
  5
4F8
 10
9.52967
 20
2.91133
 30
0.000000
  70
    32
  0
VERTEX
  8
0
  5
4F9
 10
9.52908
 20
2.91081
 30
0.000000
  70
    32
  0
VERTEX
  8
0
  5
4FA
 10
9.52850
 20
2.91029
 30
0.000000
  70
    32
  0
VERTEX
  8
0
  5
4FB
 10
9.52792
 20
2.90979
 30
0.000000
  70
    32
  0
VERTEX
  8
0
  5
4FC
 10
9.52734
 20
2.90929
 30
0.000000
  70
    32
  0
VERTEX
  8
0
  5
4FD
 10
9.52675
 20
2.90880
 30
0.000000
  70
    32
  0
VERTEX
  8
0
  5
4FE
 10
9.52617
 20
2.90832
 30
0.000000
  70
    32
  0
VERTEX
  8
0
  5
4FF
 10
9.52559
 20
2.90785
 30
0.000000
  70
    32
  0
VERTEX
  8
0
  5
500
 10
9.52501
 20
2.90738
 30
0.000000
  70
    32
  0
VERTEX
  8
0
  5
501
 10
9.52442
 20
2.90693
 30
0.000000
  70
    32
  0
VERTEX
  8
0
  5
502
 10
9.52384
 20
2.90648
 30
0.000000
  70
    32
  0
VERTEX
  8
0
  5
503
 10
9.52326
 20
2.90604
 30
0.000000
  70
    32
  0
VERTEX
  8
0
  5
504
 10
9.52267
 20
2.90561
 30
0.000000
  70
    32
  0
VERTEX
  8
0
  5
505
 10
9.52209
 20
2.90519
 30
0.000000
  70
    32
  0
VERTEX
  8
0
  5
506
 10
9.52151
 20
2.90478
 30
0.000000
  70
    32
  0
VERTEX
  8
0
  5
507
 10
9.52092
 20
2.90437
 30
0.000000
  70
    32
  0
VERTEX
  8
0
  5
508
 10
9.52034
 20
2.90398
 30
0.000000
  70
    32
  0
SEQEND
  8
0
  5
509
  0
POLYLINE
  5
8A
  8
0
 66
     1
 10
0.0
 20
0.0
 30
0.0
  0
VERTEX
  5
12D
  8
0
 10
10.021754788089311
 20
8.2267016073805053
 30
0.0
 42
-0.0508673674782337
  0
VERTEX
  5
12E
  8
0
 10
10.223672856026241
 20
8.1999989410880172
 30
0.0
 42
-0.1162360177167179
  0
VERTEX
  5
12F
  8
0
 10
10.464149114388871
 20
8.0845603022572377
 30
0.0
 42
-0.1978995890488509
  0
VERTEX
  5
130
  8
0
 10
10.537158967058531
 20
7.9503230258725353
 30
0.0
  0
VERTEX
  5
131
  8
0
 10
10.537158967058531
 20
-7.3672749680257184
 30
0.0
 42
-0.4142135623730931
  0
VERTEX
  5
132
  8
0
 10
9.9971589670585246
 20
-7.9072749680257166
 30
0.0
  0
VERTEX
  5
133
  8
0
 10
0.0
 20
-7.9072749680257166
 30
0.0
  0
VERTEX
  5
134
  8
0
 10
-9.9971589670585317
 20
-7.9072749680257237
 30
0.0
 42
-0.4142135623730931
  0
VERTEX
  5
135
  8
0
 10
-10.537158967058531
 20
-7.3672749680257246
 30
0.0
  0
VERTEX
  5
136
  8
0
 10
-10.537158967058531
 20
7.9503230258725281
 30
0.0
 42
-0.1978995890488509
  0
VERTEX
  5
137
  8
0
 10
-10.464149114388871
 20
8.0845603022572305
 30
0.0
 42
-0.1162360177167179
  0
VERTEX
  5
138
  8
0
 10
-10.223672856026241
 20
8.1999989410880119
 30
0.0
 42
-0.0508673674782337
  0
VERTEX
  5
139
  8
0
 10
-10.021754788089311
 20
8.2267016073804982
 30
0.0
  0
SEQEND
  5
13A
  8
0
  0
POLYLINE
  5
8B
  8
0
 66
     1
 10
0.0
 20
0.0
 30
0.0
 70
     1
  0
VERTEX
  5
13B
  8
0
 10
0.0
 20
-7.0133158834756841
 30
0.0
  0
VERTEX
  5
13C
  8
0
 10
-9.3673373065371237
 20
-7.0133158834756912
 30
0.0
 42
-0.4142135623730942
  0
VERTEX
  5
13D
  8
0
 10
-9.6373373065371197
 20
-6.7433158834756952
 30
0.0
  0
VERTEX
  5
13E
  8
0
 10
-9.6373373065371197
 20
-6.6252695073994801
 30
0.0
  0
VERTEX
  5
13F
  8
0
 10
-9.6373373065371197
 20
-6.5905722797736814
 30
0.0
  0
VERTEX
  5
140
  8
0
 10
-9.6373373065371197
 20
-6.5509538280777297
 30
0.0
  0
VERTEX
  5
141
  8
0
 10
-9.6373373065371197
 20
-6.506525492222714
 30
0.0
  0
VERTEX
  5
142
  8
0
 10
-9.6373373065371197
 20
-6.4573986121197393
 30
0.0
  0
VERTEX
  5
143
  8
0
 10
-9.6373373065371197
 20
-6.4036845276798777
 30
0.0
  0
VERTEX
  5
144
  8
0
 10
-9.6373373065371197
 20
-6.3454945788142254
 30
0.0
  0
VERTEX
  5
145
  8
0
 10
-9.6373373065371197
 20
-6.2829401054338803
 30
0.0
  0
VERTEX
  5
146
  8
0
 10
-9.6373373065371197
 20
-6.2161324474499153
 30
0.0
  0
VERTEX
  5
147
  8
0
 10
-9.6373373065371197
 20
-6.1451829447734312
 30
0.0
  0
VERTEX
  5
148
  8
0
 10
-9.6373373065371197
 20
-6.0702029373155071
 30
0.0
  0
VERTEX
  5
149
  8
0
 10
-9.6373373065371197
 20
-5.9913037649872427
 30
0.0
  0
VERTEX
  5
14A
  8
0
 10
-9.6373373065371197
 20
-5.9085967676997271
 30
0.0
  0
VERTEX
  5
14B
  8
0
 10
-9.6373373065371197
 20
-5.7322046578912804
 30
0.0
  0
VERTEX
  5
14C
  8
0
 10
-9.6373373065371197
 20
-5.5419173271788864
 30
0.0
  0
VERTEX
  5
14D
  8
0
 10
-9.6373373065371197
 20
-5.3386254948512573
 30
0.0
  0
VERTEX
  5
14E
  8
0
 10
-9.6373373065371197
 20
-5.1232198801971123
 30
0.0
  0
VERTEX
  5
14F
  8
0
 10
-9.6373373065371197
 20
-4.8965912025051628
 30
0.0
  0
VERTEX
  5
150
  8
0
 10
-9.6373373065371197
 20
-4.6596301810641227
 30
0.0
  0
VERTEX
  5
151
  8
0
 10
-9.6373373065371197
 20
-4.4132275351627106
 30
0.0
  0
VERTEX
  5
152
  8
0
 10
-9.6373373065371197
 20
-4.1582739840896394
 30
0.0
  0
VERTEX
  5
153
  8
0
 10
-9.6373373065371197
 20
-3.8956602471336259
 30
0.0
  0
VERTEX
  5
154
  8
0
 10
-9.6373373065371197
 20
-3.6262770435833782
 30
0.0
  0
VERTEX
  5
155
  8
0
 10
-9.6373373065371197
 20
-3.3510150927276068
 30
0.0
  0
VERTEX
  5
156
  8
0
 10
-9.6373373065371197
 20
-3.070765113855038
 30
0.0
  0
VERTEX
  5
157
  8
0
 10
-9.6373373065371197
 20
-2.7864178262543851
 30
0.0
  0
VERTEX
  5
158
  8
0
 10
-9.6373373065371197
 20
-2.208994202023681
 30
0.0
  0
VERTEX
  5
159
  8
0
 10
-9.6373373065371197
 20
-1.044170897528651
 30
0.0
  0
VERTEX
  5
15A
  8
0
 10
-9.6373373065371197
 20
-0.4710227258837705
 30
0.0
  0
VERTEX
  5
15B
  8
0
 10
-9.6373373065371197
 20
-0.18988202772249
 30
0.0
  0
VERTEX
  5
15C
  8
0
 10
-9.6373373065371197
 20
0.0864487862797319
 30
0.0
  0
VERTEX
  5
15D
  8
0
 10
-9.6373373065371197
 20
0.3570789968341828
 30
0.0
  0
VERTEX
  5
15E
  8
0
 10
-9.6373373065371197
 20
0.6211178846521435
 30
0.0
  0
VERTEX
  5
15F
  8
0
 10
-9.6373373065371197
 20
0.8776747304449017
 30
0.0
  0
VERTEX
  5
160
  8
0
 10
-9.6373373065371197
 20
1.125858814923745
 30
0.0
  0
VERTEX
  5
161
  8
0
 10
-9.6373373065371197
 20
1.3647794187999549
 30
0.0
  0
VERTEX
  5
162
  8
0
 10
-9.6373373065371197
 20
1.593545822784818
 30
0.0
  0
VERTEX
  5
163
  8
0
 10
-9.6373373065371197
 20
1.811267307589616
 30
0.0
  0
VERTEX
  5
164
  8
0
 10
-9.6373373065371197
 20
2.017053153925644
 30
0.0
  0
VERTEX
  5
165
  8
0
 10
-9.6373373065371197
 20
2.2100126425041822
 30
0.0
  0
VERTEX
  5
166
  8
0
 10
-9.6373373065371197
 20
2.3892550540365169
 30
0.0
  0
VERTEX
  5
167
  8
0
 10
-9.6373373065371197
 20
2.4734540061326342
 30
0.0
  0
VERTEX
  5
168
  8
0
 10
-9.6373373065371197
 20
2.5538896692339321
 30
0.0
  0
VERTEX
  5
169
  8
0
 10
-9.6373373065371197
 20
2.6304507034293181
 30
0.0
  0
VERTEX
  5
16A
  8
0
 10
-9.6373373065371197
 20
2.7030257688077048
 30
0.0
  0
VERTEX
  5
16B
  8
0
 10
-9.6373373065371197
 20
2.7715035254580078
 30
0.0
  0
VERTEX
  5
16C
  8
0
 10
-9.6373373065371197
 20
2.8357726334691402
 30
0.0
  0
VERTEX
  5
16D
  8
0
 10
-9.6373373065371197
 20
2.895721752930001
 30
0.0
  0
VERTEX
  5
16E
  8
0
 10
-9.6373373065371197
 20
2.95123954392951
 30
0.0
  0
VERTEX
  5
16F
  8
0
 10
-9.6373373065371197
 20
3.0022146665565681
 30
0.0
  0
VERTEX
  5
170
  8
0
 10
-9.6373373065371197
 20
3.048535780900095
 30
0.0
  0
VERTEX
  5
171
  8
0
 10
-9.6373373065371197
 20
3.0900915470489991
 30
0.0
  0
VERTEX
  5
172
  8
0
 10
-9.6373373065371197
 20
3.1267706250921909
 30
0.0
  0
VERTEX
  5
173
  8
0
 10
-9.6373373065371197
 20
3.1584616751185872
 30
0.0
  0
VERTEX
  5
174
  8
0
 10
-9.6373373065371197
 20
3.185053357217086
 30
0.0
  0
VERTEX
  5
175
  8
0
 10
-9.6373373065371197
 20
3.2064343314766068
 30
0.0
  0
VERTEX
  5
176
  8
0
 10
-9.6373373065371197
 20
3.2224932579860588
 30
0.0
  0
VERTEX
  5
177
  8
0
 10
-9.6373373065371197
 20
3.2331187968343471
 30
0.0
  0
VERTEX
  5
178
  8
0
 10
-9.6373373065371197
 20
3.2381996081103921
 30
0.0
  0
VERTEX
  5
179
  8
0
 10
-9.6373785670711101
 20
3.240844840276885
 30
0.0
  0
VERTEX
  5
17A
  8
0
 10
-9.6376409681185038
 20
3.2517898736584741
 30
0.0
  0
VERTEX
  5
17B
  8
0
 10
-9.6383933553786534
 20
3.2736519535325002
 30
0.0
  0
VERTEX
  5
17C
  8
0
 10
-9.6420124818674893
 20
3.3610082613381991
 30
0.0
  0
VERTEX
  5
17D
  8
0
 10
-9.6422606498564036
 20
3.3719490775173142
 30
0.0
  0
VERTEX
  5
17E
  8
0
 10
-9.642348081928489
 20
3.3774235350796991
 30
0.0
  0
VERTEX
  5
17F
  8
0
 10
-9.6423623716555085
 20
3.378745099308389
 30
0.0
  0
VERTEX
  5
180
  8
0
 10
-9.6423623716555085
 20
3.3857994822584621
 30
0.0
  0
VERTEX
  5
181
  8
0
 10
-9.6423623716555085
 20
3.4179655423994211
 30
0.0
  0
VERTEX
  5
182
  8
0
 10
-9.6423623716555085
 20
3.4501316025403801
 30
0.0
  0
VERTEX
  5
183
  8
0
 10
-9.6423623716555085
 20
3.4571859854904541
 30
0.0
  0
VERTEX
  5
184
  8
0
 10
-9.6423625242096165
 20
3.4581023668156581
 30
0.0
  0
VERTEX
  5
185
  8
0
 10
-9.6423642159827239
 20
3.4657549332800102
 30
0.0
  0
VERTEX
  5
186
  8
0
 10
-9.6423677198350148
 20
3.4816042587486669
 30
0.0
  0
VERTEX
  5
187
  8
0
 10
-9.6423729608872009
 20
3.5053116341718669
 30
0.0
  0
VERTEX
  5
188
  8
0
 10
-9.6423798642599632
 20
3.5365383504998462
 30
0.0
  0
VERTEX
  5
189
  8
0
 10
-9.6423883550739973
 20
3.5749456986828321
 30
0.0
  0
VERTEX
  5
18A
  8
0
 10
-9.6423983584500021
 20
3.620194969671068
 30
0.0
  0
VERTEX
  5
18B
  8
0
 10
-9.6424097995086697
 20
3.671947454414791
 30
0.0
  0
VERTEX
  5
18C
  8
0
 10
-9.6424226033706972
 20
3.729864443864229
 30
0.0
  0
VERTEX
  5
18D
  8
0
 10
-9.6424366951567748
 20
3.793607228969619
 30
0.0
  0
VERTEX
  5
18E
  8
0
 10
-9.6424519999875997
 20
3.862837100681197
 30
0.0
  0
VERTEX
  5
18F
  8
0
 10
-9.6424684429838692
 20
3.9372153499492049
 30
0.0
  0
VERTEX
  5
190
  8
0
 10
-9.6424859492662733
 20
4.0164032677238657
 30
0.0
  0
VERTEX
  5
191
  8
0
 10
-9.6425044439555165
 20
4.1000621449554231
 30
0.0
  0
VERTEX
  5
192
  8
0
 10
-9.6425238521722747
 20
4.1878532725941042
 30
0.0
  0
VERTEX
  5
193
  8
0
 10
-9.6425651096711533
 20
4.374477442893812
 30
0.0
  0
VERTEX
  5
194
  8
0
 10
-9.6426091227284711
 20
4.5735661062248587
 30
0.0
  0
VERTEX
  5
195
  8
0
 10
-9.6426552923097901
 20
4.7824095901891317
 30
0.0
  0
VERTEX
  5
196
  8
0
 10
-9.6427030193806615
 20
4.9982982223885051
 30
0.0
  0
VERTEX
  5
197
  8
0
 10
-9.6428007498532793
 20
5.440372241900107
 30
0.0
  0
VERTEX
  5
198
  8
0
 10
-9.6428495551861388
 20
5.6611382844160971
 30
0.0
  0
VERTEX
  5
199
  8
0
 10
-9.6428975218707791
 20
5.8781107855747194
 30
0.0
  0
VERTEX
  5
19A
  8
0
 10
-9.6429440508727637
 20
6.0885800729778623
 30
0.0
  0
VERTEX
  5
19B
  8
0
 10
-9.6429885431576352
 20
6.289836474227406
 30
0.0
  0
VERTEX
  5
19C
  8
0
 10
-9.6430303996909572
 20
6.4791703169252273
 30
0.0
  0
VERTEX
  5
19D
  8
0
 10
-9.6430501523525294
 20
6.5685195061928283
 30
0.0
  0
VERTEX
  5
19E
  8
0
 10
-9.6430690214382935
 20
6.6538719286732109
 30
0.0
  0
VERTEX
  5
19F
  8
0
 10
-9.6430869320689467
 20
6.7348888753166056
 30
0.0
  0
VERTEX
  5
1A0
  8
0
 10
-9.6431038093651864
 20
6.8112316370732406
 30
0.0
  0
VERTEX
  5
1A1
  8
0
 10
-9.6431195784477097
 20
6.882561504893367
 30
0.0
  0
VERTEX
  5
1A2
  8
0
 10
-9.6431341644371997
 20
6.948539769727204
 30
0.0
  0
VERTEX
  5
1A3
  8
0
 10
-9.6431474924543679
 20
7.0088277225249911
 30
0.0
  0
VERTEX
  5
1A4
  8
0
 10
-9.6431594876198972
 20
7.0630866542369679
 30
0.0
  0
VERTEX
  5
1A5
  8
0
 10
-9.6431700750544849
 20
7.110977855813374
 30
0.0
  0
VERTEX
  5
1A6
  8
0
 10
-9.6431791798788282
 20
7.1521626182044349
 30
0.0
  0
VERTEX
  5
1A7
  8
0
 10
-9.6431867272136103
 20
7.186302232360382
 30
0.0
  0
VERTEX
  5
1A8
  8
0
 10
-9.6431926421795424
 20
7.2130579892314648
 30
0.0
  0
VERTEX
  5
1A9
  8
0
 10
-9.6431968498973077
 20
7.232091179767913
 30
0.0
  0
VERTEX
  5
1AA
  8
0
 10
-9.6431992754876106
 20
7.243063094919961
 30
0.0
  0
VERTEX
  5
1AB
  8
0
 10
-9.6431998825091796
 20
7.2466930263929106
 30
0.0
  0
VERTEX
  5
1AC
  8
0
 10
-9.6431998825091796
 20
7.2554622516639924
 30
0.0
  0
VERTEX
  5
1AD
  8
0
 10
-9.6431998825091796
 20
7.2707183011082099
 30
0.0
  0
VERTEX
  5
1AE
  8
0
 10
-9.6431998825091796
 20
7.3258884328600677
 30
0.0
 42
-0.4142135623730946
  0
VERTEX
  5
1AF
  8
0
 10
-9.3731998825091836
 20
7.5958884328600709
 30
0.0
  0
VERTEX
  5
1B0
  8
0
 10
0.0
 20
7.595888432860078
 30
0.0
  0
VERTEX
  5
1B1
  8
0
 10
9.3731998825091836
 20
7.595888432860078
 30
0.0
 42
-0.4142135623730946
  0
VERTEX
  5
1B2
  8
0
 10
9.6431998825091796
 20
7.3258884328600749
 30
0.0
  0
VERTEX
  5
1B3
  8
0
 10
9.6431998825091796
 20
7.270718301108217
 30
0.0
  0
VERTEX
  5
1B4
  8
0
 10
9.6431998825091796
 20
7.2554622516639986
 30
0.0
  0
VERTEX
  5
1B5
  8
0
 10
9.6431998825091796
 20
7.2466930263929177
 30
0.0
  0
VERTEX
  5
1B6
  8
0
 10
9.6431992754876177
 20
7.2430630949199681
 30
0.0
  0
VERTEX
  5
1B7
  8
0
 10
9.6431968498973077
 20
7.2320911797679202
 30
0.0
  0
VERTEX
  5
1B8
  8
0
 10
9.6431926421795424
 20
7.2130579892314719
 30
0.0
  0
VERTEX
  5
1B9
  8
0
 10
9.6431867272136174
 20
7.18630223236039
 30
0.0
  0
VERTEX
  5
1BA
  8
0
 10
9.6431791798788282
 20
7.152162618204442
 30
0.0
  0
VERTEX
  5
1BB
  8
0
 10
9.6431700750544849
 20
7.1109778558133812
 30
0.0
  0
VERTEX
  5
1BC
  8
0
 10
9.6431594876198972
 20
7.063086654236975
 30
0.0
  0
VERTEX
  5
1BD
  8
0
 10
9.6431474924543608
 20
7.0088277225249982
 30
0.0
  0
VERTEX
  5
1BE
  8
0
 10
9.6431341644371997
 20
6.9485397697272111
 30
0.0
  0
VERTEX
  5
1BF
  8
0
 10
9.6431195784477097
 20
6.8825615048933741
 30
0.0
  0
VERTEX
  5
1C0
  8
0
 10
9.6431038093651864
 20
6.8112316370732477
 30
0.0
  0
VERTEX
  5
1C1
  8
0
 10
9.6430869320689538
 20
6.7348888753166127
 30
0.0
  0
VERTEX
  5
1C2
  8
0
 10
9.6430690214382935
 20
6.653871928673218
 30
0.0
  0
VERTEX
  5
1C3
  8
0
 10
9.6430501523525294
 20
6.5685195061928354
 30
0.0
  0
VERTEX
  5
1C4
  8
0
 10
9.6430303996909572
 20
6.4791703169252344
 30
0.0
  0
VERTEX
  5
1C5
  8
0
 10
9.6429885431576423
 20
6.2898364742274131
 30
0.0
  0
VERTEX
  5
1C6
  8
0
 10
9.6429440508727708
 20
6.0885800729778694
 30
0.0
  0
VERTEX
  5
1C7
  8
0
 10
9.6428975218707791
 20
5.8781107855747257
 30
0.0
  0
VERTEX
  5
1C8
  8
0
 10
9.6428495551861442
 20
5.6611382844161042
 30
0.0
  0
VERTEX
  5
1C9
  8
0
 10
9.6428007498532793
 20
5.4403722419001141
 30
0.0
  0
VERTEX
  5
1CA
  8
0
 10
9.6427030193806615
 20
4.9982982223885131
 30
0.0
  0
VERTEX
  5
1CB
  8
0
 10
9.6426552923097972
 20
4.7824095901891388
 30
0.0
  0
VERTEX
  5
1CC
  8
0
 10
9.6426091227284711
 20
4.5735661062248658
 30
0.0
  0
VERTEX
  5
1CD
  8
0
 10
9.6425651096711533
 20
4.37447744289382
 30
0.0
  0
VERTEX
  5
1CE
  8
0
 10
9.6425238521722747
 20
4.1878532725941113
 30
0.0
  0
VERTEX
  5
1CF
  8
0
 10
9.6425044439555165
 20
4.1000621449554302
 30
0.0
  0
VERTEX
  5
1D0
  8
0
 10
9.6424859492662733
 20
4.0164032677238728
 30
0.0
  0
VERTEX
  5
1D1
  8
0
 10
9.6424684429838692
 20
3.937215349949212
 30
0.0
  0
VERTEX
  5
1D2
  8
0
 10
9.6424519999875997
 20
3.8628371006812041
 30
0.0
  0
VERTEX
  5
1D3
  8
0
 10
9.6424366951567748
 20
3.7936072289696261
 30
0.0
  0
VERTEX
  5
1D4
  8
0
 10
9.6424226033706901
 20
3.7298644438642361
 30
0.0
  0
VERTEX
  5
1D5
  8
0
 10
9.6424097995086697
 20
3.6719474544147981
 30
0.0
  0
VERTEX
  5
1D6
  8
0
 10
9.642398358449995
 20
3.6201949696710751
 30
0.0
  0
VERTEX
  5
1D7
  8
0
 10
9.6423883550740044
 20
3.5749456986828392
 30
0.0
  0
VERTEX
  5
1D8
  8
0
 10
9.6423798642599632
 20
3.5365383504998529
 30
0.0
  0
VERTEX
  5
1D9
  8
0
 10
9.6423729608872009
 20
3.505311634171874
 30
0.0
  0
VERTEX
  5
1DA
  8
0
 10
9.6423677198350202
 20
3.481604258748674
 30
0.0
  0
VERTEX
  5
1DB
  8
0
 10
9.6423642159827239
 20
3.4657549332800168
 30
0.0
  0
VERTEX
  5
1DC
  8
0
 10
9.6423625242096165
 20
3.4581023668156661
 30
0.0
  0
VERTEX
  5
1DD
  8
0
 10
9.6423623716555085
 20
3.4571859854904612
 30
0.0
  0
VERTEX
  5
1DE
  8
0
 10
9.6423623716555085
 20
3.4501316025403881
 30
0.0
  0
VERTEX
  5
1DF
  8
0
 10
9.6423623716555085
 20
3.4179655423994291
 30
0.0
  0
VERTEX
  5
1E0
  8
0
 10
9.6423623716555085
 20
3.3857994822584701
 30
0.0
  0
VERTEX
  5
1E1
  8
0
 10
9.6423623716555085
 20
3.3787450993083961
 30
0.0
  0
VERTEX
  5
1E2
  8
0
 10
9.642348081928489
 20
3.3774235350797071
 30
0.0
  0
VERTEX
  5
1E3
  8
0
 10
9.6422606498563965
 20
3.3719490775173209
 30
0.0
  0
VERTEX
  5
1E4
  8
0
 10
9.6420124818674822
 20
3.3610082613382062
 30
0.0
  0
VERTEX
  5
1E5
  8
0
 10
9.6383933553786534
 20
3.2736519535325068
 30
0.0
  0
VERTEX
  5
1E6
  8
0
 10
9.6376409681185038
 20
3.2517898736584812
 30
0.0
  0
VERTEX
  5
1E7
  8
0
 10
9.6373785670711101
 20
3.2408448402768921
 30
0.0
  0
VERTEX
  5
1E8
  8
0
 10
9.6373373065371197
 20
3.2381996081103992
 30
0.0
  0
VERTEX
  5
1E9
  8
0
 10
9.6373373065371197
 20
3.2331187968343542
 30
0.0
  0
VERTEX
  5
1EA
  8
0
 10
9.6373373065371197
 20
3.2224932579860659
 30
0.0
  0
VERTEX
  5
1EB
  8
0
 10
9.6373373065371197
 20
3.2064343314766139
 30
0.0
  0
VERTEX
  5
1EC
  8
0
 10
9.6373373065371197
 20
3.1850533572170932
 30
0.0
  0
VERTEX
  5
1ED
  8
0
 10
9.6373373065371197
 20
3.1584616751185939
 30
0.0
  0
VERTEX
  5
1EE
  8
0
 10
9.6373373065371197
 20
3.1267706250921981
 30
0.0
  0
VERTEX
  5
1EF
  8
0
 10
9.6373373065371197
 20
3.0900915470490058
 30
0.0
  0
VERTEX
  5
1F0
  8
0
 10
9.6373373065371197
 20
3.048535780900103
 30
0.0
  0
VERTEX
  5
1F1
  8
0
 10
9.6373373065371197
 20
3.0022146665565752
 30
0.0
  0
VERTEX
  5
1F2
  8
0
 10
9.6373373065371197
 20
2.9512395439295172
 30
0.0
  0
VERTEX
  5
1F3
  8
0
 10
9.6373373065371197
 20
2.8957217529300081
 30
0.0
  0
VERTEX
  5
1F4
  8
0
 10
9.6373373065371197
 20
2.8357726334691469
 30
0.0
  0
VERTEX
  5
1F5
  8
0
 10
9.6373373065371197
 20
2.7715035254580149
 30
0.0
  0
VERTEX
  5
1F6
  8
0
 10
9.6373373065371197
 20
2.7030257688077119
 30
0.0
  0
VERTEX
  5
1F7
  8
0
 10
9.6373373065371197
 20
2.6304507034293252
 30
0.0
  0
VERTEX
  5
1F8
  8
0
 10
9.6373373065371197
 20
2.5538896692339388
 30
0.0
  0
VERTEX
  5
1F9
  8
0
 10
9.6373373065371197
 20
2.4734540061326409
 30
0.0
  0
VERTEX
  5
1FA
  8
0
 10
9.6373373065371197
 20
2.3892550540365241
 30
0.0
  0
VERTEX
  5
1FB
  8
0
 10
9.6373373065371197
 20
2.2100126425041888
 30
0.0
  0
VERTEX
  5
1FC
  8
0
 10
9.6373373065371197
 20
2.0170531539256511
 30
0.0
  0
VERTEX
  5
1FD
  8
0
 10
9.6373373065371197
 20
1.8112673075896231
 30
0.0
  0
VERTEX
  5
1FE
  8
0
 10
9.6373373065371197
 20
1.5935458227848249
 30
0.0
  0
VERTEX
  5
1FF
  8
0
 10
9.6373373065371197
 20
1.364779418799962
 30
0.0
  0
VERTEX
  5
200
  8
0
 10
9.6373373065371197
 20
1.1258588149237521
 30
0.0
  0
VERTEX
  5
201
  8
0
 10
9.6373373065371197
 20
0.8776747304449089
 30
0.0
  0
VERTEX
  5
202
  8
0
 10
9.6373373065371197
 20
0.6211178846521506
 30
0.0
  0
VERTEX
  5
203
  8
0
 10
9.6373373065371197
 20
0.3570789968341899
 30
0.0
  0
VERTEX
  5
204
  8
0
 10
9.6373373065371197
 20
0.086448786279739
 30
0.0
  0
VERTEX
  5
205
  8
0
 10
9.6373373065371197
 20
-0.1898820277224828
 30
0.0
  0
VERTEX
  5
206
  8
0
 10
9.6373373065371197
 20
-0.4710227258837634
 30
0.0
  0
VERTEX
  5
207
  8
0
 10
9.6373373065371197
 20
-1.0441708975286439
 30
0.0
  0
VERTEX
  5
208
  8
0
 10
9.6373373065371197
 20
-2.2089942020236739
 30
0.0
  0
VERTEX
  5
209
  8
0
 10
9.6373373065371197
 20
-2.7864178262543779
 30
0.0
  0
VERTEX
  5
20A
  8
0
 10
9.6373373065371197
 20
-3.0707651138550309
 30
0.0
  0
VERTEX
  5
20B
  8
0
 10
9.6373373065371197
 20
-3.3510150927276001
 30
0.0
  0
VERTEX
  5
20C
  8
0
 10
9.6373373065371197
 20
-3.6262770435833711
 30
0.0
  0
VERTEX
  5
20D
  8
0
 10
9.6373373065371197
 20
-3.8956602471336188
 30
0.0
  0
VERTEX
  5
20E
  8
0
 10
9.6373373065371197
 20
-4.1582739840896323
 30
0.0
  0
VERTEX
  5
20F
  8
0
 10
9.6373373065371197
 20
-4.4132275351627044
 30
0.0
  0
VERTEX
  5
210
  8
0
 10
9.6373373065371197
 20
-4.6596301810641156
 30
0.0
  0
VERTEX
  5
211
  8
0
 10
9.6373373065371197
 20
-4.8965912025051557
 30
0.0
  0
VERTEX
  5
212
  8
0
 10
9.6373373065371197
 20
-5.1232198801971052
 30
0.0
  0
VERTEX
  5
213
  8
0
 10
9.6373373065371197
 20
-5.3386254948512502
 30
0.0
  0
VERTEX
  5
214
  8
0
 10
9.6373373065371197
 20
-5.5419173271788793
 30
0.0
  0
VERTEX
  5
215
  8
0
 10
9.6373373065371197
 20
-5.7322046578912733
 30
0.0
  0
VERTEX
  5
216
  8
0
 10
9.6373373065371197
 20
-5.9085967676997191
 30
0.0
  0
VERTEX
  5
217
  8
0
 10
9.6373373065371197
 20
-5.9913037649872356
 30
0.0
  0
VERTEX
  5
218
  8
0
 10
9.6373373065371197
 20
-6.0702029373154991
 30
0.0
  0
VERTEX
  5
219
  8
0
 10
9.6373373065371197
 20
-6.1451829447734241
 30
0.0
  0
VERTEX
  5
21A
  8
0
 10
9.6373373065371197
 20
-6.2161324474499082
 30
0.0
  0
VERTEX
  5
21B
  8
0
 10
9.6373373065371197
 20
-6.2829401054338732
 30
0.0
  0
VERTEX
  5
21C
  8
0
 10
9.6373373065371197
 20
-6.3454945788142183
 30
0.0
  0
VERTEX
  5
21D
  8
0
 10
9.6373373065371197
 20
-6.4036845276798706
 30
0.0
  0
VERTEX
  5
21E
  8
0
 10
9.6373373065371197
 20
-6.4573986121197322
 30
0.0
  0
VERTEX
  5
21F
  8
0
 10
9.6373373065371197
 20
-6.506525492222706
 30
0.0
  0
VERTEX
  5
220
  8
0
 10
9.6373373065371197
 20
-6.5509538280777226
 30
0.0
  0
VERTEX
  5
221
  8
0
 10
9.6373373065371197
 20
-6.5905722797736743
 30
0.0
  0
VERTEX
  5
222
  8
0
 10
9.6373373065371197
 20
-6.6252695073994721
 30
0.0
  0
VERTEX
  5
223
  8
0
 10
9.6373373065371197
 20
-6.7433158834756881
 30
0.0
 42
-0.4142135623730942
  0
VERTEX
  5
224
  8
0
 10
9.3673373065371237
 20
-7.0133158834756841
 30
0.0
  0
SEQEND
  5
225
  8
0
  0
POLYLINE
  5
8D
  8
0
 66
     1
 10
0.0
 20
0.0
 30
0.0
 70
     1
  0
VERTEX
  5
226
  8
0
 10
0.0
 20
-8.2761147477107215
 30
0.0
  0
VERTEX
  5
227
  8
0
 10
10.65625
 20
-8.2761147477107215
 30
0.0
 42
0.4142135623730951
  0
VERTEX
  5
228
  8
0
 10
10.90625
 20
-8.0261147477107215
 30
0.0
  0
VERTEX
  5
229
  8
0
 10
10.90625
 20
8.0261147477107215
 30
0.0
 42
0.4142135623730951
  0
VERTEX
  5
22A
  8
0
 10
10.65625
 20
8.2761147477107215
 30
0.0
  0
VERTEX
  5
22B
  8
0
 10
0.0
 20
8.2761147477107215
 30
0.0
  0
VERTEX
  5
22C
  8
0
 10
-10.65625
 20
8.2761147477107144
 30
0.0
 42
0.4142135623730951
  0
VERTEX
  5
22D
  8
0
 10
-10.90625
 20
8.0261147477107144
 30
0.0
  0
VERTEX
  5
22E
  8
0
 10
-10.90625
 20
-8.0261147477107286
 30
0.0
 42
0.4142135623730951
  0
VERTEX
  5
22F
  8
0
 10
-10.65625
 20
-8.2761147477107286
 30
0.0
  0
SEQEND
  5
230
  8
0
  0
POLYLINE
  5
8E
  8
0
 66
     1
 10
0.0
 20
0.0
 30
0.0
 70
     1
  0
VERTEX
  5
231
  8
0
 10
0.0
 20
2.4934373117129089
 30
0.0
  0
VERTEX
  5
232
  8
0
 10
7.8631543154269821
 20
2.4934373117129089
 30
0.0
 42
-0.4141284854489257
  0
VERTEX
  5
233
  8
0
 10
8.1425457530350922
 20
2.2135186459788301
 30
0.0
  0
VERTEX
  5
234
  8
0
 10
8.1445555727555359
 20
-4.7054532240241684
 30
0.0
 42
-0.4143458660624166
  0
VERTEX
  5
235
  8
0
 10
7.8645104450981762
 20
-4.9855345546515721
 30
0.0
  0
VERTEX
  5
236
  8
0
 10
0.0
 20
-4.9842661066095308
 30
0.0
  0
VERTEX
  5
237
  8
0
 10
-7.8645104450981762
 20
-4.9855345546515792
 30
0.0
 42
-0.4143458660624166
  0
VERTEX
  5
238
  8
0
 10
-8.1445555727555359
 20
-4.7054532240241747
 30
0.0
  0
VERTEX
  5
239
  8
0
 10
-8.1425457530350922
 20
2.2135186459788221
 30
0.0
 42
-0.4141284854489257
  0
VERTEX
  5
23A
  8
0
 10
-7.8631543154269821
 20
2.4934373117129018
 30
0.0
  0
SEQEND
  5
23B
  8
0
  0
POLYLINE
  5
8F
  8
0
 66
     1
 10
0.0
 20
0.0
 30
0.0
 70
     1
  0
VERTEX
  5
23C
  8
0
 10
0.0
 20
-6.8933843293183372
 30
0.0
  0
VERTEX
  5
23D
  8
0
 10
9.3703370403660244
 20
-6.8933843293183372
 30
0.0
 42
0.4142135623730931
  0
VERTEX
  5
23E
  8
0
 10
9.5203370403660301
 20
-6.7433843293183378
 30
0.0
  0
VERTEX
  5
23F
  8
0
 10
9.5203370403660301
 20
3.0365612937004931
 30
0.0
 42
0.4142135623730965
  0
VERTEX
  5
240
  8
0
 10
9.3703370403660244
 20
3.1865612937004921
 30
0.0
  0
VERTEX
  5
241
  8
0
 10
0.0
 20
3.1865612937004921
 30
0.0
  0
VERTEX
  5
242
  8
0
 10
-9.3703370403660315
 20
3.186561293700485
 30
0.0
 42
0.4142135623730965
  0
VERTEX
  5
243
  8
0
 10
-9.5203370403660301
 20
3.036561293700486
 30
0.0
  0
VERTEX
  5
244
  8
0
 10
-9.5203370403660301
 20
-6.7433843293183449
 30
0.0
 42
0.4142135623730931
  0
VERTEX
  5
245
  8
0
 10
-9.3703370403660315
 20
-6.8933843293183443
 30
0.0
  0
SEQEND
  5
246
  8
0
  0
POLYLINE
  5
90
  8
0
 66
     1
 10
0.0
 20
0.0
 30
0.0
 70
     1
  0
VERTEX
  5
247
  8
0
 10
0.0
 20
8.1903536363580542
 30
0.0
  0
VERTEX
  5
248
  8
0
 10
9.9854875577884741
 20
8.1903536363580542
 30
0.0
 42
-0.414213562373093
  0
VERTEX
  5
249
  8
0
 10
10.235487557788471
 20
7.9403536363580542
 30
0.0
  0
VERTEX
  5
24A
  8
0
 10
10.235487557788471
 20
-7.3552685544142369
 30
0.0
 42
-0.4142135623730951
  0
VERTEX
  5
24B
  8
0
 10
9.9854875577884741
 20
-7.6052685544142369
 30
0.0
  0
VERTEX
  5
24C
  8
0
 10
0.0
 20
-7.6052685544142369
 30
0.0
  0
VERTEX
  5
24D
  8
0
 10
-9.9854875577884741
 20
-7.605268554414244
 30
0.0
 42
-0.4142135623730951
  0
VERTEX
  5
24E
  8
0
 10
-10.235487557788471
 20
-7.355268554414244
 30
0.0
  0
VERTEX
  5
24F
  8
0
 10
-10.235487557788471
 20
7.9403536363580471
 30
0.0
 42
-0.414213562373093
  0
VERTEX
  5
250
  8
0
 10
-9.9854875577884741
 20
8.1903536363580471
 30
0.0
  0
SEQEND
  5
251
  8
0
  0
ATTDEF
  5
91
  8
DEFPOINTS
 10
0.0
 20
-0.005
 30
0.0
 40
0.001
  1
VITREOUS CHINA
  3

  2
MATERIAL
 70
     8
1001
ACDBATTR
1070
     0
1070
     1
  0
ATTDEF
  5
92
  8
DEFPOINTS
 10
0.0
 20
-0.0033333333333333
 30
0.0
 40
0.001
  1
DROP-IN BATHROOM SINK
  3

  2
PRODUCT
 70
     8
1001
ACDBATTR
1070
     0
1070
     1
  0
ATTDEF
  5
93
  8
DEFPOINTS
 10
0.0
 20
-0.0016666666666667
 30
0.0
 40
0.001
  1
TRESHAM
  3

  2
TRADENAME
 70
     8
1001
ACDBATTR
1070
     0
1070
     1
  0
ATTDEF
  5
94
  8
DEFPOINTS
 10
0.0
 20
0.0
 30
0.0
 40
0.001
  1
K-2991
  3

  2
MODELNUMBER
 70
     8
1001
ACDBATTR
1070
     0
1070
     1
  0
ENDSEC
  0
EOF
