  0
SECTION
  2
HEADER
  9
$ACADVER
  1
AC1009
  9
$INSBASE
 10
0.0
 20
0.0
 30
0.0
  9
$EXTMIN
 10
-1.7883930187200761
 20
-0.005
 30
-0.0012833722706726
  9
$EXTMAX
 10
12.18139466759316
 20
9.3379405590261886
 30
0.0056413125518856
  9
$LIMMIN
 10
0.0
 20
0.0
  9
$LIMMAX
 10
420.0
 20
297.0
  9
$ORTHOMODE
 70
     1
  9
$REGENMODE
 70
     1
  9
$FILLMODE
 70
     1
  9
$QTEXTMODE
 70
     0
  9
$MIRRTEXT
 70
     1
  9
$DRAGMODE
 70
     2
  9
$LTSCALE
 40
1.0
  9
$OSMODE
 70
    37
  9
$ATTMODE
 70
     1
  9
$TEXTSIZE
 40
0.001
  9
$TRACEWID
 40
1.0
  9
$TEXTSTYLE
  7
STANDARD
  9
$CLAYER
  8
0
  9
$CELTYPE
  6
BYLAYER
  9
$CECOLOR
 62
   256
  9
$DIMSCALE
 40
1.0
  9
$DIMASZ
 40
2.5
  9
$DIMEXO
 40
0.625
  9
$DIMDLI
 40
3.75
  9
$DIMRND
 40
0.0
  9
$DIMDLE
 40
0.0
  9
$DIMEXE
 40
1.25
  9
$DIMTP
 40
0.0
  9
$DIMTM
 40
0.0
  9
$DIMTXT
 40
2.5
  9
$DIMCEN
 40
2.5
  9
$DIMTSZ
 40
0.0
  9
$DIMTOL
 70
     0
  9
$DIMLIM
 70
     0
  9
$DIMTIH
 70
     0
  9
$DIMTOH
 70
     0
  9
$DIMSE1
 70
     0
  9
$DIMSE2
 70
     0
  9
$DIMTAD
 70
     1
  9
$DIMZIN
 70
     8
  9
$DIMBLK
  1

  9
$DIMASO
 70
     1
  9
$DIMSHO
 70
     1
  9
$DIMPOST
  1

  9
$DIMAPOST
  1

  9
$DIMALT
 70
     0
  9
$DIMALTD
 70
     3
  9
$DIMALTF
 40
0.03937007874016
  9
$DIMLFAC
 40
1.0
  9
$DIMTOFL
 70
     1
  9
$DIMTVP
 40
0.0
  9
$DIMTIX
 70
     0
  9
$DIMSOXD
 70
     0
  9
$DIMSAH
 70
     0
  9
$DIMBLK1
  1

  9
$DIMBLK2
  1

  9
$DIMSTYLE
  2
ISO-25
  9
$DIMCLRD
 70
     0
  9
$DIMCLRE
 70
     0
  9
$DIMCLRT
 70
     0
  9
$DIMTFAC
 40
1.0
  9
$DIMGAP
 40
0.625
  9
$LUNITS
 70
     2
  9
$LUPREC
 70
     4
  9
$SKETCHINC
 40
1.0
  9
$FILLETRAD
 40
0.0
  9
$AUNITS
 70
     0
  9
$AUPREC
 70
     0
  9
$MENU
  1
.
  9
$ELEVATION
 40
0.0
  9
$PELEVATION
 40
0.0
  9
$THICKNESS
 40
0.0
  9
$LIMCHECK
 70
     0
  9
$BLIPMODE
 70
     0
  9
$CHAMFERA
 40
10.0
  9
$CHAMFERB
 40
10.0
  9
$SKPOLY
 70
     0
  9
$TDCREATE
 40
2453378.22126956
  9
$TDUPDATE
 40
2453411.4858848732
  9
$TDINDWG
 40
0.3231702315
  9
$TDUSRTIMER
 40
0.3231569213
  9
$USRTIMER
 70
     1
  9
$ANGBASE
 50
0.0
  9
$ANGDIR
 70
     0
  9
$PDMODE
 70
     0
  9
$PDSIZE
 40
0.0
  9
$PLINEWID
 40
0.0
  9
$COORDS
 70
     1
  9
$SPLFRAME
 70
     0
  9
$SPLINETYPE
 70
     6
  9
$SPLINESEGS
 70
     8
  9
$ATTDIA
 70
     0
  9
$ATTREQ
 70
     1
  9
$HANDLING
 70
     1
  9
$HANDSEED
  5
3ED0D
  9
$SURFTAB1
 70
     6
  9
$SURFTAB2
 70
     6
  9
$SURFTYPE
 70
     6
  9
$SURFU
 70
     6
  9
$SURFV
 70
     6
  9
$UCSNAME
  2

  9
$UCSORG
 10
0.0
 20
0.0
 30
0.0
  9
$UCSXDIR
 10
1.0
 20
0.0
 30
0.0
  9
$UCSYDIR
 10
0.0
 20
1.0
 30
0.0
  9
$PUCSNAME
  2

  9
$PUCSORG
 10
0.0
 20
0.0
 30
0.0
  9
$PUCSXDIR
 10
1.0
 20
0.0
 30
0.0
  9
$PUCSYDIR
 10
0.0
 20
1.0
 30
0.0
  9
$USERI1
 70
     0
  9
$USERI2
 70
     0
  9
$USERI3
 70
     0
  9
$USERI4
 70
     0
  9
$USERI5
 70
     0
  9
$USERR1
 40
0.0
  9
$USERR2
 40
0.0
  9
$USERR3
 40
0.0
  9
$USERR4
 40
0.0
  9
$USERR5
 40
0.0
  9
$WORLDVIEW
 70
     1
  9
$SHADEDGE
 70
     3
  9
$SHADEDIF
 70
    70
  9
$TILEMODE
 70
     1
  9
$MAXACTVP
 70
    64
  9
$PLIMCHECK
 70
     0
  9
$PEXTMIN
 10
1.0000000000000000E+020
 20
1.0000000000000000E+020
 30
1.0000000000000000E+020
  9
$PEXTMAX
 10
-1.0000000000000000E+020
 20
-1.0000000000000000E+020
 30
-1.0000000000000000E+020
  9
$PLIMMIN
 10
0.0
 20
0.0
  9
$PLIMMAX
 10
420.0
 20
297.0
  9
$UNITMODE
 70
     0
  9
$VISRETAIN
 70
     1
  9
$PLINEGEN
 70
     0
  9
$PSLTSCALE
 70
     1
  0
ENDSEC
  0
SECTION
  2
TABLES
  0
TABLE
  2
VPORT
 70
     2
  0
VPORT
  2
*ACTIVE
 70
     0
 10
0.0
 20
0.0
 11
1.0
 21
1.0
 12
5.1560818545232223
 22
1.99391292900381
 13
0.0
 23
0.0
 14
10.0
 24
10.0
 15
10.0
 25
10.0
 16
0.0
 26
0.0
 36
1.0
 17
0.0
 27
0.0
 37
0.0
 40
7.8895395292990376
 41
1.9608247422680409
 42
50.0
 43
0.0
 44
0.0
 50
0.0
 51
0.0
 71
     0
 72
  1000
 73
     1
 74
     3
 75
     0
 76
     0
 77
     0
 78
     0
  0
ENDTAB
  0
TABLE
  2
LTYPE
 70
     1
  0
LTYPE
  2
CONTINUOUS
 70
     0
  3
Solid line
 72
    65
 73
     0
 40
0.0
  0
ENDTAB
  0
TABLE
  2
LAYER
 70
     3
  0
LAYER
  2
0
 70
     0
 62
     7
  6
CONTINUOUS
  0
LAYER
  2
ASHADE
 70
     0
 62
     7
  6
CONTINUOUS
  0
LAYER
  2
DEFPOINTS
 70
     0
 62
     7
  6
CONTINUOUS
  0
ENDTAB
  0
TABLE
  2
STYLE
 70
     2
  0
STYLE
  2
STANDARD
 70
     0
 40
0.0
 41
1.0
 50
0.0
 71
     0
 42
0.001
  3
txt
  4

  0
STYLE
  2
ASHADE
 70
     0
 40
0.2
 41
1.0
 50
0.0
 71
     0
 42
2.5
  3
simplex.shx
  4

  0
ENDTAB
  0
TABLE
  2
VIEW
 70
     0
  0
ENDTAB
  0
TABLE
  2
UCS
 70
     0
  0
ENDTAB
  0
TABLE
  2
APPID
 70
     6
  0
APPID
  2
ACAD
 70
     0
  0
APPID
  2
AVE_RENDER
 70
     0
  0
APPID
  2
AVE_ENTITY_MATERIAL
 70
     0
  0
APPID
  2
AVE_FINISH
 70
     0
  0
APPID
  2
AVE_MATERIAL
 70
     0
  0
APPID
  2
AVE_GLOBAL
 70
     0
  0
ENDTAB
  0
TABLE
  2
DIMSTYLE
 70
     2
  0
DIMSTYLE
  2
ISO-25
 70
     0
  3

  4

  5

  6

  7

 40
1.0
 41
2.5
 42
0.625
 43
3.75
 44
1.25
 45
0.0
 46
0.0
 47
0.0
 48
0.0
140
2.5
141
2.5
142
0.0
143
0.03937007874016
144
1.0
145
0.0
146
1.0
147
0.625
 71
     0
 72
     0
 73
     0
 74
     0
 75
     0
 76
     0
 77
     1
 78
     8
170
     0
171
     3
172
     1
173
     0
174
     0
175
     0
176
     0
177
     0
178
     0
  0
DIMSTYLE
  2
STANDARD
 70
     0
  3

  4

  5

  6

  7

 40
1.0
 41
0.18
 42
0.0625
 43
0.38
 44
0.18
 45
0.0
 46
0.0
 47
0.0
 48
0.0
140
0.18
141
0.09
142
0.0
143
25.399999999999999
144
1.0
145
0.0
146
1.0
147
0.09
 71
     0
 72
     0
 73
     1
 74
     1
 75
     0
 76
     0
 77
     0
 78
     0
170
     0
171
     2
172
     0
173
     0
174
     0
175
     0
176
     0
177
     0
178
     0
  0
ENDTAB
  0
ENDSEC
  0
SECTION
  2
BLOCKS
  0
BLOCK
  8
0
  2
$MODEL_SPACE
 70
     0
 10
0.0
 20
0.0
 30
0.0
  3
$MODEL_SPACE
  1

  0
ENDBLK
  5
3E84A
  8
0
  0
BLOCK
 67
     1
  8
0
  2
$PAPER_SPACE
 70
     0
 10
0.0
 20
0.0
 30
0.0
  3
$PAPER_SPACE
  1

  0
ENDBLK
  5
3E846
 67
     1
  8
0
  0
BLOCK
  8
ASHADE
  2
AVE_RENDER
 70
     0
 10
0.0
 20
0.0
 30
0.0
  3
AVE_RENDER
  1
AVE_RENDER
  0
ENDBLK
  5
31
  8
0
  0
BLOCK
  8
ASHADE
  2
AVE_GLOBAL
 70
     0
 10
0.0
 20
0.0
 30
0.0
  3
AVE_GLOBAL
  1
AVE_GLOBAL
  0
ENDBLK
  5
3F
  8
0
  0
BLOCK
  8
ASHADE
  2
RM_SDB
 70
     2
 10
0.0
 20
0.0
 30
0.0
  3
RM_SDB
  1
RM_SDB
  0
ATTDEF
  5
32E2D
  8
ASHADE
  6
CONTINUOUS
 62
     1
 10
0.0000000000000001
 20
-0.15
 30
0.0
 40
0.2
  1

 41
100.0
  7
ASHADE
 72
     1
 11
0.0000000000000001
 21
-0.15
 31
0.0
  3
Name
  2
NAME
 70
     0
  0
ENDBLK
  5
620
  8
0
  0
ENDSEC
  0
SECTION
  2
ENTITIES
  0
ATTDEF
  5
3E809
  8
0
 10
0.0
 20
0.0
 30
0.0
 40
0.001
  1
K-394-4
  3

  2
MODELNUMBER
 70
     8
  0
ATTDEF
  5
3E80A
  8
0
 10
0.0
 20
-0.0016666666666667
 30
0.0
 40
0.001
  1
DEVONSHIRE
  3

  2
TRADENAME
 70
     8
  0
ATTDEF
  5
3E80B
  8
0
 10
0.0
 20
-0.0033333333333333
 30
0.0
 40
0.001
  1
FAUCETS
  3

  2
PRODUCT
 70
     8
  0
ATTDEF
  5
3E80C
  8
0
 10
0.0
 20
-0.005
 30
0.0
 40
0.001
  1
BRASS
  3

  2
MATERIAL
 70
     8
  0
POLYLINE
  5
3E96B
  8
ASHADE
 66
     1
 10
0.0
 20
0.0
 30
-0.0012597885902824
  0
VERTEX
  5
3EB23
  8
ASHADE
 10
4.4940494054704914
 20
3.4818832169085501
 30
-0.0012597885902824
 42
0.0223664821164406
  0
VERTEX
  5
3EB24
  8
ASHADE
 10
4.0576849671304274
 20
0.3664473869785492
 30
-0.0012597885902824
  0
SEQEND
  5
3EB25
  8
ASHADE
  0
POLYLINE
  5
3E96C
  8
ASHADE
 66
     1
 10
0.0
 20
0.0
 30
0.0056078730050621
  0
VERTEX
  5
3EB26
  8
ASHADE
 10
6.0536864089551292
 20
3.591585815539927
 30
0.0056078730050621
 42
0.0821659896684391
  0
VERTEX
  5
3EB27
  8
ASHADE
 10
5.8370474835368711
 20
4.3327885066777139
 30
0.0056078730050621
 42
0.1246618359806336
  0
VERTEX
  5
3EB28
  8
ASHADE
 10
5.59402258503762
 20
4.6461970806628177
 30
0.0056078730050621
 42
0.1537528865983171
  0
VERTEX
  5
3EB29
  8
ASHADE
 10
5.196501467691494
 20
4.757535518458452
 30
0.0056078730050621
 42
0.1537528865983171
  0
VERTEX
  5
3EB2A
  8
ASHADE
 10
4.7989803503453681
 20
4.6461970806628177
 30
0.0056078730050621
 42
0.1246618359806337
  0
VERTEX
  5
3EB2B
  8
ASHADE
 10
4.5559554518461178
 20
4.3327885066777148
 30
0.0056078730050621
 42
0.082165989668439
  0
VERTEX
  5
3EB2C
  8
ASHADE
 10
4.3393165264278606
 20
3.5915858155399278
 30
0.0056078730050621
  0
SEQEND
  5
3EB2D
  8
ASHADE
  0
POLYLINE
  5
3E96F
  8
ASHADE
 66
     1
 10
0.0
 20
0.0
 30
0.0056078777293274
  0
VERTEX
  5
3EB2E
  8
ASHADE
 10
6.0315807392502672
 20
3.568492059026187
 30
0.0056078777293274
  0
VERTEX
  5
3EB2F
  8
ASHADE
 10
6.036687739250266
 20
3.5713020590261881
 30
0.0056078777293274
  0
VERTEX
  5
3EB30
  8
ASHADE
 10
6.0411297392502652
 20
3.574132059026188
 30
0.0056078777293274
  0
VERTEX
  5
3EB31
  8
ASHADE
 10
6.0449047392502671
 20
3.5769720590261871
 30
0.0056078777293274
  0
VERTEX
  5
3EB32
  8
ASHADE
 10
6.048009739250265
 20
3.5798320590261881
 30
0.0056078777293274
  0
VERTEX
  5
3EB33
  8
ASHADE
 10
6.0504417392502674
 20
3.5826920590261881
 30
0.0056078777293274
  0
VERTEX
  5
3EB34
  8
ASHADE
 10
6.0521977392502651
 20
3.585562059026187
 30
0.0056078777293274
  0
VERTEX
  5
3EB35
  8
ASHADE
 10
6.053278739250266
 20
3.588432059026188
 30
0.0056078777293274
  0
VERTEX
  5
3EB36
  8
ASHADE
 10
6.0536817392502673
 20
3.5913120590261882
 30
0.0056078777293274
  0
VERTEX
  5
3EB37
  8
ASHADE
 10
6.0534077392502672
 20
3.5941920590261871
 30
0.0056078777293274
  0
VERTEX
  5
3EB38
  8
ASHADE
 10
6.0524567392502657
 20
3.5970620590261881
 30
0.0056078777293274
  0
VERTEX
  5
3EB39
  8
ASHADE
 10
6.0508287392502673
 20
3.599932059026187
 30
0.0056078777293274
  0
VERTEX
  5
3EB3A
  8
ASHADE
 10
6.048525739250266
 20
3.602802059026188
 30
0.0056078777293274
  0
VERTEX
  5
3EB3B
  8
ASHADE
 10
6.0455497392502657
 20
3.605652059026188
 30
0.0056078777293274
  0
VERTEX
  5
3EB3C
  8
ASHADE
 10
6.0419027392502658
 20
3.608502059026188
 30
0.0056078777293274
  0
VERTEX
  5
3EB3D
  8
ASHADE
 10
6.0375867392502673
 20
3.611332059026187
 30
0.0056078777293274
  0
VERTEX
  5
3EB3E
  8
ASHADE
 10
6.0326067392502658
 20
3.6141420590261859
 30
0.0056078777293274
  0
VERTEX
  5
3EB3F
  8
ASHADE
 10
6.026965739250266
 20
3.6169420590261869
 30
0.0056078777293274
  0
VERTEX
  5
3EB40
  8
ASHADE
 10
6.020668739250266
 20
3.6197220590261869
 30
0.0056078777293274
  0
VERTEX
  5
3EB41
  8
ASHADE
 10
6.0137197392502673
 20
3.6224720590261881
 30
0.0056078777293274
  0
VERTEX
  5
3EB42
  8
ASHADE
 10
6.0061257392502672
 20
3.6252120590261869
 30
0.0056078777293274
  0
VERTEX
  5
3EB43
  8
ASHADE
 10
5.9978917392502673
 20
3.6279120590261882
 30
0.0056078777293274
  0
VERTEX
  5
3EB44
  8
ASHADE
 10
5.989023739250265
 20
3.630592059026188
 30
0.0056078777293274
  0
VERTEX
  5
3EB45
  8
ASHADE
 10
5.9795297392502658
 20
3.6332320590261871
 30
0.0056078777293274
  0
VERTEX
  5
3EB46
  8
ASHADE
 10
5.9694167392502671
 20
3.635842059026186
 30
0.0056078777293274
  0
VERTEX
  5
3EB47
  8
ASHADE
 10
5.9586927392502673
 20
3.6384220590261882
 30
0.0056078777293274
  0
VERTEX
  5
3EB48
  8
ASHADE
 10
5.947366739250266
 20
3.640962059026188
 30
0.0056078777293274
  0
VERTEX
  5
3EB49
  8
ASHADE
 10
5.9354477392502671
 20
3.643462059026187
 30
0.0056078777293274
  0
VERTEX
  5
3EB4A
  8
ASHADE
 10
5.9229437392502673
 20
3.645922059026188
 30
0.0056078777293274
  0
VERTEX
  5
3EB4B
  8
ASHADE
 10
5.9098667392502673
 20
3.648342059026187
 30
0.0056078777293274
  0
VERTEX
  5
3EB4C
  8
ASHADE
 10
5.8962247392502674
 20
3.650712059026187
 30
0.0056078777293274
  0
VERTEX
  5
3EB4D
  8
ASHADE
 10
5.8820307392502658
 20
3.6530320590261871
 30
0.0056078777293274
  0
VERTEX
  5
3EB4E
  8
ASHADE
 10
5.8672947392502657
 20
3.6553120590261869
 30
0.0056078777293274
  0
VERTEX
  5
3EB4F
  8
ASHADE
 10
5.852028739250267
 20
3.657542059026186
 30
0.0056078777293274
  0
VERTEX
  5
3EB50
  8
ASHADE
 10
5.836243739250266
 20
3.6597120590261869
 30
0.0056078777293274
  0
VERTEX
  5
3EB51
  8
ASHADE
 10
5.8199537392502672
 20
3.661832059026187
 30
0.0056078777293274
  0
VERTEX
  5
3EB52
  8
ASHADE
 10
5.8031717392502671
 20
3.6639020590261882
 30
0.0056078777293274
  0
VERTEX
  5
3EB53
  8
ASHADE
 10
5.7859097392502674
 20
3.665912059026188
 30
0.0056078777293274
  0
VERTEX
  5
3EB54
  8
ASHADE
 10
5.7681817392502657
 20
3.6678520590261869
 30
0.0056078777293274
  0
VERTEX
  5
3EB55
  8
ASHADE
 10
5.7500017392502674
 20
3.669742059026186
 30
0.0056078777293274
  0
VERTEX
  5
3EB56
  8
ASHADE
 10
5.7313847392502657
 20
3.6715720590261882
 30
0.0056078777293274
  0
VERTEX
  5
3EB57
  8
ASHADE
 10
5.7123447392502671
 20
3.673332059026186
 30
0.0056078777293274
  0
VERTEX
  5
3EB58
  8
ASHADE
 10
5.6928967392502674
 20
3.6750320590261869
 30
0.0056078777293274
  0
VERTEX
  5
3EB59
  8
ASHADE
 10
5.6730567392502671
 20
3.676672059026187
 30
0.0056078777293274
  0
VERTEX
  5
3EB5A
  8
ASHADE
 10
5.6528407392502658
 20
3.6782320590261861
 30
0.0056078777293274
  0
VERTEX
  5
3EB5B
  8
ASHADE
 10
5.6322637392502672
 20
3.6797320590261871
 30
0.0056078777293274
  0
VERTEX
  5
3EB5C
  8
ASHADE
 10
5.6113417392502658
 20
3.681162059026188
 30
0.0056078777293274
  0
VERTEX
  5
3EB5D
  8
ASHADE
 10
5.5900927392502657
 20
3.682522059026188
 30
0.0056078777293274
  0
VERTEX
  5
3EB5E
  8
ASHADE
 10
5.5685317392502673
 20
3.683802059026188
 30
0.0056078777293274
  0
VERTEX
  5
3EB5F
  8
ASHADE
 10
5.5466777392502671
 20
3.685012059026187
 30
0.0056078777293274
  0
VERTEX
  5
3EB60
  8
ASHADE
 10
5.5245467392502672
 20
3.6861520590261869
 30
0.0056078777293274
  0
VERTEX
  5
3EB61
  8
ASHADE
 10
5.5021557392502674
 20
3.6872220590261882
 30
0.0056078777293274
  0
VERTEX
  5
3EB62
  8
ASHADE
 10
5.4795237392502658
 20
3.688202059026187
 30
0.0056078777293274
  0
VERTEX
  5
3EB63
  8
ASHADE
 10
5.4566677392502658
 20
3.6891220590261882
 30
0.0056078777293274
  0
VERTEX
  5
3EB64
  8
ASHADE
 10
5.4336067392502674
 20
3.6899520590261869
 30
0.0056078777293274
  0
VERTEX
  5
3EB65
  8
ASHADE
 10
5.4103577392502658
 20
3.690712059026187
 30
0.0056078777293274
  0
VERTEX
  5
3EB66
  8
ASHADE
 10
5.3869397392502671
 20
3.6913920590261871
 30
0.0056078777293274
  0
VERTEX
  5
3EB67
  8
ASHADE
 10
5.3633717392502671
 20
3.691992059026187
 30
0.0056078777293274
  0
VERTEX
  5
3EB68
  8
ASHADE
 10
5.3396717392502673
 20
3.6925120590261882
 30
0.0056078777293274
  0
VERTEX
  5
3EB69
  8
ASHADE
 10
5.3158587392502659
 20
3.6929520590261871
 30
0.0056078777293274
  0
VERTEX
  5
3EB6A
  8
ASHADE
 10
5.2919507392502672
 20
3.6933120590261881
 30
0.0056078777293274
  0
VERTEX
  5
3EB6B
  8
ASHADE
 10
5.267967739250266
 20
3.6935920590261881
 30
0.0056078777293274
  0
VERTEX
  5
3EB6C
  8
ASHADE
 10
5.2439287392502649
 20
3.6937920590261859
 30
0.0056078777293274
  0
VERTEX
  5
3EB6D
  8
ASHADE
 10
5.219853739250266
 20
3.693912059026188
 30
0.0056078777293274
  0
VERTEX
  5
3EB6E
  8
ASHADE
 10
5.1957537392502671
 20
3.6939420590261882
 30
0.0056078777293274
  0
VERTEX
  5
3EB6F
  8
ASHADE
 10
5.171663739250266
 20
3.693902059026188
 30
0.0056078777293274
  0
VERTEX
  5
3EB70
  8
ASHADE
 10
5.1475837392502672
 20
3.6937820590261881
 30
0.0056078777293274
  0
VERTEX
  5
3EB71
  8
ASHADE
 10
5.1235537392502657
 20
3.693572059026188
 30
0.0056078777293274
  0
VERTEX
  5
3EB72
  8
ASHADE
 10
5.0995737392502658
 20
3.6932920590261871
 30
0.0056078777293274
  0
VERTEX
  5
3EB73
  8
ASHADE
 10
5.075663739250265
 20
3.6929220590261882
 30
0.0056078777293274
  0
VERTEX
  5
3EB74
  8
ASHADE
 10
5.0518637392502672
 20
3.692482059026188
 30
0.0056078777293274
  0
VERTEX
  5
3EB75
  8
ASHADE
 10
5.0281637392502674
 20
3.6919520590261881
 30
0.0056078777293274
  0
VERTEX
  5
3EB76
  8
ASHADE
 10
5.0046137392502672
 20
3.6913520590261881
 30
0.0056078777293274
  0
VERTEX
  5
3EB77
  8
ASHADE
 10
4.9812037392502662
 20
3.690662059026188
 30
0.0056078777293274
  0
VERTEX
  5
3EB78
  8
ASHADE
 10
4.9579637392502658
 20
3.689902059026188
 30
0.0056078777293274
  0
VERTEX
  5
3EB79
  8
ASHADE
 10
4.9349137392502671
 20
3.6890620590261869
 30
0.0056078777293274
  0
VERTEX
  5
3EB7A
  8
ASHADE
 10
4.9120737392502658
 20
3.688142059026188
 30
0.0056078777293274
  0
VERTEX
  5
3EB7B
  8
ASHADE
 10
4.8894537392502651
 20
3.6871520590261881
 30
0.0056078777293274
  0
VERTEX
  5
3EB7C
  8
ASHADE
 10
4.8670837392502673
 20
3.6860820590261869
 30
0.0056078777293274
  0
VERTEX
  5
3EB7D
  8
ASHADE
 10
4.8449637392502671
 20
3.6849420590261861
 30
0.0056078777293274
  0
VERTEX
  5
3EB7E
  8
ASHADE
 10
4.8231237392502671
 20
3.6837220590261861
 30
0.0056078777293274
  0
VERTEX
  5
3EB7F
  8
ASHADE
 10
4.8015837392502672
 20
3.6824320590261861
 30
0.0056078777293274
  0
VERTEX
  5
3EB80
  8
ASHADE
 10
4.7803537392502671
 20
3.6810720590261869
 30
0.0056078777293274
  0
VERTEX
  5
3EB81
  8
ASHADE
 10
4.759453739250266
 20
3.679642059026186
 30
0.0056078777293274
  0
VERTEX
  5
3EB82
  8
ASHADE
 10
4.738903739250266
 20
3.678142059026186
 30
0.0056078777293274
  0
VERTEX
  5
3EB83
  8
ASHADE
 10
4.718703739250266
 20
3.6765720590261881
 30
0.0056078777293274
  0
VERTEX
  5
3EB84
  8
ASHADE
 10
4.6988937392502672
 20
3.674932059026188
 30
0.0056078777293274
  0
VERTEX
  5
3EB85
  8
ASHADE
 10
4.6794637392502674
 20
3.6732320590261871
 30
0.0056078777293274
  0
VERTEX
  5
3EB86
  8
ASHADE
 10
4.660453739250265
 20
3.6714620590261871
 30
0.0056078777293274
  0
VERTEX
  5
3EB87
  8
ASHADE
 10
4.6418637392502671
 20
3.6696320590261871
 30
0.0056078777293274
  0
VERTEX
  5
3EB88
  8
ASHADE
 10
4.623713739250265
 20
3.6677420590261871
 30
0.0056078777293274
  0
VERTEX
  5
3EB89
  8
ASHADE
 10
4.6060137392502671
 20
3.665782059026188
 30
0.0056078777293274
  0
VERTEX
  5
3EB8A
  8
ASHADE
 10
4.5887737392502652
 20
3.6637720590261882
 30
0.0056078777293274
  0
VERTEX
  5
3EB8B
  8
ASHADE
 10
4.5720237392502652
 20
3.6617020590261871
 30
0.0056078777293274
  0
VERTEX
  5
3EB8C
  8
ASHADE
 10
4.5557637392502661
 20
3.6595820590261861
 30
0.0056078777293274
  0
VERTEX
  5
3EB8D
  8
ASHADE
 10
4.5400137392502673
 20
3.6574020590261882
 30
0.0056078777293274
  0
VERTEX
  5
3EB8E
  8
ASHADE
 10
4.5247837392502657
 20
3.6551720590261869
 30
0.0056078777293274
  0
VERTEX
  5
3EB8F
  8
ASHADE
 10
4.5100737392502648
 20
3.6528920590261871
 30
0.0056078777293274
  0
VERTEX
  5
3EB90
  8
ASHADE
 10
4.4959137392502662
 20
3.6505620590261869
 30
0.0056078777293274
  0
VERTEX
  5
3EB91
  8
ASHADE
 10
4.4823137392502659
 20
3.6481920590261869
 30
0.0056078777293274
  0
VERTEX
  5
3EB92
  8
ASHADE
 10
4.4692637392502652
 20
3.645772059026188
 30
0.0056078777293274
  0
VERTEX
  5
3EB93
  8
ASHADE
 10
4.4568037392502671
 20
3.6433120590261869
 30
0.0056078777293274
  0
VERTEX
  5
3EB94
  8
ASHADE
 10
4.444913739250266
 20
3.6408020590261869
 30
0.0056078777293274
  0
VERTEX
  5
3EB95
  8
ASHADE
 10
4.4336237392502671
 20
3.638262059026188
 30
0.0056078777293274
  0
VERTEX
  5
3EB96
  8
ASHADE
 10
4.4229437392502673
 20
3.635682059026188
 30
0.0056078777293274
  0
VERTEX
  5
3EB97
  8
ASHADE
 10
4.4128637392502652
 20
3.6330720590261869
 30
0.0056078777293274
  0
VERTEX
  5
3EB98
  8
ASHADE
 10
4.403413739250265
 20
3.6304220590261882
 30
0.0056078777293274
  0
VERTEX
  5
3EB99
  8
ASHADE
 10
4.3945837392502671
 20
3.6277420590261871
 30
0.0056078777293274
  0
VERTEX
  5
3EB9A
  8
ASHADE
 10
4.3863837392502658
 20
3.625042059026188
 30
0.0056078777293274
  0
VERTEX
  5
3EB9B
  8
ASHADE
 10
4.3788337392502674
 20
3.622302059026187
 30
0.0056078777293274
  0
VERTEX
  5
3EB9C
  8
ASHADE
 10
4.371923739250267
 20
3.619552059026188
 30
0.0056078777293274
  0
VERTEX
  5
3EB9D
  8
ASHADE
 10
4.3656637392502651
 20
3.616772059026188
 30
0.0056078777293274
  0
VERTEX
  5
3EB9E
  8
ASHADE
 10
4.3600637392502657
 20
3.613972059026187
 30
0.0056078777293274
  0
VERTEX
  5
3EB9F
  8
ASHADE
 10
4.3551237392502671
 20
3.6111520590261881
 30
0.0056078777293274
  0
VERTEX
  5
3EBA0
  8
ASHADE
 10
4.3508537392502671
 20
3.6083220590261882
 30
0.0056078777293274
  0
VERTEX
  5
3EBA1
  8
ASHADE
 10
4.3472437392502652
 20
3.605482059026186
 30
0.0056078777293274
  0
VERTEX
  5
3EBA2
  8
ASHADE
 10
4.3443137392502651
 20
3.6026220590261882
 30
0.0056078777293274
  0
VERTEX
  5
3EBA3
  8
ASHADE
 10
4.3420537392502672
 20
3.5997620590261881
 30
0.0056078777293274
  0
VERTEX
  5
3EBA4
  8
ASHADE
 10
4.3404637392502652
 20
3.596882059026187
 30
0.0056078777293274
  0
VERTEX
  5
3EBA5
  8
ASHADE
 10
4.3395537392502659
 20
3.5940120590261881
 30
0.0056078777293274
  0
VERTEX
  5
3EBA6
  8
ASHADE
 10
4.3393237392502648
 20
3.591132059026187
 30
0.0056078777293274
  0
VERTEX
  5
3EBA7
  8
ASHADE
 10
4.3397737392502673
 20
3.588252059026189
 30
0.0056078777293274
  0
VERTEX
  5
3EBA8
  8
ASHADE
 10
4.3408937392502658
 20
3.585382059026188
 30
0.0056078777293274
  0
VERTEX
  5
3EBA9
  8
ASHADE
 10
4.342693739250266
 20
3.582512059026187
 30
0.0056078777293274
  0
VERTEX
  5
3EBAA
  8
ASHADE
 10
4.3451637392502658
 20
3.5796520590261882
 30
0.0056078777293274
  0
VERTEX
  5
3EBAB
  8
ASHADE
 10
4.3483137392502673
 20
3.5767920590261859
 30
0.0056078777293274
  0
VERTEX
  5
3EBAC
  8
ASHADE
 10
4.3521237392502652
 20
3.5739520590261882
 30
0.0056078777293274
  0
VERTEX
  5
3EBAD
  8
ASHADE
 10
4.3566137392502657
 20
3.571132059026187
 30
0.0056078777293274
  0
VERTEX
  5
3EBAE
  8
ASHADE
 10
4.3617537392502674
 20
3.5683120590261881
 30
0.0056078777293274
  0
SEQEND
  5
3EBAF
  8
ASHADE
  0
POLYLINE
  5
3E9EF
  8
ASHADE
 66
     1
 10
0.0
 20
0.0
 30
0.0056413077293274
 70
     1
  0
VERTEX
  5
3EBB0
  8
ASHADE
 10
4.387993739250267
 20
3.537112059026188
 30
0.0056413077293274
  0
VERTEX
  5
3EBB1
  8
ASHADE
 10
4.3909237392502671
 20
3.5321120590261881
 30
0.0056413077293274
  0
VERTEX
  5
3EBB2
  8
ASHADE
 10
4.3957837392502652
 20
3.527142059026187
 30
0.0056413077293274
  0
VERTEX
  5
3EBB3
  8
ASHADE
 10
4.4025737392502649
 20
3.522202059026188
 30
0.0056413077293274
  0
VERTEX
  5
3EBB4
  8
ASHADE
 10
4.4112837392502673
 20
3.517322059026188
 30
0.0056413077293274
  0
VERTEX
  5
3EBB5
  8
ASHADE
 10
4.4218737392502652
 20
3.512492059026187
 30
0.0056413077293274
  0
VERTEX
  5
3EBB6
  8
ASHADE
 10
4.4343437392502674
 20
3.5077320590261869
 30
0.0056413077293274
  0
VERTEX
  5
3EBB7
  8
ASHADE
 10
4.448643739250266
 20
3.5030520590261882
 30
0.0056413077293274
  0
VERTEX
  5
3EBB8
  8
ASHADE
 10
4.4647437392502649
 20
3.4984720590261871
 30
0.0056413077293274
  0
VERTEX
  5
3EBB9
  8
ASHADE
 10
4.4826037392502673
 20
3.494002059026188
 30
0.0056413077293274
  0
VERTEX
  5
3EBBA
  8
ASHADE
 10
4.502183739250265
 20
3.489642059026187
 30
0.0056413077293274
  0
VERTEX
  5
3EBBB
  8
ASHADE
 10
4.5234437392502649
 20
3.485402059026188
 30
0.0056413077293274
  0
VERTEX
  5
3EBBC
  8
ASHADE
 10
4.5463237392502673
 20
3.481312059026187
 30
0.0056413077293274
  0
VERTEX
  5
3EBBD
  8
ASHADE
 10
4.5707637392502658
 20
3.4773620590261869
 30
0.0056413077293274
  0
VERTEX
  5
3EBBE
  8
ASHADE
 10
4.5967137392502657
 20
3.4735620590261882
 30
0.0056413077293274
  0
VERTEX
  5
3EBBF
  8
ASHADE
 10
4.6241137392502658
 20
3.469932059026188
 30
0.0056413077293274
  0
VERTEX
  5
3EBC0
  8
ASHADE
 10
4.6528837392502673
 20
3.466482059026188
 30
0.0056413077293274
  0
VERTEX
  5
3EBC1
  8
ASHADE
 10
4.6829737392502651
 20
3.463212059026187
 30
0.0056413077293274
  0
VERTEX
  5
3EBC2
  8
ASHADE
 10
4.714293739250266
 20
3.4601220590261881
 30
0.0056413077293274
  0
VERTEX
  5
3EBC3
  8
ASHADE
 10
4.7467737392502674
 20
3.457242059026187
 30
0.0056413077293274
  0
VERTEX
  5
3EBC4
  8
ASHADE
 10
4.7803437392502648
 20
3.4545620590261881
 30
0.0056413077293274
  0
VERTEX
  5
3EBC5
  8
ASHADE
 10
4.8149137392502652
 20
3.4520920590261861
 30
0.0056413077293274
  0
VERTEX
  5
3EBC6
  8
ASHADE
 10
4.8504037392502672
 20
3.449842059026186
 30
0.0056413077293274
  0
VERTEX
  5
3EBC7
  8
ASHADE
 10
4.8867237392502672
 20
3.4478120590261869
 30
0.0056413077293274
  0
VERTEX
  5
3EBC8
  8
ASHADE
 10
4.9237937392502671
 20
3.4460020590261871
 30
0.0056413077293274
  0
VERTEX
  5
3EBC9
  8
ASHADE
 10
4.961523739250266
 20
3.444432059026187
 30
0.0056413077293274
  0
VERTEX
  5
3EBCA
  8
ASHADE
 10
4.999813739250266
 20
3.443092059026188
 30
0.0056413077293274
  0
VERTEX
  5
3EBCB
  8
ASHADE
 10
5.0385837392502673
 20
3.4420020590261871
 30
0.0056413077293274
  0
VERTEX
  5
3EBCC
  8
ASHADE
 10
5.0777237392502652
 20
3.4411420590261872
 30
0.0056413077293274
  0
VERTEX
  5
3EBCD
  8
ASHADE
 10
5.1171537392502673
 20
3.4405320590261881
 30
0.0056413077293274
  0
VERTEX
  5
3EBCE
  8
ASHADE
 10
5.1567837392502671
 20
3.440162059026187
 30
0.0056413077293274
  0
VERTEX
  5
3EBCF
  8
ASHADE
 10
5.1965037392502671
 20
3.440032059026187
 30
0.0056413077293274
  0
VERTEX
  5
3EBD0
  8
ASHADE
 10
5.2362237392502671
 20
3.440162059026187
 30
0.0056413077293274
  0
VERTEX
  5
3EBD1
  8
ASHADE
 10
5.2758437392502673
 20
3.4405320590261881
 30
0.0056413077293274
  0
VERTEX
  5
3EBD2
  8
ASHADE
 10
5.3152757392502652
 20
3.4411420590261872
 30
0.0056413077293274
  0
VERTEX
  5
3EBD3
  8
ASHADE
 10
5.3544227392502659
 20
3.4420020590261871
 30
0.0056413077293274
  0
VERTEX
  5
3EBD4
  8
ASHADE
 10
5.3931877392502674
 20
3.443092059026188
 30
0.0056413077293274
  0
VERTEX
  5
3EBD5
  8
ASHADE
 10
5.4314797392502658
 20
3.444432059026187
 30
0.0056413077293274
  0
VERTEX
  5
3EBD6
  8
ASHADE
 10
5.469205739250266
 20
3.4460020590261871
 30
0.0056413077293274
  0
VERTEX
  5
3EBD7
  8
ASHADE
 10
5.5062747392502658
 20
3.4478020590261882
 30
0.0056413077293274
  0
VERTEX
  5
3EBD8
  8
ASHADE
 10
5.5425977392502652
 20
3.449842059026186
 30
0.0056413077293274
  0
VERTEX
  5
3EBD9
  8
ASHADE
 10
5.5780867392502671
 20
3.4520920590261861
 30
0.0056413077293274
  0
VERTEX
  5
3EBDA
  8
ASHADE
 10
5.6126557392502674
 20
3.4545620590261881
 30
0.0056413077293274
  0
VERTEX
  5
3EBDB
  8
ASHADE
 10
5.6462227392502671
 20
3.457242059026187
 30
0.0056413077293274
  0
VERTEX
  5
3EBDC
  8
ASHADE
 10
5.6787067392502673
 20
3.4601220590261881
 30
0.0056413077293274
  0
VERTEX
  5
3EBDD
  8
ASHADE
 10
5.7100287392502658
 20
3.463212059026187
 30
0.0056413077293274
  0
VERTEX
  5
3EBDE
  8
ASHADE
 10
5.7401137392502672
 20
3.466482059026188
 30
0.0056413077293274
  0
VERTEX
  5
3EBDF
  8
ASHADE
 10
5.768888739250265
 20
3.469932059026188
 30
0.0056413077293274
  0
VERTEX
  5
3EBE0
  8
ASHADE
 10
5.7962847392502672
 20
3.4735620590261882
 30
0.0056413077293274
  0
VERTEX
  5
3EBE1
  8
ASHADE
 10
5.8222367392502674
 20
3.4773620590261869
 30
0.0056413077293274
  0
VERTEX
  5
3EBE2
  8
ASHADE
 10
5.8466807392502673
 20
3.481312059026187
 30
0.0056413077293274
  0
VERTEX
  5
3EBE3
  8
ASHADE
 10
5.8695577392502658
 20
3.485402059026188
 30
0.0056413077293274
  0
VERTEX
  5
3EBE4
  8
ASHADE
 10
5.890813739250266
 20
3.489642059026187
 30
0.0056413077293274
  0
VERTEX
  5
3EBE5
  8
ASHADE
 10
5.910397739250266
 20
3.494002059026188
 30
0.0056413077293274
  0
VERTEX
  5
3EBE6
  8
ASHADE
 10
5.9282607392502671
 20
3.4984720590261871
 30
0.0056413077293274
  0
VERTEX
  5
3EBE7
  8
ASHADE
 10
5.944361739250267
 20
3.5030520590261882
 30
0.0056413077293274
  0
VERTEX
  5
3EBE8
  8
ASHADE
 10
5.9586607392502673
 20
3.5077320590261869
 30
0.0056413077293274
  0
VERTEX
  5
3EBE9
  8
ASHADE
 10
5.971123739250265
 20
3.512492059026187
 30
0.0056413077293274
  0
VERTEX
  5
3EBEA
  8
ASHADE
 10
5.9817207392502674
 20
3.517312059026187
 30
0.0056413077293274
  0
VERTEX
  5
3EBEB
  8
ASHADE
 10
5.9904257392502673
 20
3.522202059026188
 30
0.0056413077293274
  0
VERTEX
  5
3EBEC
  8
ASHADE
 10
5.9972187392502674
 20
3.527142059026187
 30
0.0056413077293274
  0
VERTEX
  5
3EBED
  8
ASHADE
 10
6.002081739250265
 20
3.5321120590261881
 30
0.0056413077293274
  0
VERTEX
  5
3EBEE
  8
ASHADE
 10
6.005004739250265
 20
3.537112059026188
 30
0.0056413077293274
  0
VERTEX
  5
3EBEF
  8
ASHADE
 10
6.0059797392502672
 20
3.542122059026187
 30
0.0056413077293274
  0
VERTEX
  5
3EBF0
  8
ASHADE
 10
6.005004739250265
 20
3.547132059026187
 30
0.0056413077293274
  0
VERTEX
  5
3EBF1
  8
ASHADE
 10
6.002081739250265
 20
3.552132059026186
 30
0.0056413077293274
  0
VERTEX
  5
3EBF2
  8
ASHADE
 10
5.9972187392502674
 20
3.557102059026187
 30
0.0056413077293274
  0
VERTEX
  5
3EBF3
  8
ASHADE
 10
5.9904257392502673
 20
3.562042059026187
 30
0.0056413077293274
  0
VERTEX
  5
3EBF4
  8
ASHADE
 10
5.9817207392502674
 20
3.566922059026187
 30
0.0056413077293274
  0
VERTEX
  5
3EBF5
  8
ASHADE
 10
5.971123739250265
 20
3.571752059026188
 30
0.0056413077293274
  0
VERTEX
  5
3EBF6
  8
ASHADE
 10
5.9586607392502673
 20
3.5765120590261881
 30
0.0056413077293274
  0
VERTEX
  5
3EBF7
  8
ASHADE
 10
5.944361739250267
 20
3.5811920590261881
 30
0.0056413077293274
  0
VERTEX
  5
3EBF8
  8
ASHADE
 10
5.9282617392502672
 20
3.585772059026187
 30
0.0056413077293274
  0
VERTEX
  5
3EBF9
  8
ASHADE
 10
5.910397739250266
 20
3.590242059026187
 30
0.0056413077293274
  0
VERTEX
  5
3EBFA
  8
ASHADE
 10
5.8908147392502652
 20
3.594602059026188
 30
0.0056413077293274
  0
VERTEX
  5
3EBFB
  8
ASHADE
 10
5.8695577392502658
 20
3.598842059026186
 30
0.0056413077293274
  0
VERTEX
  5
3EBFC
  8
ASHADE
 10
5.8466807392502673
 20
3.602932059026188
 30
0.0056413077293274
  0
VERTEX
  5
3EBFD
  8
ASHADE
 10
5.8222367392502674
 20
3.6068820590261881
 30
0.0056413077293274
  0
VERTEX
  5
3EBFE
  8
ASHADE
 10
5.7962857392502674
 20
3.6106820590261881
 30
0.0056413077293274
  0
VERTEX
  5
3EBFF
  8
ASHADE
 10
5.768888739250265
 20
3.614302059026187
 30
0.0056413077293274
  0
VERTEX
  5
3EC00
  8
ASHADE
 10
5.7401137392502672
 20
3.617762059026187
 30
0.0056413077293274
  0
VERTEX
  5
3EC01
  8
ASHADE
 10
5.7100287392502658
 20
3.6210320590261871
 30
0.0056413077293274
  0
VERTEX
  5
3EC02
  8
ASHADE
 10
5.6787067392502673
 20
3.6241220590261869
 30
0.0056413077293274
  0
VERTEX
  5
3EC03
  8
ASHADE
 10
5.6462237392502672
 20
3.627002059026188
 30
0.0056413077293274
  0
VERTEX
  5
3EC04
  8
ASHADE
 10
5.6126567392502658
 20
3.6296820590261869
 30
0.0056413077293274
  0
VERTEX
  5
3EC05
  8
ASHADE
 10
5.5780867392502671
 20
3.632152059026188
 30
0.0056413077293274
  0
VERTEX
  5
3EC06
  8
ASHADE
 10
5.5425977392502652
 20
3.6344020590261881
 30
0.0056413077293274
  0
VERTEX
  5
3EC07
  8
ASHADE
 10
5.5062747392502658
 20
3.636432059026188
 30
0.0056413077293274
  0
VERTEX
  5
3EC08
  8
ASHADE
 10
5.469205739250266
 20
3.638242059026187
 30
0.0056413077293274
  0
VERTEX
  5
3EC09
  8
ASHADE
 10
5.431480739250266
 20
3.639812059026188
 30
0.0056413077293274
  0
VERTEX
  5
3EC0A
  8
ASHADE
 10
5.3931887392502658
 20
3.641152059026187
 30
0.0056413077293274
  0
VERTEX
  5
3EC0B
  8
ASHADE
 10
5.3544227392502659
 20
3.642242059026187
 30
0.0056413077293274
  0
VERTEX
  5
3EC0C
  8
ASHADE
 10
5.3152757392502652
 20
3.6431020590261882
 30
0.0056413077293274
  0
VERTEX
  5
3EC0D
  8
ASHADE
 10
5.2758437392502673
 20
3.6437120590261882
 30
0.0056413077293274
  0
VERTEX
  5
3EC0E
  8
ASHADE
 10
5.2362237392502671
 20
3.644082059026188
 30
0.0056413077293274
  0
VERTEX
  5
3EC0F
  8
ASHADE
 10
5.1965037392502671
 20
3.6442120590261871
 30
0.0056413077293274
  0
VERTEX
  5
3EC10
  8
ASHADE
 10
5.1567837392502671
 20
3.644082059026188
 30
0.0056413077293274
  0
VERTEX
  5
3EC11
  8
ASHADE
 10
5.1171537392502673
 20
3.6437120590261882
 30
0.0056413077293274
  0
VERTEX
  5
3EC12
  8
ASHADE
 10
5.0777237392502652
 20
3.6431020590261882
 30
0.0056413077293274
  0
VERTEX
  5
3EC13
  8
ASHADE
 10
5.0385837392502673
 20
3.642242059026187
 30
0.0056413077293274
  0
VERTEX
  5
3EC14
  8
ASHADE
 10
4.999813739250266
 20
3.641152059026187
 30
0.0056413077293274
  0
VERTEX
  5
3EC15
  8
ASHADE
 10
4.961523739250266
 20
3.639812059026188
 30
0.0056413077293274
  0
VERTEX
  5
3EC16
  8
ASHADE
 10
4.9237937392502671
 20
3.638242059026187
 30
0.0056413077293274
  0
VERTEX
  5
3EC17
  8
ASHADE
 10
4.8867237392502672
 20
3.6364420590261881
 30
0.0056413077293274
  0
VERTEX
  5
3EC18
  8
ASHADE
 10
4.8504037392502672
 20
3.6344020590261881
 30
0.0056413077293274
  0
VERTEX
  5
3EC19
  8
ASHADE
 10
4.8149137392502652
 20
3.632152059026188
 30
0.0056413077293274
  0
VERTEX
  5
3EC1A
  8
ASHADE
 10
4.7803437392502648
 20
3.6296820590261869
 30
0.0056413077293274
  0
VERTEX
  5
3EC1B
  8
ASHADE
 10
4.7467737392502674
 20
3.627002059026188
 30
0.0056413077293274
  0
VERTEX
  5
3EC1C
  8
ASHADE
 10
4.714293739250266
 20
3.6241220590261869
 30
0.0056413077293274
  0
VERTEX
  5
3EC1D
  8
ASHADE
 10
4.6829737392502651
 20
3.6210320590261871
 30
0.0056413077293274
  0
VERTEX
  5
3EC1E
  8
ASHADE
 10
4.6528837392502673
 20
3.617762059026187
 30
0.0056413077293274
  0
VERTEX
  5
3EC1F
  8
ASHADE
 10
4.6241137392502658
 20
3.614312059026187
 30
0.0056413077293274
  0
VERTEX
  5
3EC20
  8
ASHADE
 10
4.5967137392502657
 20
3.6106820590261881
 30
0.0056413077293274
  0
VERTEX
  5
3EC21
  8
ASHADE
 10
4.5707637392502658
 20
3.6068820590261881
 30
0.0056413077293274
  0
VERTEX
  5
3EC22
  8
ASHADE
 10
4.5463237392502673
 20
3.602932059026188
 30
0.0056413077293274
  0
VERTEX
  5
3EC23
  8
ASHADE
 10
4.5234437392502649
 20
3.598842059026186
 30
0.0056413077293274
  0
VERTEX
  5
3EC24
  8
ASHADE
 10
4.502183739250265
 20
3.594602059026188
 30
0.0056413077293274
  0
VERTEX
  5
3EC25
  8
ASHADE
 10
4.4826037392502673
 20
3.590242059026187
 30
0.0056413077293274
  0
VERTEX
  5
3EC26
  8
ASHADE
 10
4.4647437392502649
 20
3.585772059026187
 30
0.0056413077293274
  0
VERTEX
  5
3EC27
  8
ASHADE
 10
4.448643739250266
 20
3.5811920590261881
 30
0.0056413077293274
  0
VERTEX
  5
3EC28
  8
ASHADE
 10
4.4343437392502674
 20
3.5765120590261881
 30
0.0056413077293274
  0
VERTEX
  5
3EC29
  8
ASHADE
 10
4.4218737392502652
 20
3.571752059026188
 30
0.0056413077293274
  0
VERTEX
  5
3EC2A
  8
ASHADE
 10
4.4112837392502673
 20
3.566932059026187
 30
0.0056413077293274
  0
VERTEX
  5
3EC2B
  8
ASHADE
 10
4.4025737392502649
 20
3.562042059026187
 30
0.0056413077293274
  0
VERTEX
  5
3EC2C
  8
ASHADE
 10
4.3957837392502652
 20
3.557102059026187
 30
0.0056413077293274
  0
VERTEX
  5
3EC2D
  8
ASHADE
 10
4.3909237392502671
 20
3.552132059026186
 30
0.0056413077293274
  0
VERTEX
  5
3EC2E
  8
ASHADE
 10
4.387993739250267
 20
3.547132059026187
 30
0.0056413077293274
  0
VERTEX
  5
3EC2F
  8
ASHADE
 10
4.3870237392502673
 20
3.542122059026187
 30
0.0056413077293274
  0
SEQEND
  5
3EC30
  8
ASHADE
  0
POLYLINE
  5
3EA72
  8
ASHADE
 66
     1
 10
0.0
 20
0.0
 30
-0.0012597885902824
  0
VERTEX
  5
3EC31
  8
ASHADE
 10
6.335317968252574
 20
0.366447386978539
 30
-0.0012597885902824
 42
0.0223664821164406
  0
VERTEX
  5
3EC32
  8
ASHADE
 10
5.89895352991251
 20
3.4818832169085452
 30
-0.0012597885902824
  0
SEQEND
  5
3EC33
  8
ASHADE
  0
POLYLINE
  5
3EA73
  8
ASHADE
 66
     1
 10
0.0
 20
0.0
 30
0.0
  0
VERTEX
  5
3EC34
  8
ASHADE
 10
2.1816554046273202
 20
0.3543299570865095
 30
0.0
  0
VERTEX
  5
3EC35
  8
ASHADE
 10
0.3380240697264645
 20
0.3543299570865095
 30
0.0
  0
VERTEX
  5
3EC36
  8
ASHADE
 10
0.3015514973402039
 20
0.3543299424200386
 30
0.0
 42
0.2499594101516561
  0
VERTEX
  5
3EC37
  8
ASHADE
 10
0.2373255090713471
 20
0.2913379320948461
 30
0.0
  0
VERTEX
  5
3EC38
  8
ASHADE
 10
0.2373255090713471
 20
0.2362199817261796
 30
0.0
  0
VERTEX
  5
3EC39
  8
ASHADE
 10
0.1890749416351353
 20
0.2362199817261716
 30
0.0
 42
0.2499584634824056
  0
VERTEX
  5
3EC3A
  8
ASHADE
 10
0.1248484840393029
 20
0.1732279714009781
 30
0.0
  0
VERTEX
  5
3EC3B
  8
ASHADE
 10
0.1248484840393029
 20
0.1181099843661375
 30
0.0
  0
VERTEX
  5
3EC3C
  8
ASHADE
 10
0.0642259882688474
 20
0.1181099770329055
 30
0.0
 42
0.2499594241704845
  0
VERTEX
  5
3EC3D
  8
ASHADE
 10
0.0
 20
0.0551179740409484
 30
0.0
  0
VERTEX
  5
3EC3E
  8
ASHADE
 10
0.0
 20
0.0
 30
0.0
  0
VERTEX
  5
3EC3F
  8
ASHADE
 10
1.259839737176891
 20
0.0
 30
0.0
  0
VERTEX
  5
3EC40
  8
ASHADE
 10
2.519679474353782
 20
0.0
 30
0.0
  0
VERTEX
  5
3EC41
  8
ASHADE
 10
2.5196794743537838
 20
0.055117974040946
 30
0.0
 42
0.2499594241704851
  0
VERTEX
  5
3EC42
  8
ASHADE
 10
2.45545348608493
 20
0.1181099770329101
 30
0.0
  0
VERTEX
  5
3EC43
  8
ASHADE
 10
2.394830990314476
 20
0.1181099843661375
 30
0.0
  0
VERTEX
  5
3EC44
  8
ASHADE
 10
2.3948309903144782
 20
0.1732279714009784
 30
0.0
 42
0.2499584634824049
  0
VERTEX
  5
3EC45
  8
ASHADE
 10
2.3306045327186511
 20
0.2362199817261796
 30
0.0
  0
VERTEX
  5
3EC46
  8
ASHADE
 10
2.2823539652824341
 20
0.2362199817261796
 30
0.0
  0
VERTEX
  5
3EC47
  8
ASHADE
 10
2.2823539652824381
 20
0.2913379320948452
 30
0.0
 42
0.2499594101516565
  0
VERTEX
  5
3EC48
  8
ASHADE
 10
2.2181279770135851
 20
0.3543299424200441
 30
0.0
  0
VERTEX
  5
3EC49
  8
ASHADE
 10
2.1816554046273162
 20
0.3543299570865086
 30
0.0
 42
-0.1357936747604439
  0
VERTEX
  5
3EC4A
  8
ASHADE
 10
1.8280008693933441
 20
0.8784199225603675
 30
0.0
 42
-0.091808950973119
  0
VERTEX
  5
3EC4B
  8
ASHADE
 10
1.6669790089130381
 20
1.5535050617306581
 30
0.0
  0
VERTEX
  5
3EC4C
  8
ASHADE
 10
1.679193243384361
 20
1.8066620255856869
 30
0.0
 42
0.5423567394963382
  0
VERTEX
  5
3EC4D
  8
ASHADE
 10
1.697706784486769
 20
2.02319693641356
 30
0.0
  0
VERTEX
  5
3EC4E
  8
ASHADE
 10
0.821972689867019
 20
2.02319693641356
 30
0.0
 42
0.1182518442370882
  0
VERTEX
  5
3EC4F
  8
ASHADE
 10
0.5498545643091206
 20
2.6074993965475932
 30
0.0
 42
-0.4503055329897985
  0
VERTEX
  5
3EC50
  8
ASHADE
 10
0.6150314090251898
 20
2.7620961707680558
 30
0.0
 42
-0.256224811467257
  0
VERTEX
  5
3EC51
  8
ASHADE
 10
0.7232277027368486
 20
2.8849516578166821
 30
0.0
 42
-0.3141855145604235
  0
VERTEX
  5
3EC52
  8
ASHADE
 10
0.8385427479743974
 20
2.9765389392822121
 30
0.0
  0
VERTEX
  5
3EC53
  8
ASHADE
 10
0.8490214112997069
 20
2.9765391739456981
 30
0.0
 42
0.1119630957996463
  0
VERTEX
  5
3EC54
  8
ASHADE
 10
0.9724769328832628
 20
3.2356921418755391
 30
0.0
 42
0.2566248674981242
  0
VERTEX
  5
3EC55
  8
ASHADE
 10
0.9230619652271197
 20
3.354349029824053
 30
0.0
 42
0.179666282510529
  0
VERTEX
  5
3EC56
  8
ASHADE
 10
0.7109210108518516
 20
3.3637372119276852
 30
0.0
 42
-0.5122604648077327
  0
VERTEX
  5
3EC57
  8
ASHADE
 10
0.6036178463697344
 20
3.3781575178354122
 30
0.0
 42
0.1285402108138236
  0
VERTEX
  5
3EC58
  8
ASHADE
 10
0.2806777108907608
 20
3.4824771707504159
 30
0.0
 42
0.0411796013151439
  0
VERTEX
  5
3EC59
  8
ASHADE
 10
-0.8536794815063522
 20
3.4579553057401529
 30
0.0
 42
-0.1507073000882678
  0
VERTEX
  5
3EC5A
  8
ASHADE
 10
-1.554806107759483
 20
3.5858412739484682
 30
0.0
  0
VERTEX
  5
3EC5B
  8
ASHADE
 10
-1.5122569243908011
 20
4.1396410007922997
 30
0.0
 42
0.5564168597757109
  0
VERTEX
  5
3EC5C
  8
ASHADE
 10
-1.602975012302406
 20
4.1454737964122632
 30
0.0
  0
VERTEX
  5
3EC5D
  8
ASHADE
 10
-1.645523257017143
 20
3.5916736002414571
 30
0.0
 42
0.6581947837838175
  0
VERTEX
  5
3EC5E
  8
ASHADE
 10
-1.554806107759483
 20
3.5858412739484651
 30
0.0
  0
SEQEND
  5
3EC5F
  8
ASHADE
  0
POLYLINE
  5
3EA74
  8
ASHADE
 66
     1
 10
0.0
 20
0.0
 30
0.0
  0
VERTEX
  5
3EC60
  8
ASHADE
 10
0.7232277027368541
 20
2.8849516578166789
 30
0.0
  0
VERTEX
  5
3EC61
  8
ASHADE
 10
1.796451771616933
 20
2.8849516578166821
 30
0.0
 42
0.3141855145604237
  0
VERTEX
  5
3EC62
  8
ASHADE
 10
1.681136726379393
 20
2.9765389392822121
 30
0.0
  0
VERTEX
  5
3EC63
  8
ASHADE
 10
1.6706580630540839
 20
2.9765391739456999
 30
0.0
 42
-0.1119630957996455
  0
VERTEX
  5
3EC64
  8
ASHADE
 10
1.5472025414705231
 20
3.2356921418755422
 30
0.0
  0
VERTEX
  5
3EC65
  8
ASHADE
 10
1.5175607885122231
 20
3.4544421586840488
 30
0.0
 42
0.1183167827830561
  0
VERTEX
  5
3EC66
  8
ASHADE
 10
1.260877419114109
 20
3.8193119659273989
 30
0.0
 42
0.1291464178918952
  0
VERTEX
  5
3EC67
  8
ASHADE
 10
0.8163759657144529
 20
3.972669482275756
 30
0.0
 42
0.5679737636832004
  0
VERTEX
  5
3EC68
  8
ASHADE
 10
0.6304342509508081
 20
3.9923643193691101
 30
0.0
 42
-0.1663485063088895
  0
VERTEX
  5
3EC69
  8
ASHADE
 10
0.3002509922981351
 20
3.9307775913327112
 30
0.0
 42
-0.0245368604204392
  0
VERTEX
  5
3EC6A
  8
ASHADE
 10
-0.8062971689701107
 20
4.1355616107433164
 30
0.0
 42
0.1097577293917709
  0
VERTEX
  5
3EC6B
  8
ASHADE
 10
-1.512256924390792
 20
4.139641000792297
 30
0.0
  0
SEQEND
  5
3EC6C
  8
ASHADE
  0
POLYLINE
  5
3EA75
  8
ASHADE
 66
     1
 10
0.0
 20
0.0
 30
0.0
  0
VERTEX
  5
3EC6D
  8
ASHADE
 10
-1.6029750123024
 20
4.1454737964122668
 30
0.0
 42
0.2435661011276312
  0
VERTEX
  5
3EC6E
  8
ASHADE
 10
-1.7536172658472211
 20
3.875581923350607
 30
0.0
 42
0.244978748717314
  0
VERTEX
  5
3EC6F
  8
ASHADE
 10
-1.645523257017143
 20
3.5916736002414562
 30
0.0
  0
SEQEND
  5
3EC70
  8
ASHADE
  0
POLYLINE
  5
3EA78
  8
ASHADE
 66
     1
 10
0.0
 20
0.0
 30
0.0
  0
VERTEX
  5
3EC71
  8
ASHADE
 10
0.8163759657144549
 20
3.9726694822757631
 30
0.0
  0
VERTEX
  5
3EC72
  8
ASHADE
 10
0.8084284087398979
 20
3.3783713795719752
 30
0.0
  0
SEQEND
  5
3EC73
  8
ASHADE
  0
POLYLINE
  5
3EA7F
  8
ASHADE
 66
     1
 10
0.0
 20
0.0
 30
0.0
  0
VERTEX
  5
3EC74
  8
ASHADE
 10
0.3380240697264652
 20
0.3543299570865063
 30
0.0
 42
0.1357936747604431
  0
VERTEX
  5
3EC75
  8
ASHADE
 10
0.6916786049604362
 20
0.8784199225603613
 30
0.0
 42
0.0918089509731187
  0
VERTEX
  5
3EC76
  8
ASHADE
 10
0.852700465440752
 20
1.5535050617306581
 30
0.0
  0
VERTEX
  5
3EC77
  8
ASHADE
 10
0.8404862309694252
 20
1.806662025585682
 30
0.0
  0
VERTEX
  5
3EC78
  8
ASHADE
 10
1.679193243384363
 20
1.806662025585682
 30
0.0
  0
SEQEND
  5
3EC79
  8
ASHADE
  0
POLYLINE
  5
3EA80
  8
ASHADE
 66
     1
 10
0.0
 20
0.0
 30
0.0
  0
VERTEX
  5
3EC7A
  8
ASHADE
 10
0.8219726898670213
 20
2.0231969364135618
 30
0.0
 42
0.542356739496337
  0
VERTEX
  5
3EC7B
  8
ASHADE
 10
0.8404862309694301
 20
1.8066620255856869
 30
0.0
  0
SEQEND
  5
3EC7C
  8
ASHADE
  0
POLYLINE
  5
3EA8E
  8
ASHADE
 66
     1
 10
0.0
 20
0.0
 30
0.0
  0
VERTEX
  5
3EC7D
  8
ASHADE
 10
0.6150314090251943
 20
2.7620961707680549
 30
0.0
  0
VERTEX
  5
3EC7E
  8
ASHADE
 10
1.9046480653286011
 20
2.7620961707680558
 30
0.0
 42
0.2562248114672569
  0
VERTEX
  5
3EC7F
  8
ASHADE
 10
1.796451771616939
 20
2.8849516578166821
 30
0.0
  0
SEQEND
  5
3EC80
  8
ASHADE
  0
POLYLINE
  5
3EA91
  8
ASHADE
 66
     1
 10
0.0
 20
0.0
 30
0.0
  0
VERTEX
  5
3EC81
  8
ASHADE
 10
1.9046480653285931
 20
2.7620961707680598
 30
0.0
 42
-0.4503055329897991
  0
VERTEX
  5
3EC82
  8
ASHADE
 10
1.969824910044667
 20
2.6074993965475919
 30
0.0
 42
0.1182518442370882
  0
VERTEX
  5
3EC83
  8
ASHADE
 10
1.697706784486767
 20
2.0231969364135631
 30
0.0
  0
SEQEND
  5
3EC84
  8
ASHADE
  0
POLYLINE
  5
3EA98
  8
ASHADE
 66
     1
 10
0.0
 20
0.0
 30
0.0
  0
VERTEX
  5
3EC85
  8
ASHADE
 10
0.8490214112997065
 20
2.976539173945699
 30
0.0
  0
VERTEX
  5
3EC86
  8
ASHADE
 10
1.670658063054083
 20
2.976539173945699
 30
0.0
  0
SEQEND
  5
3EC87
  8
ASHADE
  0
POLYLINE
  5
3EAB2
  8
ASHADE
 66
     1
 10
0.0
 20
0.0
 30
0.0
  0
VERTEX
  5
3EC88
  8
ASHADE
 10
0.1248484840393029
 20
0.1181099843661375
 30
0.0
  0
VERTEX
  5
3EC89
  8
ASHADE
 10
2.394830990314476
 20
0.1181099843661375
 30
0.0
  0
SEQEND
  5
3EC8A
  8
ASHADE
  0
POLYLINE
  5
3EAB3
  8
ASHADE
 66
     1
 10
0.0
 20
0.0
 30
0.0
  0
VERTEX
  5
3EC8B
  8
ASHADE
 10
0.2373255090713471
 20
0.2362199817261796
 30
0.0
  0
VERTEX
  5
3EC8C
  8
ASHADE
 10
2.2823539652824341
 20
0.2362199817261796
 30
0.0
  0
SEQEND
  5
3EC8D
  8
ASHADE
  0
POLYLINE
  5
3EAB7
  8
ASHADE
 66
     1
 10
0.0
 20
0.0
 30
0.0
  0
VERTEX
  5
3EC8E
  8
ASHADE
 10
10.05497757914662
 20
0.3543299570865095
 30
0.0
  0
VERTEX
  5
3EC8F
  8
ASHADE
 10
10.09145015153287
 20
0.3543299424200457
 30
0.0
 42
-0.249959410151656
  0
VERTEX
  5
3EC90
  8
ASHADE
 10
10.15567613980174
 20
0.2913379320948479
 30
0.0
  0
VERTEX
  5
3EC91
  8
ASHADE
 10
10.15567613980174
 20
0.2362199817261796
 30
0.0
  0
VERTEX
  5
3EC92
  8
ASHADE
 10
8.1106476835906438
 20
0.2362199817261796
 30
0.0
  0
VERTEX
  5
3EC93
  8
ASHADE
 10
8.1106476835906438
 20
0.2913379320948525
 30
0.0
 42
-0.2499594101516561
  0
VERTEX
  5
3EC94
  8
ASHADE
 10
8.1748736718594959
 20
0.3543299424200441
 30
0.0
  0
VERTEX
  5
3EC95
  8
ASHADE
 10
8.2113462442457621
 20
0.3543299570865095
 30
0.0
  0
VERTEX
  5
3EC96
  8
ASHADE
 10
10.0549775791466
 20
0.3543299570865175
 30
0.0
 42
-0.1357936747604439
  0
VERTEX
  5
3EC97
  8
ASHADE
 10
9.7013230439126463
 20
0.8784199225603714
 30
0.0
 42
-0.091808950973119
  0
VERTEX
  5
3EC98
  8
ASHADE
 10
9.5403011834323355
 20
1.553505061730664
 30
0.0
  0
VERTEX
  5
3EC99
  8
ASHADE
 10
9.5525154179036562
 20
1.80666202558569
 30
0.0
  0
VERTEX
  5
3EC9A
  8
ASHADE
 10
8.7138084054887237
 20
1.8066620255856869
 30
0.0
 42
-0.542356739496337
  0
VERTEX
  5
3EC9B
  8
ASHADE
 10
8.6952948643863124
 20
2.02319693641356
 30
0.0
 42
0.1182518442370881
  0
VERTEX
  5
3EC9C
  8
ASHADE
 10
8.4231767388284151
 20
2.6074993965475981
 30
0.0
 42
-0.4503055329897985
  0
VERTEX
  5
3EC9D
  8
ASHADE
 10
8.4883535835444857
 20
2.762096170768062
 30
0.0
  0
VERTEX
  5
3EC9E
  8
ASHADE
 10
9.7779702398478925
 20
2.7620961707680558
 30
0.0
 42
0.2562248114672569
  0
VERTEX
  5
3EC9F
  8
ASHADE
 10
9.6697739461362318
 20
2.8849516578166821
 30
0.0
 42
0.3141855145604237
  0
VERTEX
  5
3ECA0
  8
ASHADE
 10
9.5544589008986911
 20
2.9765389392822201
 30
0.0
  0
VERTEX
  5
3ECA1
  8
ASHADE
 10
9.5439802375733809
 20
2.976539173945699
 30
0.0
  0
VERTEX
  5
3ECA2
  8
ASHADE
 10
8.7223435858190008
 20
2.976539173945707
 30
0.0
 42
0.1119630957996463
  0
VERTEX
  5
3ECA3
  8
ASHADE
 10
8.8457991074025593
 20
3.235692141875544
 30
0.0
  0
VERTEX
  5
3ECA4
  8
ASHADE
 10
8.8754408603608592
 20
3.4544421586840488
 30
0.0
 42
-0.1183167827830562
  0
VERTEX
  5
3ECA5
  8
ASHADE
 10
9.1321242297589755
 20
3.8193119659274002
 30
0.0
 42
-0.1291464178918946
  0
VERTEX
  5
3ECA6
  8
ASHADE
 10
9.5766256831586336
 20
3.9726694822757631
 30
0.0
  0
VERTEX
  5
3ECA7
  8
ASHADE
 10
9.5845732401331833
 20
3.3783713795719841
 30
0.0
  0
SEQEND
  5
3ECA8
  8
ASHADE
  0
POLYLINE
  5
3EAB8
  8
ASHADE
 66
     1
 10
0.0
 20
0.0
 30
-1.8900629997267731
210
-0.7224382028949216
220
0.6914354944591407
230
0.0
  0
VERTEX
  5
3ECA9
  8
ASHADE
 10
-6.711429301257513
 20
0.0056413125518856
 30
-1.8900629997267731
  0
VERTEX
  5
3ECAA
  8
ASHADE
 10
-6.78043207664901
 20
0.0056078730050621
 30
-1.8900629997267731
  0
SEQEND
  5
3ECAB
  8
ASHADE
  0
POLYLINE
  5
3EAB9
  8
ASHADE
 66
     1
 10
0.0
 20
0.0
 30
-5.6166409234121906
210
-0.7197812213911315
220
-0.6942009747419627
230
0.0
  0
VERTEX
  5
3ECAC
  8
ASHADE
 10
0.4959213318310654
 20
0.0056413125518856
 30
-5.6166409234121906
  0
VERTEX
  5
3ECAD
  8
ASHADE
 10
0.4272017373197361
 20
0.0056078730050621
 30
-5.6166409234121906
  0
SEQEND
  5
3ECAE
  8
ASHADE
  0
POLYLINE
  5
3EABA
  8
ASHADE
 66
     1
 10
0.0
 20
0.0
 30
-0.0012833722706726
 70
     1
  0
VERTEX
  5
3ECAF
  8
ASHADE
 10
6.3910103056430749
 20
0.3546539542771221
 30
-0.0012833722706726
  0
VERTEX
  5
3ECB0
  8
ASHADE
 10
6.3545377332568123
 20
0.3546539689435892
 30
-0.0012833722706726
  0
VERTEX
  5
3ECB1
  8
ASHADE
 10
4.9602815777063327
 20
0.3546539689435892
 30
-0.0012833722706726
  0
VERTEX
  5
3ECB2
  8
ASHADE
 10
4.038465910255904
 20
0.3546539689435892
 30
-0.0012833722706726
  0
VERTEX
  5
3ECB3
  8
ASHADE
 10
4.0019933378696386
 20
0.3546539542771308
 30
-0.0012833722706726
 42
0.2499594101516561
  0
VERTEX
  5
3ECB4
  8
ASHADE
 10
3.9377673496007848
 20
0.2916619439519348
 30
-0.0012833722706726
  0
VERTEX
  5
3ECB5
  8
ASHADE
 10
3.9377673496007848
 20
0.2365439935832612
 30
-0.0012833722706726
  0
VERTEX
  5
3ECB6
  8
ASHADE
 10
3.8895167821645691
 20
0.2365439935832602
 30
-0.0012833722706726
 42
0.2499584634824056
  0
VERTEX
  5
3ECB7
  8
ASHADE
 10
3.8252903245687442
 20
0.1735519832580667
 30
-0.0012833722706726
  0
VERTEX
  5
3ECB8
  8
ASHADE
 10
3.8252903245687442
 20
0.1184339962232208
 30
-0.0012833722706726
  0
VERTEX
  5
3ECB9
  8
ASHADE
 10
3.7646678287982889
 20
0.118433988889987
 30
-0.0012833722706726
 42
0.2499594241704841
  0
VERTEX
  5
3ECBA
  8
ASHADE
 10
3.7004418405294381
 20
0.0554419858980282
 30
-0.0012833722706726
  0
VERTEX
  5
3ECBB
  8
ASHADE
 10
3.7004418405294381
 20
0.0003240118570815
 30
-0.0012833722706726
  0
VERTEX
  5
3ECBC
  8
ASHADE
 10
4.9602815777063309
 20
0.0003240118570815
 30
-0.0012833722706726
  0
VERTEX
  5
3ECBD
  8
ASHADE
 10
6.6925618029832803
 20
0.0003240118570815
 30
-0.0012833722706726
  0
VERTEX
  5
3ECBE
  8
ASHADE
 10
6.6925618029832776
 20
0.0554419858980275
 30
-0.0012833722706726
 42
0.2499594241704846
  0
VERTEX
  5
3ECBF
  8
ASHADE
 10
6.6283358147144273
 20
0.1184339888899899
 30
-0.0012833722706726
  0
VERTEX
  5
3ECC0
  8
ASHADE
 10
6.567713318943972
 20
0.1184339962232208
 30
-0.0012833722706726
  0
VERTEX
  5
3ECC1
  8
ASHADE
 10
6.567713318943972
 20
0.1735519832580671
 30
-0.0012833722706726
 42
0.2499584634824056
  0
VERTEX
  5
3ECC2
  8
ASHADE
 10
6.5034868613481471
 20
0.2365439935832612
 30
-0.0012833722706726
  0
VERTEX
  5
3ECC3
  8
ASHADE
 10
6.4552362939119279
 20
0.2365439935832612
 30
-0.0012833722706726
  0
VERTEX
  5
3ECC4
  8
ASHADE
 10
6.4552362939119288
 20
0.2916619439519374
 30
-0.0012833722706726
 42
0.249959410151656
  0
SEQEND
  5
3ECC5
  8
ASHADE
  0
POLYLINE
  5
3EAC5
  8
ASHADE
 66
     1
 10
0.0
 20
0.0
 30
-0.0012833722706726
  0
VERTEX
  5
3ECC6
  8
ASHADE
 10
6.567713318943972
 20
0.1184339962232208
 30
-0.0012833722706726
  0
VERTEX
  5
3ECC7
  8
ASHADE
 10
4.9602815777063327
 20
0.1184339962232208
 30
-0.0012833722706726
  0
VERTEX
  5
3ECC8
  8
ASHADE
 10
3.8252903245687442
 20
0.1184339962232208
 30
-0.0012833722706726
  0
SEQEND
  5
3ECC9
  8
ASHADE
  0
POLYLINE
  5
3EAC6
  8
ASHADE
 66
     1
 10
0.0
 20
0.0
 30
-0.0012833722706726
  0
VERTEX
  5
3ECCA
  8
ASHADE
 10
6.4552362939119279
 20
0.2365439935832612
 30
-0.0012833722706726
  0
VERTEX
  5
3ECCB
  8
ASHADE
 10
4.9602815777063309
 20
0.2365439935832612
 30
-0.0012833722706726
  0
VERTEX
  5
3ECCC
  8
ASHADE
 10
3.9377673496007848
 20
0.2365439935832612
 30
-0.0012833722706726
  0
SEQEND
  5
3ECCD
  8
ASHADE
  0
POLYLINE
  5
3EAD4
  8
ASHADE
 66
     1
 10
0.0
 20
0.0
 30
0.0
  0
VERTEX
  5
3ECCE
  8
ASHADE
 10
10.15567613980174
 20
0.2362199817261796
 30
0.0
  0
VERTEX
  5
3ECCF
  8
ASHADE
 10
10.20392670723794
 20
0.2362199817261768
 30
0.0
 42
-0.2499584634824056
  0
VERTEX
  5
3ECD0
  8
ASHADE
 10
10.26815316483377
 20
0.1732279714009834
 30
0.0
  0
VERTEX
  5
3ECD1
  8
ASHADE
 10
10.26815316483377
 20
0.1181099843661375
 30
0.0
  0
VERTEX
  5
3ECD2
  8
ASHADE
 10
7.9981706585586014
 20
0.1181099843661375
 30
0.0
  0
VERTEX
  5
3ECD3
  8
ASHADE
 10
7.9981706585585997
 20
0.1732279714009837
 30
0.0
 42
-0.2499584634824051
  0
VERTEX
  5
3ECD4
  8
ASHADE
 10
8.0623971161544254
 20
0.2362199817261796
 30
0.0
  0
VERTEX
  5
3ECD5
  8
ASHADE
 10
8.1106476835906438
 20
0.2362199817261796
 30
0.0
  0
SEQEND
  5
3ECD6
  8
ASHADE
  0
POLYLINE
  5
3EAD8
  8
ASHADE
 66
     1
 10
0.0
 20
0.0
 30
0.0
  0
VERTEX
  5
3ECD7
  8
ASHADE
 10
9.777970239847896
 20
2.7620961707680651
 30
0.0
 42
-0.4503055329897991
  0
VERTEX
  5
3ECD8
  8
ASHADE
 10
9.8431470845639701
 20
2.607499396547591
 30
0.0
 42
0.1182518442370882
  0
VERTEX
  5
3ECD9
  8
ASHADE
 10
9.5710289590060675
 20
2.0231969364135671
 30
0.0
  0
VERTEX
  5
3ECDA
  8
ASHADE
 10
8.6952948643863142
 20
2.0231969364135671
 30
0.0
  0
SEQEND
  5
3ECDB
  8
ASHADE
  0
POLYLINE
  5
3EADA
  8
ASHADE
 66
     1
 10
0.0
 20
0.0
 30
0.0
  0
VERTEX
  5
3ECDC
  8
ASHADE
 10
9.6697739461362335
 20
2.8849516578166869
 30
0.0
  0
VERTEX
  5
3ECDD
  8
ASHADE
 10
8.5965498772561482
 20
2.8849516578166821
 30
0.0
 42
-0.3141855145604234
  0
VERTEX
  5
3ECDE
  8
ASHADE
 10
8.7118649224936888
 20
2.9765389392822201
 30
0.0
  0
VERTEX
  5
3ECDF
  8
ASHADE
 10
8.7223435858190008
 20
2.976539173945699
 30
0.0
  0
SEQEND
  5
3ECE0
  8
ASHADE
  0
POLYLINE
  5
3EADC
  8
ASHADE
 66
     1
 10
0.0
 20
0.0
 30
0.0
  0
VERTEX
  5
3ECE1
  8
ASHADE
 10
9.5766256831586301
 20
3.972669482275756
 30
0.0
 42
-0.5679737636832004
  0
VERTEX
  5
3ECE2
  8
ASHADE
 10
9.7625673979222718
 20
3.9923643193691132
 30
0.0
 42
0.1663485063088888
  0
VERTEX
  5
3ECE3
  8
ASHADE
 10
10.092750656574941
 20
3.930777591332709
 30
0.0
 42
0.0245368604204383
  0
VERTEX
  5
3ECE4
  8
ASHADE
 10
11.1992988178432
 20
4.1355616107433173
 30
0.0
 42
-0.1097577293917704
  0
VERTEX
  5
3ECE5
  8
ASHADE
 10
11.90525857326387
 20
4.1396410007922997
 30
0.0
 42
-0.5564168597757105
  0
VERTEX
  5
3ECE6
  8
ASHADE
 10
11.995976661175479
 20
4.1454737964122659
 30
0.0
  0
VERTEX
  5
3ECE7
  8
ASHADE
 10
12.038524905890229
 20
3.5916736002414562
 30
0.0
 42
0.2449787487173137
  0
VERTEX
  5
3ECE8
  8
ASHADE
 10
12.146618914720291
 20
3.8755819233506101
 30
0.0
 42
0.2435661011276312
  0
VERTEX
  5
3ECE9
  8
ASHADE
 10
11.995976661175471
 20
4.1454737964122668
 30
0.0
  0
SEQEND
  5
3ECEA
  8
ASHADE
  0
POLYLINE
  5
3EADD
  8
ASHADE
 66
     1
 10
0.0
 20
0.0
 30
0.0
  0
VERTEX
  5
3ECEB
  8
ASHADE
 10
11.905258573263881
 20
4.1396410007923032
 30
0.0
  0
VERTEX
  5
3ECEC
  8
ASHADE
 10
11.94780775663256
 20
3.5858412739484651
 30
0.0
 42
-0.1507073000882678
  0
VERTEX
  5
3ECED
  8
ASHADE
 10
11.24668113037942
 20
3.4579553057401551
 30
0.0
 42
0.0411796013151439
  0
VERTEX
  5
3ECEE
  8
ASHADE
 10
10.112323937982319
 20
3.4824771707504141
 30
0.0
 42
0.1285402108138228
  0
VERTEX
  5
3ECEF
  8
ASHADE
 10
9.7893838025033464
 20
3.3781575178354109
 30
0.0
 42
-0.5122604648077332
  0
VERTEX
  5
3ECF0
  8
ASHADE
 10
9.6820806380212314
 20
3.3637372119276869
 30
0.0
 42
0.1796662825105284
  0
VERTEX
  5
3ECF1
  8
ASHADE
 10
9.4699396836459613
 20
3.354349029824053
 30
0.0
 42
0.2566248674981231
  0
VERTEX
  5
3ECF2
  8
ASHADE
 10
9.4205247159898242
 20
3.2356921418755471
 30
0.0
 42
0.1119630957996459
  0
VERTEX
  5
3ECF3
  8
ASHADE
 10
9.5439802375733827
 20
2.976539173945707
 30
0.0
  0
SEQEND
  5
3ECF4
  8
ASHADE
  0
POLYLINE
  5
3EAE4
  8
ASHADE
 66
     1
 10
0.0
 20
0.0
 30
0.0
  0
VERTEX
  5
3ECF5
  8
ASHADE
 10
11.94780775663255
 20
3.585841273948466
 30
0.0
 42
0.6581947837838175
  0
VERTEX
  5
3ECF6
  8
ASHADE
 10
12.03852490589021
 20
3.5916736002414571
 30
0.0
  0
SEQEND
  5
3ECF7
  8
ASHADE
  0
POLYLINE
  5
3EAF5
  8
ASHADE
 66
     1
 10
0.0
 20
0.0
 30
0.0
  0
VERTEX
  5
3ECF8
  8
ASHADE
 10
9.5525154179036544
 20
1.8066620255856869
 30
0.0
 42
0.5423567394963382
  0
VERTEX
  5
3ECF9
  8
ASHADE
 10
9.5710289590060622
 20
2.0231969364135618
 30
0.0
  0
SEQEND
  5
3ECFA
  8
ASHADE
  0
POLYLINE
  5
3EAFF
  8
ASHADE
 66
     1
 10
0.0
 20
0.0
 30
0.0
  0
VERTEX
  5
3ECFB
  8
ASHADE
 10
7.9981706585586014
 20
0.1181099843661375
 30
0.0
  0
VERTEX
  5
3ECFC
  8
ASHADE
 10
7.9375481627881461
 20
0.1181099770329053
 30
0.0
 42
0.2499594241704851
  0
VERTEX
  5
3ECFD
  8
ASHADE
 10
7.8733221745192941
 20
0.0551179740409484
 30
0.0
  0
VERTEX
  5
3ECFE
  8
ASHADE
 10
7.8733221745192941
 20
0.0
 30
0.0
  0
VERTEX
  5
3ECFF
  8
ASHADE
 10
9.1331619116961917
 20
0.0
 30
0.0
  0
VERTEX
  5
3ED00
  8
ASHADE
 10
10.39300164887308
 20
0.0
 30
0.0
  0
VERTEX
  5
3ED01
  8
ASHADE
 10
10.393001648873071
 20
0.055117974040946
 30
0.0
 42
0.2499594241704846
  0
VERTEX
  5
3ED02
  8
ASHADE
 10
10.32877566060422
 20
0.1181099770329101
 30
0.0
  0
VERTEX
  5
3ED03
  8
ASHADE
 10
10.26815316483377
 20
0.1181099843661375
 30
0.0
  0
SEQEND
  5
3ED04
  8
ASHADE
  0
POLYLINE
  5
3EB06
  8
ASHADE
 66
     1
 10
0.0
 20
0.0
 30
0.0
  0
VERTEX
  5
3ED05
  8
ASHADE
 10
8.5965498772561482
 20
2.8849516578166821
 30
0.0
 42
0.256224811467257
  0
VERTEX
  5
3ED06
  8
ASHADE
 10
8.4883535835444874
 20
2.7620961707680558
 30
0.0
  0
SEQEND
  5
3ED07
  8
ASHADE
  0
POLYLINE
  5
3EB0A
  8
ASHADE
 66
     1
 10
0.0
 20
0.0
 30
0.0
  0
VERTEX
  5
3ED08
  8
ASHADE
 10
8.2113462442457585
 20
0.3543299570865152
 30
0.0
 42
0.1357936747604431
  0
VERTEX
  5
3ED09
  8
ASHADE
 10
8.5650007794797354
 20
0.8784199225603716
 30
0.0
 42
0.0918089509731177
  0
VERTEX
  5
3ED0A
  8
ASHADE
 10
8.7260226399600445
 20
1.553505061730664
 30
0.0
  0
VERTEX
  5
3ED0B
  8
ASHADE
 10
8.7138084054887237
 20
1.80666202558569
 30
0.0
  0
SEQEND
  5
3ED0C
  8
ASHADE
  0
ENDSEC
  0
EOF
