  0
SECTION
  2
HEADER
  9
$ACADVER
  1
AC1009
  9
$INSBASE
 10
0.0
 20
0.0
 30
0.0
  9
$EXTMIN
 10
-6.3083038429707221
 20
-0.005
 30
-0.003274567694305
  9
$EXTMAX
 10
2.9999928021831899
 20
5.0068446934102857
 30
0.0
  9
$LIMMIN
 10
0.0
 20
0.0
  9
$LIMMAX
 10
420.0
 20
297.0
  9
$ORTHOMODE
 70
     1
  9
$REGENMODE
 70
     1
  9
$FILLMODE
 70
     1
  9
$QTEXTMODE
 70
     0
  9
$MIRRTEXT
 70
     1
  9
$DRAGMODE
 70
     2
  9
$LTSCALE
 40
1.0
  9
$OSMODE
 70
    37
  9
$ATTMODE
 70
     1
  9
$TEXTSIZE
 40
0.001
  9
$TRACEWID
 40
1.0
  9
$TEXTSTYLE
  7
STANDARD
  9
$CLAYER
  8
0
  9
$CELTYPE
  6
BYLAYER
  9
$CECOLOR
 62
   256
  9
$DIMSCALE
 40
1.0
  9
$DIMASZ
 40
2.5
  9
$DIMEXO
 40
0.625
  9
$DIMDLI
 40
3.75
  9
$DIMRND
 40
0.0
  9
$DIMDLE
 40
0.0
  9
$DIMEXE
 40
1.25
  9
$DIMTP
 40
0.0
  9
$DIMTM
 40
0.0
  9
$DIMTXT
 40
2.5
  9
$DIMCEN
 40
2.5
  9
$DIMTSZ
 40
0.0
  9
$DIMTOL
 70
     0
  9
$DIMLIM
 70
     0
  9
$DIMTIH
 70
     0
  9
$DIMTOH
 70
     0
  9
$DIMSE1
 70
     0
  9
$DIMSE2
 70
     0
  9
$DIMTAD
 70
     1
  9
$DIMZIN
 70
     8
  9
$DIMBLK
  1

  9
$DIMASO
 70
     1
  9
$DIMSHO
 70
     1
  9
$DIMPOST
  1

  9
$DIMAPOST
  1

  9
$DIMALT
 70
     0
  9
$DIMALTD
 70
     3
  9
$DIMALTF
 40
0.03937007874016
  9
$DIMLFAC
 40
1.0
  9
$DIMTOFL
 70
     1
  9
$DIMTVP
 40
0.0
  9
$DIMTIX
 70
     0
  9
$DIMSOXD
 70
     0
  9
$DIMSAH
 70
     0
  9
$DIMBLK1
  1

  9
$DIMBLK2
  1

  9
$DIMSTYLE
  2
ISO-25
  9
$DIMCLRD
 70
     0
  9
$DIMCLRE
 70
     0
  9
$DIMCLRT
 70
     0
  9
$DIMTFAC
 40
1.0
  9
$DIMGAP
 40
0.625
  9
$LUNITS
 70
     2
  9
$LUPREC
 70
     4
  9
$SKETCHINC
 40
1.0
  9
$FILLETRAD
 40
0.0
  9
$AUNITS
 70
     0
  9
$AUPREC
 70
     0
  9
$MENU
  1
.
  9
$ELEVATION
 40
0.0
  9
$PELEVATION
 40
0.0
  9
$THICKNESS
 40
0.0
  9
$LIMCHECK
 70
     0
  9
$BLIPMODE
 70
     0
  9
$CHAMFERA
 40
10.0
  9
$CHAMFERB
 40
10.0
  9
$SKPOLY
 70
     0
  9
$TDCREATE
 40
2453378.22126956
  9
$TDUPDATE
 40
2453411.487259109
  9
$TDINDWG
 40
0.3219512153
  9
$TDUSRTIMER
 40
0.3219377199
  9
$USRTIMER
 70
     1
  9
$ANGBASE
 50
0.0
  9
$ANGDIR
 70
     0
  9
$PDMODE
 70
     0
  9
$PDSIZE
 40
0.0
  9
$PLINEWID
 40
0.0
  9
$COORDS
 70
     1
  9
$SPLFRAME
 70
     0
  9
$SPLINETYPE
 70
     6
  9
$SPLINESEGS
 70
     8
  9
$ATTDIA
 70
     0
  9
$ATTREQ
 70
     1
  9
$HANDLING
 70
     1
  9
$HANDSEED
  5
3E8A8
  9
$SURFTAB1
 70
     6
  9
$SURFTAB2
 70
     6
  9
$SURFTYPE
 70
     6
  9
$SURFU
 70
     6
  9
$SURFV
 70
     6
  9
$UCSNAME
  2

  9
$UCSORG
 10
0.0
 20
0.0
 30
0.0
  9
$UCSXDIR
 10
1.0
 20
0.0
 30
0.0
  9
$UCSYDIR
 10
0.0
 20
1.0
 30
0.0
  9
$PUCSNAME
  2

  9
$PUCSORG
 10
0.0
 20
0.0
 30
0.0
  9
$PUCSXDIR
 10
1.0
 20
0.0
 30
0.0
  9
$PUCSYDIR
 10
0.0
 20
1.0
 30
0.0
  9
$USERI1
 70
     0
  9
$USERI2
 70
     0
  9
$USERI3
 70
     0
  9
$USERI4
 70
     0
  9
$USERI5
 70
     0
  9
$USERR1
 40
0.0
  9
$USERR2
 40
0.0
  9
$USERR3
 40
0.0
  9
$USERR4
 40
0.0
  9
$USERR5
 40
0.0
  9
$WORLDVIEW
 70
     1
  9
$SHADEDGE
 70
     3
  9
$SHADEDIF
 70
    70
  9
$TILEMODE
 70
     1
  9
$MAXACTVP
 70
    64
  9
$PLIMCHECK
 70
     0
  9
$PEXTMIN
 10
1.0000000000000000E+020
 20
1.0000000000000000E+020
 30
1.0000000000000000E+020
  9
$PEXTMAX
 10
-1.0000000000000000E+020
 20
-1.0000000000000000E+020
 30
-1.0000000000000000E+020
  9
$PLIMMIN
 10
0.0
 20
0.0
  9
$PLIMMAX
 10
420.0
 20
297.0
  9
$UNITMODE
 70
     0
  9
$VISRETAIN
 70
     1
  9
$PLINEGEN
 70
     0
  9
$PSLTSCALE
 70
     1
  0
ENDSEC
  0
SECTION
  2
TABLES
  0
TABLE
  2
VPORT
 70
     2
  0
VPORT
  2
*ACTIVE
 70
     0
 10
0.0
 20
0.0
 11
1.0
 21
1.0
 12
0.4750890149356977
 22
1.930470274560889
 13
0.0
 23
0.0
 14
10.0
 24
10.0
 15
10.0
 25
10.0
 16
0.0
 26
0.0
 36
1.0
 17
0.0
 27
0.0
 37
0.0
 40
7.8919944579865842
 41
1.9608247422680409
 42
50.0
 43
0.0
 44
0.0
 50
0.0
 51
0.0
 71
     0
 72
  1000
 73
     1
 74
     3
 75
     0
 76
     0
 77
     0
 78
     0
  0
ENDTAB
  0
TABLE
  2
LTYPE
 70
     1
  0
LTYPE
  2
CONTINUOUS
 70
     0
  3
Solid line
 72
    65
 73
     0
 40
0.0
  0
ENDTAB
  0
TABLE
  2
LAYER
 70
     3
  0
LAYER
  2
0
 70
     0
 62
     7
  6
CONTINUOUS
  0
LAYER
  2
ASHADE
 70
     0
 62
     7
  6
CONTINUOUS
  0
LAYER
  2
DEFPOINTS
 70
     0
 62
     7
  6
CONTINUOUS
  0
ENDTAB
  0
TABLE
  2
STYLE
 70
     2
  0
STYLE
  2
STANDARD
 70
     0
 40
0.0
 41
1.0
 50
0.0
 71
     0
 42
0.001
  3
txt
  4

  0
STYLE
  2
ASHADE
 70
     0
 40
0.2
 41
1.0
 50
0.0
 71
     0
 42
2.5
  3
simplex.shx
  4

  0
ENDTAB
  0
TABLE
  2
VIEW
 70
     0
  0
ENDTAB
  0
TABLE
  2
UCS
 70
     0
  0
ENDTAB
  0
TABLE
  2
APPID
 70
     6
  0
APPID
  2
ACAD
 70
     0
  0
APPID
  2
AVE_RENDER
 70
     0
  0
APPID
  2
AVE_ENTITY_MATERIAL
 70
     0
  0
APPID
  2
AVE_FINISH
 70
     0
  0
APPID
  2
AVE_MATERIAL
 70
     0
  0
APPID
  2
AVE_GLOBAL
 70
     0
  0
ENDTAB
  0
TABLE
  2
DIMSTYLE
 70
     2
  0
DIMSTYLE
  2
ISO-25
 70
     0
  3

  4

  5

  6

  7

 40
1.0
 41
2.5
 42
0.625
 43
3.75
 44
1.25
 45
0.0
 46
0.0
 47
0.0
 48
0.0
140
2.5
141
2.5
142
0.0
143
0.03937007874016
144
1.0
145
0.0
146
1.0
147
0.625
 71
     0
 72
     0
 73
     0
 74
     0
 75
     0
 76
     0
 77
     1
 78
     8
170
     0
171
     3
172
     1
173
     0
174
     0
175
     0
176
     0
177
     0
178
     0
  0
DIMSTYLE
  2
STANDARD
 70
     0
  3

  4

  5

  6

  7

 40
1.0
 41
0.18
 42
0.0625
 43
0.38
 44
0.18
 45
0.0
 46
0.0
 47
0.0
 48
0.0
140
0.18
141
0.09
142
0.0
143
25.399999999999999
144
1.0
145
0.0
146
1.0
147
0.09
 71
     0
 72
     0
 73
     1
 74
     1
 75
     0
 76
     0
 77
     0
 78
     0
170
     0
171
     2
172
     0
173
     0
174
     0
175
     0
176
     0
177
     0
178
     0
  0
ENDTAB
  0
ENDSEC
  0
SECTION
  2
BLOCKS
  0
BLOCK
  8
0
  2
$MODEL_SPACE
 70
     0
 10
0.0
 20
0.0
 30
0.0
  3
$MODEL_SPACE
  1

  0
ENDBLK
  5
3E778
  8
0
  0
BLOCK
 67
     1
  8
0
  2
$PAPER_SPACE
 70
     0
 10
0.0
 20
0.0
 30
0.0
  3
$PAPER_SPACE
  1

  0
ENDBLK
  5
3E774
 67
     1
  8
0
  0
BLOCK
  8
ASHADE
  2
AVE_RENDER
 70
     0
 10
0.0
 20
0.0
 30
0.0
  3
AVE_RENDER
  1
AVE_RENDER
  0
ENDBLK
  5
31
  8
0
  0
BLOCK
  8
ASHADE
  2
AVE_GLOBAL
 70
     0
 10
0.0
 20
0.0
 30
0.0
  3
AVE_GLOBAL
  1
AVE_GLOBAL
  0
ENDBLK
  5
3F
  8
0
  0
BLOCK
  8
ASHADE
  2
RM_SDB
 70
     2
 10
0.0
 20
0.0
 30
0.0
  3
RM_SDB
  1
RM_SDB
  0
ATTDEF
  5
32E2D
  8
ASHADE
  6
CONTINUOUS
 62
     1
 10
0.0000000000000001
 20
-0.15
 30
0.0
 40
0.2
  1

 41
100.0
  7
ASHADE
 72
     1
 11
0.0000000000000001
 21
-0.15
 31
0.0
  3
Name
  2
NAME
 70
     0
  0
ENDBLK
  5
620
  8
0
  0
ENDSEC
  0
SECTION
  2
ENTITIES
  0
CIRCLE
  5
3E656
  8
ASHADE
 10
1.732280342608689
 20
3.777628903446411
 30
-0.000000000257809
 40
0.414735850292511
  0
ATTDEF
  5
3E71F
  8
0
 10
0.0
 20
0.0
 30
0.0
 40
0.001
  1
K-394-4
  3

  2
MODELNUMBER
 70
     8
  0
ATTDEF
  5
3E720
  8
0
 10
0.0
 20
-0.0016666666666667
 30
0.0
 40
0.001
  1
DEVONSHIRE
  3

  2
TRADENAME
 70
     8
  0
ATTDEF
  5
3E721
  8
0
 10
0.0
 20
-0.0033333333333333
 30
0.0
 40
0.001
  1
FAUCETS
  3

  2
PRODUCT
 70
     8
  0
ATTDEF
  5
3E722
  8
0
 10
0.0
 20
-0.005
 30
0.0
 40
0.001
  1
BRASS
  3

  2
MATERIAL
 70
     8
  0
POLYLINE
  5
3E7AB
  8
ASHADE
 66
     1
 10
0.0
 20
0.0
 30
-0.0000575139201092
  0
VERTEX
  5
3E81C
  8
ASHADE
 10
2.0196436423470141
 20
3.2889797989092262
 30
-0.0000575139201092
  0
VERTEX
  5
3E81D
  8
ASHADE
 10
2.388079076483844
 20
3.2889797989092262
 30
-0.0000575139201092
  0
VERTEX
  5
3E81E
  8
ASHADE
 10
2.388079076483844
 20
3.3712645504436831
 30
-0.0000575139201092
 42
0.5120830684306396
  0
VERTEX
  5
3E81F
  8
ASHADE
 10
2.384779186325062
 20
3.450165570583533
 30
-0.0000575139201092
 42
0.6937293468362372
  0
VERTEX
  5
3E820
  8
ASHADE
 10
2.3811993883848181
 20
3.5287444002590531
 30
-0.0000575139201092
 42
0.1232201728885498
  0
VERTEX
  5
3E821
  8
ASHADE
 10
2.1168647714333679
 20
3.622385086746855
 30
-0.0000575139201092
  0
SEQEND
  5
3E822
  8
ASHADE
  0
POLYLINE
  5
3E7AF
  8
ASHADE
 66
     1
 10
0.0
 20
0.0
 30
-0.0000575139201092
  0
VERTEX
  5
3E823
  8
ASHADE
 10
2.38807907648384
 20
3.2889797989092302
 30
-0.0000575139201092
 42
0.0030941282695033
  0
VERTEX
  5
3E824
  8
ASHADE
 10
2.2528401913349891
 20
2.9192085215113099
 30
-0.0000575139201092
  0
SEQEND
  5
3E825
  8
ASHADE
  0
POLYLINE
  5
3E7B0
  8
ASHADE
 66
     1
 10
0.0
 20
0.0
 30
-0.0001911814409887
  0
VERTEX
  5
3E826
  8
ASHADE
 10
0.3790291331508415
 20
0.3478595505512807
 30
-0.0001911814409887
 42
0.2241027591360208
  0
VERTEX
  5
3E827
  8
ASHADE
 10
-0.6516154465675342
 20
3.106761255022084
 30
-0.0001911814409887
 42
0.2316600207508061
  0
VERTEX
  5
3E828
  8
ASHADE
 10
-3.9881655572652801
 20
3.894355744119685
 30
-0.0001911814409887
 42
0.230465463631896
  0
VERTEX
  5
3E829
  8
ASHADE
 10
-4.6166563252210508
 20
3.4892566367349942
 30
-0.0001911814409887
 42
-0.2305499767048081
  0
VERTEX
  5
3E82A
  8
ASHADE
 10
-4.6902111257314631
 20
3.444588911410372
 30
-0.0001911814409887
  0
VERTEX
  5
3E82B
  8
ASHADE
 10
-6.2041538726091341
 20
3.643911842163603
 30
-0.0001911814409887
  0
SEQEND
  5
3E82C
  8
ASHADE
  0
POLYLINE
  5
3E7B5
  8
ASHADE
 66
     1
 10
0.0
 20
0.0
 30
-0.0000000068047437
  0
VERTEX
  5
3E82D
  8
ASHADE
 10
1.3887011856661291
 20
3.081061496652524
 30
-0.0000000068047437
 42
0.0096382777812739
  0
VERTEX
  5
3E82E
  8
ASHADE
 10
1.276718143105505
 20
3.1774031776748028
 30
-0.0000000068047437
 42
0.1451467167658244
  0
VERTEX
  5
3E82F
  8
ASHADE
 10
-2.4690911892652481
 20
4.734998730298086
 30
-0.0000000068047437
 42
0.0720409424735794
  0
VERTEX
  5
3E830
  8
ASHADE
 10
-4.9877193711996011
 20
4.596408352490462
 30
-0.0000000068047437
 42
0.1864288198920667
  0
VERTEX
  5
3E831
  8
ASHADE
 10
-6.2241537722349118
 20
3.6936501761041129
 30
-0.0000000068047437
 42
0.5283082003637034
  0
VERTEX
  5
3E832
  8
ASHADE
 10
-6.2041548766993131
 20
3.643911974504574
 30
-0.0000000068047437
  0
SEQEND
  5
3E833
  8
ASHADE
  0
POLYLINE
  5
3E7BA
  8
ASHADE
 66
     1
 10
0.0
 20
0.0
 30
-0.003274567694305
  0
VERTEX
  5
3E834
  8
ASHADE
 10
-5.943339487195006
 20
3.6108606634102198
 30
-0.003274567694305
  0
VERTEX
  5
3E835
  8
ASHADE
 10
-5.9747224432229959
 20
3.372485035236886
 30
-0.003274567694305
  0
VERTEX
  5
3E836
  8
ASHADE
 10
-5.9598766924140723
 20
3.3535216442308631
 30
-0.003274567694305
  0
VERTEX
  5
3E837
  8
ASHADE
 10
-4.8746650739908191
 20
3.2106507697663642
 30
-0.003274567694305
  0
VERTEX
  5
3E838
  8
ASHADE
 10
-4.8554170361757247
 20
3.225125752266452
 30
-0.003274567694305
  0
VERTEX
  5
3E839
  8
ASHADE
 10
-4.8242107331713857
 20
3.46222683974006
 30
-0.003274567694305
  0
SEQEND
  5
3E83A
  8
ASHADE
  0
POLYLINE
  5
3E7BF
  8
ASHADE
 66
     1
 10
0.0
 20
0.0
 30
-0.000000000257809
  0
VERTEX
  5
3E83B
  8
ASHADE
 10
2.019643266942599
 20
3.478583128963443
 30
-0.000000000257809
  0
VERTEX
  5
3E83C
  8
ASHADE
 10
2.019643747853713
 20
3.2356921418755462
 30
-0.000000000257809
 42
0.1119664384142686
  0
VERTEX
  5
3E83D
  8
ASHADE
 10
2.1430986684858802
 20
2.9765391739456941
 30
-0.000000000257809
  0
VERTEX
  5
3E83E
  8
ASHADE
 10
2.1535773318111882
 20
2.9765389392822099
 30
-0.000000000257809
 42
-0.3141855145604236
  0
VERTEX
  5
3E83F
  8
ASHADE
 10
2.2688923770487288
 20
2.8849516578166789
 30
-0.000000000257809
 42
-0.2562248114672569
  0
VERTEX
  5
3E840
  8
ASHADE
 10
2.3770886707603922
 20
2.7620961707680518
 30
-0.000000000257809
  0
VERTEX
  5
3E841
  8
ASHADE
 10
1.087472014456984
 20
2.762096170768054
 30
-0.000000000257809
 42
-0.256224811467257
  0
VERTEX
  5
3E842
  8
ASHADE
 10
1.1956683081686481
 20
2.8849516578166798
 30
-0.000000000257809
 42
-0.3141855145604234
  0
VERTEX
  5
3E843
  8
ASHADE
 10
1.3109833534061881
 20
2.9765389392822121
 30
-0.000000000257809
  0
VERTEX
  5
3E844
  8
ASHADE
 10
1.3214620167314981
 20
2.9765391739456941
 30
-0.000000000257809
 42
0.1119664384142686
  0
VERTEX
  5
3E845
  8
ASHADE
 10
1.444916937363663
 20
3.2356921418755462
 30
-0.000000000257809
  0
VERTEX
  5
3E846
  8
ASHADE
 10
1.444917418274779
 20
3.478583128963443
 30
-0.000000000257809
  0
SEQEND
  5
3E847
  8
ASHADE
  0
POLYLINE
  5
3E7C1
  8
ASHADE
 66
     1
 10
0.0
 20
0.0
 30
-0.0000000068047437
  0
VERTEX
  5
3E848
  8
ASHADE
 10
2.184211242532359
 20
2.085097821228445
 30
-0.0000000068047437
 42
-0.0847811743076352
  0
VERTEX
  5
3E849
  8
ASHADE
 10
2.611716019064187
 20
0.8677220627329711
 30
-0.0000000068047437
  0
VERTEX
  5
3E84A
  8
ASHADE
 10
2.630061724272053
 20
0.3754412541925483
 30
-0.0000000068047437
  0
SEQEND
  5
3E84B
  8
ASHADE
  0
POLYLINE
  5
3E7C6
  8
ASHADE
 66
     1
 10
0.0
 20
0.0
 30
-0.0000575139201092
  0
VERTEX
  5
3E84C
  8
ASHADE
 10
2.388079076483844
 20
3.3712645504436831
 30
-0.0000575139201092
  0
VERTEX
  5
3E84D
  8
ASHADE
 10
2.019643479427625
 20
3.3712645504436831
 30
-0.0000575139201092
  0
SEQEND
  5
3E84E
  8
ASHADE
  0
POLYLINE
  5
3E7C7
  8
ASHADE
 66
     1
 10
0.0
 20
0.0
 30
-0.0000575139201092
  0
VERTEX
  5
3E84F
  8
ASHADE
 10
2.384779186325062
 20
3.450165570583533
 30
-0.0000575139201092
  0
VERTEX
  5
3E850
  8
ASHADE
 10
2.019643323207839
 20
3.450165570583533
 30
-0.0000575139201092
  0
SEQEND
  5
3E851
  8
ASHADE
  0
POLYLINE
  5
3E7C9
  8
ASHADE
 66
     1
 10
0.0
 20
0.0
 30
-0.000000000257809
  0
VERTEX
  5
3E852
  8
ASHADE
 10
0.810464675158261
 20
0.3543299570865059
 30
-0.000000000257809
  0
VERTEX
  5
3E853
  8
ASHADE
 10
2.6540960100591162
 20
0.3543299570865059
 30
-0.000000000257809
  0
VERTEX
  5
3E854
  8
ASHADE
 10
2.690568582445382
 20
0.3543299424200436
 30
-0.000000000257809
 42
-0.2499594101516566
  0
VERTEX
  5
3E855
  8
ASHADE
 10
2.7547945707142301
 20
0.2913379320948426
 30
-0.000000000257809
  0
VERTEX
  5
3E856
  8
ASHADE
 10
2.7547945707142301
 20
0.2362199817261761
 30
-0.000000000257809
  0
VERTEX
  5
3E857
  8
ASHADE
 10
2.8030451381504511
 20
0.2362199817261753
 30
-0.000000000257809
 42
-0.2499584634824049
  0
VERTEX
  5
3E858
  8
ASHADE
 10
2.8672715957462751
 20
0.1732279714009763
 30
-0.000000000257809
  0
VERTEX
  5
3E859
  8
ASHADE
 10
2.8672715957462751
 20
0.1181099843661375
 30
-0.000000000257809
  0
VERTEX
  5
3E85A
  8
ASHADE
 10
2.92789409151673
 20
0.1181099770329053
 30
-0.000000000257809
 42
-0.2499594241704852
  0
VERTEX
  5
3E85B
  8
ASHADE
 10
2.992120079785578
 20
0.0551179740409396
 30
-0.000000000257809
  0
VERTEX
  5
3E85C
  8
ASHADE
 10
2.992120079785578
 20
0.0
 30
-0.000000000257809
  0
VERTEX
  5
3E85D
  8
ASHADE
 10
1.732280342608687
 20
0.0
 30
-0.000000000257809
  0
VERTEX
  5
3E85E
  8
ASHADE
 10
0.4724406054317942
 20
0.0
 30
-0.000000000257809
  0
VERTEX
  5
3E85F
  8
ASHADE
 10
0.4724406054317936
 20
0.0551179740409462
 30
-0.000000000257809
 42
-0.2499594241704841
  0
VERTEX
  5
3E860
  8
ASHADE
 10
0.5366665937006461
 20
0.1181099770329084
 30
-0.000000000257809
  0
VERTEX
  5
3E861
  8
ASHADE
 10
0.5972890894711009
 20
0.1181099843661375
 30
-0.000000000257809
  0
VERTEX
  5
3E862
  8
ASHADE
 10
0.5972890894710998
 20
0.1732279714009821
 30
-0.000000000257809
 42
-0.2499584634824056
  0
VERTEX
  5
3E863
  8
ASHADE
 10
0.6615155470669258
 20
0.2362199817261761
 30
-0.000000000257809
  0
VERTEX
  5
3E864
  8
ASHADE
 10
0.7097661145031429
 20
0.2362199817261761
 30
-0.000000000257809
  0
VERTEX
  5
3E865
  8
ASHADE
 10
0.7097661145031433
 20
0.2913379320948506
 30
-0.000000000257809
 42
-0.2499594101516561
  0
VERTEX
  5
3E866
  8
ASHADE
 10
0.7739921027719956
 20
0.3543299424200441
 30
-0.000000000257809
  0
VERTEX
  5
3E867
  8
ASHADE
 10
0.8104646751582592
 20
0.354329957086502
 30
-0.000000000257809
 42
0.1357936747604431
  0
VERTEX
  5
3E868
  8
ASHADE
 10
1.1641192103922351
 20
0.8784199225603616
 30
-0.000000000257809
 42
0.0918089509731177
  0
VERTEX
  5
3E869
  8
ASHADE
 10
1.3251410708725431
 20
1.5535050617306521
 30
-0.000000000257809
  0
VERTEX
  5
3E86A
  8
ASHADE
 10
1.3129268364012221
 20
1.806662025585684
 30
-0.000000000257809
  0
VERTEX
  5
3E86B
  8
ASHADE
 10
2.1516338488161542
 20
1.806662025585688
 30
-0.000000000257809
 42
0.5423567394963382
  0
VERTEX
  5
3E86C
  8
ASHADE
 10
2.1701473899185642
 20
2.0231969364135631
 30
-0.000000000257809
 42
-0.1182518442370882
  0
VERTEX
  5
3E86D
  8
ASHADE
 10
2.442265515476465
 20
2.6074993965475892
 30
-0.000000000257809
 42
0.4503055329897991
  0
VERTEX
  5
3E86E
  8
ASHADE
 10
2.3770886707603931
 20
2.7620961707680571
 30
-0.000000000257809
  0
SEQEND
  5
3E86F
  8
ASHADE
  0
POLYLINE
  5
3E7CF
  8
ASHADE
 66
     1
 10
0.0
 20
0.0
 30
-0.000000000257809
  0
VERTEX
  5
3E870
  8
ASHADE
 10
2.170147389918565
 20
2.0231969364135609
 30
-0.000000000257809
  0
VERTEX
  5
3E871
  8
ASHADE
 10
1.2944132952988141
 20
2.0231969364135631
 30
-0.000000000257809
 42
0.542356739496337
  0
VERTEX
  5
3E872
  8
ASHADE
 10
1.312926836401223
 20
1.806662025585688
 30
-0.000000000257809
  0
SEQEND
  5
3E873
  8
ASHADE
  0
POLYLINE
  5
3E7D0
  8
ASHADE
 66
     1
 10
0.0
 20
0.0
 30
-0.000000000257809
  0
VERTEX
  5
3E874
  8
ASHADE
 10
1.0874720144569849
 20
2.7620961707680571
 30
-0.000000000257809
 42
0.4503055329897985
  0
VERTEX
  5
3E875
  8
ASHADE
 10
1.0222951697409131
 20
2.6074993965475879
 30
-0.000000000257809
 42
-0.1182518442370882
  0
VERTEX
  5
3E876
  8
ASHADE
 10
1.2944132952988121
 20
2.02319693641356
 30
-0.000000000257809
  0
SEQEND
  5
3E877
  8
ASHADE
  0
POLYLINE
  5
3E7D6
  8
ASHADE
 66
     1
 10
0.0
 20
0.0
 30
-0.000000000257809
  0
VERTEX
  5
3E878
  8
ASHADE
 10
1.3214620167314981
 20
2.9765391739456941
 30
-0.000000000257809
  0
VERTEX
  5
3E879
  8
ASHADE
 10
2.1430986684858802
 20
2.9765391739456941
 30
-0.000000000257809
  0
SEQEND
  5
3E87A
  8
ASHADE
  0
POLYLINE
  5
3E7D7
  8
ASHADE
 66
     1
 10
0.0
 20
0.0
 30
-0.000000000257809
  0
VERTEX
  5
3E87B
  8
ASHADE
 10
1.1956683081686481
 20
2.8849516578166838
 30
-0.000000000257809
  0
VERTEX
  5
3E87C
  8
ASHADE
 10
2.2688923770487301
 20
2.8849516578166838
 30
-0.000000000257809
  0
SEQEND
  5
3E87D
  8
ASHADE
  0
POLYLINE
  5
3E7DA
  8
ASHADE
 66
     1
 10
0.0
 20
0.0
 30
-0.000000000257809
  0
VERTEX
  5
3E87E
  8
ASHADE
 10
2.151633848816155
 20
1.806662025585684
 30
-0.000000000257809
  0
VERTEX
  5
3E87F
  8
ASHADE
 10
2.1394196143448281
 20
1.553505061730647
 30
-0.000000000257809
 42
0.091808950973119
  0
VERTEX
  5
3E880
  8
ASHADE
 10
2.3004414748251412
 20
0.8784199225603686
 30
-0.000000000257809
 42
0.1357936747604439
  0
VERTEX
  5
3E881
  8
ASHADE
 10
2.6540960100591162
 20
0.3543299570865044
 30
-0.000000000257809
  0
SEQEND
  5
3E882
  8
ASHADE
  0
POLYLINE
  5
3E7F2
  8
ASHADE
 66
     1
 10
0.0
 20
0.0
 30
-0.000000000257809
  0
VERTEX
  5
3E883
  8
ASHADE
 10
0.7097661145031429
 20
0.2362199817261761
 30
-0.000000000257809
  0
VERTEX
  5
3E884
  8
ASHADE
 10
2.7547945707142301
 20
0.2362199817261761
 30
-0.000000000257809
  0
SEQEND
  5
3E885
  8
ASHADE
  0
POLYLINE
  5
3E7F3
  8
ASHADE
 66
     1
 10
0.0
 20
0.0
 30
-0.000000000257809
  0
VERTEX
  5
3E886
  8
ASHADE
 10
0.5972890894711009
 20
0.1181099843661375
 30
-0.000000000257809
  0
VERTEX
  5
3E887
  8
ASHADE
 10
2.8672715957462751
 20
0.1181099843661375
 30
-0.000000000257809
  0
SEQEND
  5
3E888
  8
ASHADE
  0
POLYLINE
  5
3E7F6
  8
ASHADE
 66
     1
 10
0.0
 20
0.0
 30
0.0
 70
     1
  0
VERTEX
  5
3E889
  8
ASHADE
 10
2.7547944533824902
 20
0.2913379320948505
 30
0.0
 42
0.249959410151656
  0
VERTEX
  5
3E88A
  8
ASHADE
 10
2.690568465113639
 20
0.3543299424200441
 30
0.0
  0
VERTEX
  5
3E88B
  8
ASHADE
 10
2.654095892727375
 20
0.3543299570865059
 30
0.0
  0
VERTEX
  5
3E88C
  8
ASHADE
 10
1.259839737176895
 20
0.3543299570865059
 30
0.0
  0
VERTEX
  5
3E88D
  8
ASHADE
 10
0.3380240697264669
 20
0.3543299570865059
 30
0.0
  0
VERTEX
  5
3E88E
  8
ASHADE
 10
0.301551497340203
 20
0.3543299424200439
 30
0.0
 42
0.2499594101516561
  0
VERTEX
  5
3E88F
  8
ASHADE
 10
0.23732550907135
 20
0.2913379320948426
 30
0.0
  0
VERTEX
  5
3E890
  8
ASHADE
 10
0.23732550907135
 20
0.2362199817261761
 30
0.0
  0
VERTEX
  5
3E891
  8
ASHADE
 10
0.1890749416351311
 20
0.2362199817261751
 30
0.0
 42
0.2499584634824056
  0
VERTEX
  5
3E892
  8
ASHADE
 10
0.1248484840393071
 20
0.1732279714009763
 30
0.0
  0
VERTEX
  5
3E893
  8
ASHADE
 10
0.1248484840393071
 20
0.1181099843661375
 30
0.0
  0
VERTEX
  5
3E894
  8
ASHADE
 10
0.0642259882688518
 20
0.1181099770329055
 30
0.0
 42
0.2499594241704841
  0
VERTEX
  5
3E895
  8
ASHADE
 10
0.0
 20
0.0551179740409396
 30
0.0
  0
VERTEX
  5
3E896
  8
ASHADE
 10
0.0
 20
0.0
 30
0.0
  0
VERTEX
  5
3E897
  8
ASHADE
 10
1.259839737176893
 20
0.0
 30
0.0
  0
VERTEX
  5
3E898
  8
ASHADE
 10
2.9921199624538382
 20
0.0
 30
0.0
  0
VERTEX
  5
3E899
  8
ASHADE
 10
2.9921199624538408
 20
0.055117974040946
 30
0.0
 42
0.2499594241704846
  0
VERTEX
  5
3E89A
  8
ASHADE
 10
2.927893974184987
 20
0.1181099770329084
 30
0.0
  0
VERTEX
  5
3E89B
  8
ASHADE
 10
2.867271478414529
 20
0.1181099843661375
 30
0.0
  0
VERTEX
  5
3E89C
  8
ASHADE
 10
2.8672714784145348
 20
0.1732279714009821
 30
0.0
 42
0.2499584634824056
  0
VERTEX
  5
3E89D
  8
ASHADE
 10
2.803045020818709
 20
0.2362199817261761
 30
0.0
  0
VERTEX
  5
3E89E
  8
ASHADE
 10
2.7547944533824862
 20
0.2362199817261761
 30
0.0
  0
SEQEND
  5
3E89F
  8
ASHADE
  0
POLYLINE
  5
3E808
  8
ASHADE
 66
     1
 10
0.0
 20
0.0
 30
0.0
  0
VERTEX
  5
3E8A0
  8
ASHADE
 10
0.23732550907135
 20
0.2362199817261761
 30
0.0
  0
VERTEX
  5
3E8A1
  8
ASHADE
 10
1.259839737176893
 20
0.2362199817261761
 30
0.0
  0
VERTEX
  5
3E8A2
  8
ASHADE
 10
2.7547944533824862
 20
0.2362199817261761
 30
0.0
  0
SEQEND
  5
3E8A3
  8
ASHADE
  0
POLYLINE
  5
3E809
  8
ASHADE
 66
     1
 10
0.0
 20
0.0
 30
0.0
  0
VERTEX
  5
3E8A4
  8
ASHADE
 10
0.1248484840393071
 20
0.1181099843661375
 30
0.0
  0
VERTEX
  5
3E8A5
  8
ASHADE
 10
1.259839737176895
 20
0.1181099843661375
 30
0.0
  0
VERTEX
  5
3E8A6
  8
ASHADE
 10
2.867271478414529
 20
0.1181099843661375
 30
0.0
  0
SEQEND
  5
3E8A7
  8
ASHADE
  0
ENDSEC
  0
EOF
