  0
SECTION
  2
HEADER
  9
$ACADVER
  1
AC1009
  9
$INSBASE
 10
17.322602229800001
 20
-4.9118028412000001
 30
0.0
  9
$EXTMIN
 10
8.6720788023648936
 20
-4.9232614130165402
 30
-0.0015258207003583
  9
$EXTMAX
 10
18.38846571778052
 20
11.220684305416651
 30
0.0000000349246037
  9
$LIMMIN
 10
0.0
 20
0.0
  9
$LIMMAX
 10
11.692913385800001
 20
8.2677165353999982
  9
$ORTHOMODE
 70
     0
  9
$REGENMODE
 70
     1
  9
$FILLMODE
 70
     1
  9
$QTEXTMODE
 70
     0
  9
$MIRRTEXT
 70
     0
  9
$DRAGMODE
 70
     2
  9
$LTSCALE
 40
0.6431102362
  9
$OSMODE
 70
   231
  9
$ATTMODE
 70
     1
  9
$TEXTSIZE
 40
0.2
  9
$TRACEWID
 40
0.05
  9
$TEXTSTYLE
  7
STANDARD
  9
$CLAYER
  8
0
  9
$CELTYPE
  6
BYLAYER
  9
$CECOLOR
 62
   256
  9
$DIMSCALE
 40
1.0
  9
$DIMASZ
 40
0.1875
  9
$DIMEXO
 40
0.0625
  9
$DIMDLI
 40
0.4443307087
  9
$DIMRND
 40
0.0
  9
$DIMDLE
 40
0.0
  9
$DIMEXE
 40
0.125
  9
$DIMTP
 40
0.0
  9
$DIMTM
 40
0.0
  9
$DIMTXT
 40
1.0
  9
$DIMCEN
 40
0.1052362205
  9
$DIMTSZ
 40
0.0
  9
$DIMTOL
 70
     0
  9
$DIMLIM
 70
     0
  9
$DIMTIH
 70
     1
  9
$DIMTOH
 70
     1
  9
$DIMSE1
 70
     0
  9
$DIMSE2
 70
     0
  9
$DIMTAD
 70
     0
  9
$DIMZIN
 70
     0
  9
$DIMBLK
  1

  9
$DIMASO
 70
     1
  9
$DIMSHO
 70
     1
  9
$DIMPOST
  1
\X
  9
$DIMAPOST
  1

  9
$DIMALT
 70
     1
  9
$DIMALTD
 70
     2
  9
$DIMALTF
 40
25.399999999999999
  9
$DIMLFAC
 40
1.0
  9
$DIMTOFL
 70
     0
  9
$DIMTVP
 40
0.0
  9
$DIMTIX
 70
     0
  9
$DIMSOXD
 70
     0
  9
$DIMSAH
 70
     0
  9
$DIMBLK1
  1

  9
$DIMBLK2
  1

  9
$DIMSTYLE
  2
STANDARD
  9
$DIMCLRD
 70
     0
  9
$DIMCLRE
 70
     0
  9
$DIMCLRT
 70
     0
  9
$DIMTFAC
 40
1.0
  9
$DIMGAP
 40
0.09
  9
$LUNITS
 70
     2
  9
$LUPREC
 70
     4
  9
$SKETCHINC
 40
0.1
  9
$FILLETRAD
 40
0.0
  9
$AUNITS
 70
     0
  9
$AUPREC
 70
     0
  9
$MENU
  1
.
  9
$ELEVATION
 40
0.0
  9
$PELEVATION
 40
0.0
  9
$THICKNESS
 40
0.0
  9
$LIMCHECK
 70
     0
  9
$BLIPMODE
 70
     0
  9
$CHAMFERA
 40
0.0
  9
$CHAMFERB
 40
0.0
  9
$SKPOLY
 70
     0
  9
$TDCREATE
 40
2457954.5844966322
  9
$TDUPDATE
 40
2457954.675321111
  9
$TDINDWG
 40
0.0852428356
  9
$TDUSRTIMER
 40
0.0852428356
  9
$USRTIMER
 70
     1
  9
$ANGBASE
 50
0.0
  9
$ANGDIR
 70
     0
  9
$PDMODE
 70
     0
  9
$PDSIZE
 40
0.3125
  9
$PLINEWID
 40
0.0
  9
$COORDS
 70
     1
  9
$SPLFRAME
 70
     0
  9
$SPLINETYPE
 70
     6
  9
$SPLINESEGS
 70
     8
  9
$ATTDIA
 70
     1
  9
$ATTREQ
 70
     1
  9
$HANDLING
 70
     1
  9
$HANDSEED
  5
1F6E
  9
$SURFTAB1
 70
     6
  9
$SURFTAB2
 70
     6
  9
$SURFTYPE
 70
     6
  9
$SURFU
 70
     6
  9
$SURFV
 70
     6
  9
$UCSNAME
  2

  9
$UCSORG
 10
0.0
 20
0.0
 30
0.0
  9
$UCSXDIR
 10
1.0
 20
0.0
 30
0.0
  9
$UCSYDIR
 10
0.0
 20
1.0
 30
0.0
  9
$PUCSNAME
  2

  9
$PUCSORG
 10
0.0
 20
0.0
 30
0.0
  9
$PUCSXDIR
 10
1.0
 20
0.0
 30
0.0
  9
$PUCSYDIR
 10
0.0
 20
1.0
 30
0.0
  9
$USERI1
 70
     0
  9
$USERI2
 70
     0
  9
$USERI3
 70
     0
  9
$USERI4
 70
     0
  9
$USERI5
 70
     0
  9
$USERR1
 40
0.0
  9
$USERR2
 40
0.0
  9
$USERR3
 40
0.0
  9
$USERR4
 40
0.0
  9
$USERR5
 40
0.0
  9
$WORLDVIEW
 70
     1
  9
$SHADEDGE
 70
     3
  9
$SHADEDIF
 70
    70
  9
$TILEMODE
 70
     1
  9
$MAXACTVP
 70
    48
  9
$PLIMCHECK
 70
     0
  9
$PEXTMIN
 10
1.0000000000000000E+020
 20
1.0000000000000000E+020
 30
1.0000000000000000E+020
  9
$PEXTMAX
 10
-1.0000000000000000E+020
 20
-1.0000000000000000E+020
 30
-1.0000000000000000E+020
  9
$PLIMMIN
 10
0.0
 20
0.0
  9
$PLIMMAX
 10
12.0
 20
9.0
  9
$UNITMODE
 70
     0
  9
$VISRETAIN
 70
     1
  9
$PLINEGEN
 70
     0
  9
$PSLTSCALE
 70
     1
  0
ENDSEC
  0
SECTION
  2
TABLES
  0
TABLE
  2
VPORT
 70
     1
  0
VPORT
  2
*ACTIVE
 70
     0
 10
0.0
 20
0.0
 11
1.0
 21
1.0
 12
13.530272260072699
 22
3.1487114462000561
 13
0.0
 23
0.0
 14
1.0
 24
1.0
 15
0.0
 25
0.0
 16
0.0
 26
0.0
 36
1.0
 17
0.0
 27
0.0
 37
0.0
 40
16.247409289435559
 41
1.786624203821656
 42
50.0
 43
0.0
 44
0.0
 50
0.0
 51
0.0
 71
     0
 72
   100
 73
     1
 74
     1
 75
     0
 76
     0
 77
     0
 78
     0
  0
ENDTAB
  0
TABLE
  2
LTYPE
 70
     8
  0
LTYPE
  2
CONTINUOUS
 70
     0
  3
Solid line
 72
    65
 73
     0
 40
0.0
  0
LTYPE
  2
PHANTOM2
 70
     0
  3
___ _ _ ___ _ _ ___ _ _ ___ _ _
 72
    65
 73
     6
 40
1.25
 49
0.625
 49
-0.125
 49
0.125
 49
-0.125
 49
0.125
 49
-0.125
  0
ENDTAB
  0
TABLE
  2
LAYER
 70
    45
  0
LAYER
  2
0
 70
     0
 62
     7
  6
CONTINUOUS
  0
LAYER
  2
DEFPOINTS
 70
     0
 62
     7
  6
CONTINUOUS
  0
ENDTAB
  0
TABLE
  2
STYLE
 70
     2
  0
STYLE
  2
STANDARD
 70
     0
 40
0.0
 41
0.8
 50
0.0
 71
     0
 42
0.2
  3
txt
  4

  0
ENDTAB
  0
TABLE
  2
VIEW
 70
     0
  0
ENDTAB
  0
TABLE
  2
UCS
 70
     0
  0
ENDTAB
  0
TABLE
  2
APPID
 70
     7
  0
APPID
  2
ACAD
 70
     0
  0
APPID
  2
ACAD_MLEADERVER
 70
     0
  0
APPID
  2
ACAD_NAV_VCDISPLAY
 70
     0
  0
APPID
  2
ACAD_DSTYLE_DIMJAG
 70
     0
  0
APPID
  2
ACAD_DSTYLE_DIMTALN
 70
     0
  0
APPID
  2
ACAD_EXEMPT_FROM_CAD_STANDARDS
 70
     0
  0
APPID
  2
AcDbAttr
 70
     0
  0
ENDTAB
  0
TABLE
  2
DIMSTYLE
 70
     2
  0
DIMSTYLE
  2
STANDARD
 70
     0
  3

  4

  5

  6

  7

 40
1.0
 41
0.1875
 42
0.0625
 43
0.38
 44
0.125
 45
0.0
 46
0.0
 47
1.5
 48
1.5
140
0.15625
141
0.09
142
0.0
143
25.399999999999999
144
1.0
145
0.0
146
1.0
147
0.09
 71
     0
 72
     0
 73
     1
 74
     1
 75
     0
 76
     0
 77
     0
 78
     4
170
     0
171
     2
172
     0
173
     0
174
     0
175
     0
176
     0
177
     0
178
     0
  0
ENDTAB
  0
ENDSEC
  0
SECTION
  2
BLOCKS
  0
BLOCK
  8
0
  2
$MODEL_SPACE
 70
     0
 10
0.0
 20
0.0
 30
0.0
  3
$MODEL_SPACE
  1

  0
ENDBLK
  5
21
  8
0
  0
BLOCK
 67
     1
  8
0
  2
$PAPER_SPACE
 70
     0
 10
0.0
 20
0.0
 30
0.0
  3
$PAPER_SPACE
  1

  0
ENDBLK
  5
1D
 67
     1
  8
0
  0
ENDSEC
  0
SECTION
  2
ENTITIES
  0
LINE
  5
114A
  8
0
 10
8.7739432676999982
 20
4.898094498199999
 30
0.0
 11
8.7696025219000013
 21
4.8829565188000004
 31
0.0
  0
LINE
  5
114B
  8
0
 10
9.7409630374000002
 20
8.2120507552999982
 30
0.0
 11
9.6224389744000014
 21
7.7987082259999996
 31
0.0
  0
LINE
  5
1151
  8
0
 10
9.6023397796999994
 20
7.7337083113
 30
0.0
 11
8.8448976496
 21
5.3979484792999992
 31
0.0
  0
LINE
  5
1157
  8
0
 10
8.8928823273000006
 20
4.7843935846000001
 30
0.0
 11
8.8984686121000003
 21
4.837543533799999
 31
0.0
  0
LINE
  5
1170
  8
0
 10
9.0553882562000005
 20
4.7088562690999991
 30
0.0
 11
9.0608141884000002
 21
4.7277787434
 31
0.0
  0
LINE
  5
11E5
  8
0
 10
10.6310956178
 20
7.1748538414
 30
0.0
 11
10.686030071799999
 21
7.4227884866999991
 31
0.0
  0
LINE
  5
1214
  8
0
 10
9.8177131616000004
 20
4.5107414553999989
 30
0.0
 11
9.8122872294000008
 21
4.4918189809999998
 31
0.0
  0
LINE
  5
121B
  8
0
 10
10.822382445300001
 20
7.9019587299999987
 30
0.0
 11
10.7038583823
 21
7.4886162007000001
 31
0.0
  0
LINE
  5
1227
  8
0
 10
10.612499253799999
 20
6.5968921054999994
 30
0.0
 11
10.7481475589
 21
7.0699539636999988
 31
0.0
  0
LINE
  5
1243
  8
0
 10
9.9901287516000004
 20
4.4697632354000003
 30
0.0
 11
10.0135564952
 21
4.5177972280000001
 31
0.0
  0
LINE
  5
126C
  8
0
 10
10.3591164428
 20
4.9590906221999997
 30
0.0
 11
10.367770114800001
 21
4.999618397099999
 31
0.0
  0
LINE
  5
126F
  8
0
 10
10.151247099200001
 20
4.5031589798000002
 30
0.0
 11
10.1469063534
 21
4.488021000299999
 31
0.0
  0
LINE
  5
1271
  8
0
 10
10.4957440591
 20
5.5788241625000001
 30
0.0
 11
10.6444080443
 21
6.0964586566999994
 31
0.0
  0
LINE
  5
1286
  8
0
 10
10.4939283182
 20
5.5550179689999988
 30
0.0
 11
10.4984527295
 21
5.5197032603
 31
0.0
  0
LINE
  5
128F
  8
0
 10
17.276089878200001
 20
1.361357444499999
 30
0.0
 11
17.2488639611
 21
1.3613625131
 31
0.0
  0
LINE
  5
129C
  8
0
 10
9.0621367310000007
 20
4.6966820073999989
 30
0.0
 11
9.8001128223999991
 21
4.4850707683999991
 31
0.0
  0
LINE
  5
12CF
  8
0
 10
8.7696025219000013
 20
4.8829565188000004
 30
0.0
 11
10.1469063534
 21
4.488021000299999
 31
0.0
  0
LINE
  5
12D0
  8
0
 10
8.7044238325999999
 20
4.9180288755000001
 30
0.0
 11
10.220766534299999
 21
4.4832246024999991
 31
0.0
  0
LINE
  5
12D3
  8
0
 10
10.333174765200001
 20
4.7766924039999994
 30
0.0
 11
8.7646104877999989
 21
5.2264709727999987
 31
0.0
  0
LINE
  5
12DA
  8
0
 10
17.885151482200001
 20
4.2474666351999986
 30
0.0
 11
16.760052977400001
 21
4.2474666351999986
 31
0.0
  0
LINE
  5
12DC
  8
0
 10
17.843014665599998
 20
4.2774666351999988
 30
0.0
 11
16.7901159647
 21
4.2774666351999988
 31
0.0
  0
LINE
  5
12DD
  8
0
 10
16.790112272799998
 20
4.2774666351999988
 30
0.0
 11
17.855102224399999
 21
4.2774666351999988
 31
0.0
  0
LINE
  5
12FE
  8
0
 10
10.575976644000001
 20
6.5766472922999997
 30
0.0
 11
10.5115257235
 21
6.5951282963999986
 31
0.0
  0
LINE
  5
12FF
  8
0
 10
10.6181843287
 20
6.1449965180999992
 30
0.0
 11
10.4562167415
 21
6.1949189775000004
 31
0.0
  0
LINE
  5
1312
  8
0
 10
10.7279027457
 20
7.1064765735000002
 30
0.0
 11
10.606156493
 21
7.1413867496999996
 31
0.0
  0
LINE
  5
131D
  8
0
 10
16.760102229800001
 20
4.3074666351999991
 30
0.0
 11
16.760102229800001
 21
7.0674666351999988
 31
0.0
  0
LINE
  5
131E
  8
0
 10
16.770102229799999
 20
4.2574666352000001
 30
0.0
 11
16.770102229799999
 21
4.2474666351999986
 31
0.0
  0
LINE
  5
132C
  8
0
 10
9.6430077098000009
 20
7.7616012529999994
 30
0.0
 11
10.666751405599999
 21
7.4680474720000003
 31
0.0
  0
LINE
  5
133B
  8
0
 10
17.885102229800001
 20
4.3074666351999991
 30
0.0
 11
17.885102229800001
 21
7.0674666351999988
 31
0.0
  0
ARC
  5
1399
  8
0
 10
9.0648494933000006
 20
4.7061433030000002
 30
0.0
 40
0.0098425197
 50
164.0
 51
254.00123375179999
  0
ARC
  5
139B
  8
0
 10
8.7152685327999997
 20
4.9558758783999988
 30
0.0
 40
0.0393700787
 50
198.11269390599989
 51
254.0
  0
ARC
  5
13AD
  8
0
 10
9.6512768253000001
 20
7.7904391052999991
 30
0.0
 40
0.03
 50
164.0
 51
254.0000102475
  0
ARC
  5
13AF
  8
0
 10
10.5525046587
 20
5.5625225886000003
 30
0.0
 40
0.0590551181
 50
163.97600000049999
 51
187.3007865699
  0
ARC
  5
13B1
  8
0
 10
10.2316255629
 20
4.5210674968999989
 30
0.0
 40
0.0393700787
 50
254.0
 51
309.887306094
  0
ARC
  5
13BE
  8
0
 10
9.8028259922000007
 20
4.4945319470999987
 30
0.0
 40
0.0098425197
 50
253.99876624820001
 51
344.0
  0
ARC
  5
13BF
  8
0
 10
10.6750205315
 20
7.4968853213999989
 30
0.0
 40
0.03
 50
253.9999897525
 51
344.0
  0
ARC
  5
13C0
  8
0
 10
10.584115542299999
 20
6.6050310037999989
 30
0.0
 40
0.0295275591
 50
254.0
 51
344.0
  0
ARC
  5
13C1
  8
0
 10
10.719763847399999
 20
7.0780928620000001
 30
0.0
 40
0.0295275591
 50
344.0
 51
74.0
  0
ARC
  5
13C5
  8
0
 10
17.322602229800001
 20
-2.353637486899999
 30
0.0
 40
0.7500037942
 50
199.4621936522
 51
87.709512252099998
  0
ARC
  5
13CC
  8
0
 10
13.732602229799999
 20
7.0674666351999988
 30
0.0
 40
4.152499999999999
 50
0.0
 51
164.0
  0
ARC
  5
13CD
  8
0
 10
13.732602229799999
 20
7.0674666351999988
 30
0.0
 40
3.027499999999999
 50
0.0
 51
164.0
  0
ARC
  5
13CF
  8
0
 10
16.7112058439
 20
4.0667437438
 30
0.0
 40
0.03
 50
359.32609160089999
 51
59.690361769600003
  0
ARC
  5
13D4
  8
0
 10
17.8551022298
 20
4.3074666351999991
 30
0.0
 40
0.03
 50
269.99998975300002
 51
360.0
  0
ARC
  5
13D7
  8
0
 10
16.790102229799999
 20
4.2574666352000001
 30
0.0
 40
0.02
 50
90.0
 51
180.0
  0
ARC
  5
1793
  8
0
 10
8.7456813021938409
 20
4.9685394558917997
 30
0.0
 40
0.0722588563661069
 50
144.17727790151909
 51
200.15976352938949
  0
ARC
  5
1794
  8
0
 10
8.1077128559722897
 20
5.5186549441912343
 30
0.0
 40
0.7704315237136892
 50
318.76552032324219
 51
327.06703820249243
  0
ARC
  5
1795
  8
0
 10
8.505637651584923
 20
5.2268491226463851
 30
0.0
 40
0.2792742096050391
 50
332.94077886777058
 51
349.0297665511788
  0
ARC
  5
1796
  8
0
 10
8.7219674267197327
 20
5.1856166425477577
 30
0.0
 40
0.0590551179717263
 50
348.36192526832951
 51
43.77276341433577
  0
ARC
  5
1797
  8
0
 10
8.8370998580430449
 20
5.2770209969676651
 30
0.0
 40
0.0883742821276924
 50
149.07059511484749
 51
214.8897583769475
  0
ARC
  5
1798
  8
0
 10
8.8267958133917173
 20
5.2895743604341954
 30
0.0
 40
0.0732878452953561
 50
109.1942181162195
 51
153.35269861419931
  0
ARC
  5
1799
  8
0
 10
8.7887223662722906
 20
5.4161649922278192
 30
0.0
 40
0.0590551103271288
 50
283.69201911919703
 51
342.03305239523831
  0
ARC
  5
179A
  8
0
 10
10.21254474465724
 20
4.5479231323129028
 30
0.0
 40
0.0722588570303317
 50
307.84023681431762
 51
3.8227218477488991
  0
ARC
  5
179B
  8
0
 10
10.596459757363039
 20
4.6337361629996527
 30
0.0
 40
0.3221646707369566
 50
160.7413490056702
 51
194.560990529018
  0
ARC
  5
179C
  8
0
 10
10.347688635400001
 20
4.7194485874000041
 30
0.0
 40
0.0590551180999965
 50
104.2272362739261
 51
159.6380750663514
  0
ARC
  5
179D
  8
0
 10
10.2991637914701
 20
4.8573782282999698
 30
0.0
 40
0.0875611133132937
 50
292.85656795852429
 51
357.93087517229401
  0
ARC
  5
179E
  8
0
 10
10.31142170039805
 20
4.8627377258344877
 30
0.0
 40
0.0757270332595191
 50
353.53931889687527
 51
36.068365205290419
  0
ARC
  5
179F
  8
0
 10
10.416814132394959
 20
4.9465065066738809
 30
0.0
 40
0.0590540713936916
 50
167.69622263822129
 51
221.5700048320949
  0
ARC
  5
17A0
  8
0
 10
8.5607153770115971
 20
4.769835513162394
 30
0.0
 40
1.821605610200572
 50
7.2467701439658638
 51
9.1692550426307253
  0
ARC
  5
17A1
  8
0
 10
10.352453368870851
 20
5.0988105497531073
 30
0.0
 40
0.0392567607471527
 50
279.66541352727882
 51
353.72479683443032
  0
ARC
  5
17A2
  8
0
 10
10.36062011505545
 20
5.1003045576517998
 30
0.0
 40
0.0313924236606748
 50
349.3809572669856
 51
3.2028049081884178
  0
ARC
  5
17A3
  8
0
 10
10.840374793548399
 20
5.1182891954944401
 30
0.0
 40
0.4487106538010906
 50
174.40612164129581
 51
182.1043647963842
  0
ARC
  5
17A4
  8
0
 10
10.786312092427931
 20
5.1326502078536693
 30
0.0
 40
0.393609012725994
 50
162.92411577260259
 51
175.71986069861219
  0
ARC
  5
17A5
  8
0
 10
14.09313822744442
 20
4.0324535052646162
 30
0.0
 40
3.8785582391964528
 50
160.6507334539213
 51
161.7320922142444
  0
ARC
  5
17A6
  8
0
 10
3.2006994446190271
 20
7.9742335229665091
 30
0.0
 40
7.7054377928858289
 50
339.83137404719162
 51
341.224347019569
  0
ARC
  5
17A7
  8
0
 10
10.439878439450959
 20
5.5121991163388229
 30
0.0
 40
0.0590530238962835
 50
342.18804365987222
 51
7.3008136383839508
  0
ARC
  5
17A8
  8
0
 10
10.606570281597589
 20
6.1073263350369844
 30
0.0
 40
0.0393675339084291
 50
343.97872469519268
 51
72.864981826579722
  0
ARC
  5
17A9
  8
0
 10
11.01875537761355
 20
5.8927984925493719
 30
0.0
 40
0.6389967918199969
 50
147.46615835786119
 51
165.05899613010521
  0
ARC
  5
17AA
  8
0
 10
10.905763545517161
 20
5.9258095383099496
 30
0.0
 40
0.5213212800500159
 50
165.3626605119691
 51
179.13230783565271
  0
ARC
  5
17AB
  8
0
 10
2.2017387246240832
 20
6.0925646846652191
 30
0.0
 40
8.1843052375889442
 50
354.6905153261992
 51
358.88779701256061
  0
ARC
  5
17AC
  8
0
 10
11.382264689986259
 20
5.229859091468394
 30
0.0
 40
1.036704874137099
 50
174.16656042926951
 51
185.73404716690109
  0
ARC
  5
17AD
  8
0
 10
12.620890765780549
 20
5.3773368222388376
 30
0.0
 40
2.2839836639145048
 50
186.3107164950992
 51
187.98370383033409
  0
ARC
  5
17AE
  8
0
 10
65.291728478562632
 20
198.8391251215248
 30
0.0
 40
201.55805881320779
 50
253.7241686509303
 51
254.18853184038389
  0
ARC
  5
17AF
  8
0
 10
9.6397995658076407
 20
7.7215654887417866
 30
0.0
 40
0.0393691309903156
 50
74.001547611612352
 51
162.03918482994931
  0
ARC
  5
17B0
  8
0
 10
10.645982423204631
 20
7.4324651716159211
 30
0.0
 40
0.0412001302574872
 50
346.41600449828729
 51
59.728378585793443
  0
ARC
  5
17B1
  8
0
 10
10.42245595193401
 20
7.3043030214415143
 30
0.0
 40
0.2455353342924236
 50
318.43153208080122
 51
328.18272480217939
  0
ARC
  5
17B2
  8
0
 10
11.02454297018866
 20
6.7875819284077501
 30
0.0
 40
0.5479280024537818
 50
139.7807648136735
 51
200.56311085620351
  0
ARC
  5
17B3
  8
0
 10
12.137426000916721
 20
7.0327631106612749
 30
0.0
 40
1.6837683756257129
 50
195.06495365768569
 51
196.19521705440479
  0
ARC
  5
17B4
  8
0
 10
294.76539971924842
 20
-28.789031224470151
 30
0.0
 40
286.43490282363632
 50
172.91040204546459
 51
172.97624931278719
  0
LINE
  5
1806
  8
0
 10
16.332610405899999
 20
-4.9118028412000001
 30
0.0
 11
18.312594053699989
 21
-4.9118028412000001
 31
0.0
  0
LINE
  5
1807
  8
0
 10
16.322602244799999
 20
-4.8518028411999987
 30
0.0
 11
18.3226022148
 21
-4.8518028411999987
 31
0.0
  0
LINE
  5
1808
  8
0
 10
18.335590545500001
 20
-4.4256966125000003
 30
0.0
 11
16.3096139142
 21
-4.4256966125000003
 31
0.0
  0
LINE
  5
1809
  8
0
 10
16.306620328400001
 20
-4.2623563406000002
 30
0.0
 11
18.338575260799999
 21
-4.2623563406000002
 31
0.0
  0
LINE
  5
180A
  8
0
 10
16.332602229799999
 20
-4.8718028412000001
 30
0.0
 11
16.332602229799999
 21
-4.9118028412000001
 31
0.0
  0
LINE
  5
180B
  8
0
 10
16.770102229799999
 20
4.2574666352000001
 30
0.0
 11
16.770102229799999
 21
4.2474666351999977
 31
0.0
  0
LINE
  5
180C
  8
0
 10
17.8751022298
 20
4.2574666352000001
 30
0.0
 11
17.8751022298
 21
4.2474666351999977
 31
0.0
  0
LINE
  5
180D
  8
0
 10
18.3126022298
 20
-4.8718028412000001
 30
0.0
 11
18.3126022298
 21
-4.9118028412000001
 31
0.0
  0
LINE
  5
180E
  8
0
 10
16.5300105928
 20
3.082214046799999
 30
0.0
 11
18.1151938669
 21
3.082214046799999
 31
0.0
  0
LINE
  5
180F
  8
0
 10
16.498803892399991
 20
3.277142318500001
 30
0.0
 11
18.146400567299999
 21
3.277142318500001
 31
0.0
  0
LINE
  5
1810
  8
0
 10
18.17334214009999
 20
3.5748185874999989
 30
0.0
 11
16.4718623196
 21
3.5748185874999989
 31
0.0
  0
LINE
  5
1811
  8
0
 10
17.91885843
 20
4.0926430637999998
 30
0.0
 11
16.72634602969999
 21
4.0926430637999998
 31
0.0
  0
LINE
  5
1812
  8
0
 10
17.885173817399998
 20
4.2474666351999977
 30
0.0
 11
16.760030642299999
 21
4.2474666351999977
 31
0.0
  0
LINE
  5
1813
  8
0
 10
17.8551011765
 20
4.2774666351999988
 30
0.0
 11
16.7901029093
 21
4.2774666351999988
 31
0.0
  0
LINE
  5
1814
  8
0
 10
16.790102229799999
 20
4.2774666351999988
 30
0.0
 11
17.855100107399998
 21
4.2774666351999988
 31
0.0
  0
ARC
  5
1815
  8
0
 10
16.790102229799999
 20
4.3074666351999999
 30
0.0
 40
0.03
 50
180.0
 51
270.0
  0
ARC
  5
1817
  8
0
 10
18.344857483399998
 20
-4.4542294683999986
 30
0.0
 40
0.03
 50
107.99282709789991
 51
178.17440650649999
  0
ARC
  5
1818
  8
0
 10
16.300346976299998
 20
-4.4542294683999986
 30
0.0
 40
0.03
 50
1.825593493499994
 51
72.007172902099995
  0
ARC
  5
1819
  8
0
 10
18.348904716500002
 20
-4.2341874655999989
 30
0.0
 40
0.03
 50
177.79793284390001
 51
249.87804569319999
  0
ARC
  5
181A
  8
0
 10
16.296299743199999
 20
-4.2341874655999989
 30
0.0
 40
0.03
 50
290.12195430679998
 51
2.2020671560999991
  0
ARC
  5
181B
  8
0
 10
18.085731355499998
 20
3.0878674017000001
 30
0.0
 40
0.03
 50
349.13794041649987
 51
47.105358363700049
  0
ARC
  5
181C
  8
0
 10
17.933998615699998
 20
4.0667437438
 30
0.0
 40
0.03
 50
120.3096382304001
 51
180.67390839949999
  0
ARC
  5
181D
  8
0
 10
16.711205843999998
 20
4.0667437438
 30
0.0
 40
0.03
 50
359.32609160050009
 51
59.690361769599917
  0
ARC
  5
181E
  8
0
 10
18.136223389600001
 20
3.305363322299999
 30
0.0
 40
0.03
 50
289.83053222820001
 51
312.85092069629991
  0
ARC
  5
181F
  8
0
 10
16.477954801799999
 20
3.5454437400999992
 30
0.0
 40
0.03
 50
101.7172874650999
 51
158.3837157502
  0
ARC
  5
1820
  8
0
 10
18.16724965789999
 20
3.5454437400999992
 30
0.0
 40
0.03
 50
21.616284249799971
 51
78.282712534900057
  0
ARC
  5
1821
  8
0
 10
17.855102229799989
 20
4.2574666352000001
 30
0.0
 40
0.02
 50
0.0
 51
90.0
  0
ARC
  5
1822
  8
0
 10
16.790102229799999
 20
4.2574666352000001
 30
0.0
 40
0.02
 50
90.0
 51
180.0
  0
ARC
  5
1823
  8
0
 10
16.352602229799999
 20
-4.8718028412000001
 30
0.0
 40
0.02
 50
90.0
 51
180.0
  0
ARC
  5
1824
  8
0
 10
18.292602229799989
 20
-4.8718028412000001
 30
0.0
 40
0.02
 50
0.0
 51
90.0
  0
ARC
  5
1825
  8
0
 10
16.752880569756432
 20
4.1891238549267689
 30
0.0
 40
0.0587792782142525
 50
83.013080653909782
 51
154.0637627445669
  0
ARC
  5
1826
  8
0
 10
16.79785054192773
 20
4.1658761685088797
 30
0.0
 40
0.1093947919398836
 50
153.41551879725969
 51
198.991949905187
  0
ARC
  5
1827
  8
0
 10
16.762218819046179
 20
4.1554518206669
 30
0.0
 40
0.0723311617122343
 50
200.36954305453619
 51
240.267449504859
  0
ARC
  5
1828
  8
0
 10
14.922061051434641
 20
4.1182927637394231
 30
0.0
 40
1.8198829716568881
 50
351.53584697127809
 51
358.36574031836079
  0
ARC
  5
1829
  8
0
 10
16.367772020772861
 20
3.9033669833037652
 30
0.0
 40
0.3582834801899323
 50
312.3766830821429
 51
351.50222680755201
  0
ARC
  5
182A
  8
0
 10
16.353378112767839
 20
4.0093844760861703
 30
0.0
 40
0.4504287055524047
 50
285.25097532992589
 51
304.61615038411378
  0
ARC
  5
182B
  8
0
 10
16.729407732129431
 20
3.4592260217765469
 30
0.0
 40
0.295793664299023
 50
160.8014949683245
 51
186.99208181109651
  0
ARC
  5
182C
  8
0
 10
16.678441981952929
 20
3.4293461098976641
 30
0.0
 40
0.2427054586561458
 50
181.4467260467579
 51
208.89031661084161
  0
ARC
  5
182D
  8
0
 10
16.52932285679989
 20
3.3387661736719898
 30
0.0
 40
0.0687670466869946
 50
202.82813078226911
 51
243.65327281152321
  0
ARC
  5
182E
  8
0
 10
16.472514480998921
 20
3.1897030876550292
 30
0.0
 40
0.0913058171214259
 50
16.810286552135409
 51
73.266109887079864
  0
ARC
  5
182F
  8
0
 10
16.474238546529609
 20
3.177376483079287
 30
0.0
 40
0.0940280867709951
 50
332.8159337308789
 51
24.325859096188609
  0
LINE
  5
1830
  8
0
 10
16.557880615799998
 20
3.1344196983999999
 30
0.0
 11
16.53905353346682
 21
3.1098455984202249
 31
0.0
  0
ARC
  5
1831
  8
0
 10
16.580059783001349
 20
3.0811300271383049
 30
0.0
 40
0.0500609282699998
 50
144.9974816105086
 51
178.7592198349225
  0
ARC
  5
1832
  8
0
 10
8.5745400521147204
 20
1.577592526852075
 30
0.0
 40
8.0965052610307655
 50
0.6759963883970157
 51
10.709872363755499
  0
ARC
  5
1833
  8
0
 10
-70.847459261447284
 20
7.2710284485591528
 30
0.0
 40
87.696788042762165
 50
353.89634634760603
 51
354.30829434086371
  0
ARC
  5
1834
  8
0
 10
35.360429146695402
 20
-3.369441837796153
 30
0.0
 40
19.05373239640873
 50
176.03987729747729
 51
182.59776849186511
  0
ARC
  5
1835
  8
0
 10
16.352848585123368
 20
-4.3422888565743669
 30
0.0
 40
0.0923377431990069
 50
120.0425581505159
 51
196.73124421278251
  0
ARC
  5
1836
  8
0
 10
16.336195770346091
 20
-4.3581712762194451
 30
0.0
 40
0.0725690438514852
 50
188.47895729035051
 51
248.5125477677372
  0
ARC
  5
1837
  8
0
 10
15.611577462200771
 20
-4.5022611814811517
 30
0.0
 40
0.7204217468493951
 50
346.9936974837467
 51
3.8990222867321012
  0
LINE
  5
1838
  8
0
 10
16.313517015599999
 20
-4.6643980270999972
 30
0.0
 11
16.283669111899989
 21
-4.7168738351999986
 31
0.0
  0
ARC
  5
1839
  8
0
 10
16.333369316837921
 20
-4.774129364522107
 30
0.0
 40
0.0758175837706911
 50
130.9593534850741
 51
197.16880702697779
  0
ARC
  5
183A
  8
0
 10
16.331996131822589
 20
-4.779285230348143
 30
0.0
 40
0.0731235187682758
 50
193.6243077915384
 51
262.61904185117692
  0
ARC
  5
183B
  8
0
 10
18.315786776111612
 20
-4.7799939844584731
 30
0.0
 40
0.0721315611299259
 50
275.42174947871308
 51
7.5120053658302126
  0
ARC
  5
183C
  8
0
 10
18.29980154578212
 20
-4.7795242651012888
 30
0.0
 40
0.0879553220584156
 50
5.8470694930641551
 51
45.422223601898139
  0
ARC
  5
183D
  8
0
 10
18.541424027497541
 20
-4.5804460732056818
 30
0.0
 40
0.2257708380772468
 50
176.48508503028771
 51
217.17671774229041
  0
ARC
  5
183E
  8
0
 10
19.87315165477769
 20
-4.4933744294444811
 30
0.0
 40
1.558794833370573
 50
178.52587842420439
 51
182.6926666981413
  0
ARC
  5
183F
  8
0
 10
18.312755191121049
 20
-4.3610382677233677
 30
0.0
 40
0.0685722609206137
 50
289.45166618822839
 51
350.0270064087112
  0
ARC
  5
1840
  8
0
 10
18.257163728535321
 20
-4.345341659415884
 30
0.0
 40
0.1261769553415264
 50
347.37786276764558
 51
25.62511906343703
  0
ARC
  5
1841
  8
0
 10
18.3161546246351
 20
-4.320505806110849
 30
0.0
 40
0.062325300672925
 50
28.493963744381251
 51
68.907293959235659
  0
ARC
  5
1842
  8
0
 10
-3.1631863140618401
 20
-3.3841469542111389
 30
0.0
 40
21.498878979331739
 50
357.73707572191728
 51
3.2804768001114768
  0
ARC
  5
1845
  8
0
 10
31.39739123452609
 20
1.3988362281855531
 30
0.0
 40
13.41725235637502
 50
176.98840259691369
 51
189.1937887624394
  0
ARC
  5
1846
  8
0
 10
29.48226335981521
 20
1.232343339500886
 30
0.0
 40
11.51660933133042
 50
170.7567474050517
 51
175.66054016353121
  0
ARC
  5
1847
  8
0
 10
18.16725939079641
 20
3.176164351705681
 30
0.0
 40
0.0901799394840715
 50
188.68218076183291
 51
227.34142563525799
  0
ARC
  5
1848
  8
0
 10
18.184446280873502
 20
3.178480684365808
 30
0.0
 40
0.1075199727616548
 50
133.57222541852289
 51
188.5198479295029
  0
LINE
  5
1849
  8
0
 10
18.110336159700001
 20
3.2563795577999981
 30
0.0
 11
18.146400567299999
 21
3.277142318500001
 31
0.0
  0
ARC
  5
184A
  8
0
 10
17.946269136911319
 20
3.4450137073017588
 30
0.0
 40
0.2652902570529495
 50
322.46033084362881
 51
0.9185117398344299
  0
ARC
  5
184B
  8
0
 10
17.935464468906151
 20
3.4619484073750679
 30
0.0
 40
0.2763519833010097
 50
357.36972994771787
 51
20.00640992502213
  0
LINE
  5
184C
  8
0
 10
18.173342139951998
 20
3.574818587545491
 30
0.0
 11
18.103435674899998
 21
3.5963078731999998
 31
0.0
  0
ARC
  5
184D
  8
0
 10
18.266524832281569
 20
3.904556364499324
 30
0.0
 40
0.3487337173887027
 50
186.04695537735111
 51
242.11742650925589
  0
ARC
  5
184E
  8
0
 10
19.127172417632082
 20
4.0633817382541544
 30
0.0
 40
1.223175428277349
 50
179.85904547193371
 51
189.19997397366339
  0
ARC
  5
184F
  8
0
 10
17.87186784527313
 20
4.1632131569786424
 30
0.0
 40
0.0847835662336309
 50
303.65849830401118
 51
355.57891913863358
  0
ARC
  5
1850
  8
0
 10
17.851153214745221
 20
4.1651657884734874
 30
0.0
 40
0.105587659934653
 50
355.38898709686708
 51
39.455718936290353
  0
ARC
  5
1851
  8
0
 10
17.889330915711149
 20
4.1786300990352201
 30
0.0
 40
0.0689619473154115
 50
51.054443022478331
 51
93.455944711321322
  0
ARC
  5
185B
  8
0
 10
-13.328461633142719
 20
-4.7598140810298784
 30
0.0
 40
31.735866186260111
 50
4.6934579025405689
 51
7.2726230045459106
  0
ARC
  5
189D
  8
0
 10
17.250393844700731
 20
1.308538612319694
 30
0.0
 40
0.0528460494744327
 50
91.658901496992598
 51
144.23747432632879
  0
ARC
  5
189E
  8
0
 10
22.72450218137028
 20
-1.9254692304828731
 30
0.0
 40
6.4106463218311847
 50
149.38344218393749
 51
156.252569587176
  0
ARC
  5
189F
  8
0
 10
21.741534702064659
 20
-1.4999951365371731
 30
0.0
 40
5.3395701660408852
 50
156.1839213326902
 51
162.37060037569859
  0
ARC
  5
18A0
  8
0
 10
20.437801436244509
 20
-1.1790724434832009
 30
0.0
 40
4.000967913199716
 50
161.07134352194021
 51
168.83634508008831
  0
ARC
  5
18A1
  8
0
 10
17.27421773417587
 20
1.310296150642708
 30
0.0
 40
0.0510956030752919
 50
357.11863903045997
 51
87.900211370915315
  0
ARC
  5
18A2
  8
0
 10
14.69573669256526
 20
1.542846333940703
 30
0.0
 40
2.6400027406542348
 50
337.2242235301473
 51
354.89046855210893
  0
ARC
  5
18A3
  8
0
 10
28.0599138419547
 20
-5.0355829686561782
 30
0.0
 40
12.2612876924769
 50
153.0529153152562
 51
157.2508715652809
  0
ARC
  5
18A4
  8
0
 10
18.61198769449345
 20
-1.009602909259572
 30
0.0
 40
1.992394043285437
 50
158.95649578530251
 51
179.8683546595058
  0
ARC
  5
18A5
  8
0
 10
17.229188392916559
 20
-1.0173347526396019
 30
0.0
 40
0.6097137565036208
 50
178.84316358352191
 51
225.27663339332739
  0
ARC
  5
18A6
  8
0
 10
17.200637790641888
 20
-0.9806770011623974
 30
0.0
 40
0.6173910409612208
 50
229.5570769191275
 51
269.92619085298901
  0
ARC
  5
18A8
  8
0
 10
17.376411812780798
 20
0.8808360630182816
 30
0.0
 40
2.4851840493380069
 50
265.92577077322011
 51
269.4510619859135
  0
ARC
  5
18A9
  8
0
 10
20.350170771625859
 20
-1.368525816907979
 30
0.0
 40
3.9336178506303772
 50
180.84245273296551
 51
198.29808532580779
  0
ARC
  5
18AA
  8
0
 10
20.274481566505209
 20
-1.27164963388038
 30
0.0
 40
3.8606047049755601
 50
167.018799581889
 51
182.29672271041809
  0
ARC
  5
18AB
  8
0
 10
-169.89380698098151
 20
97.477716606845817
 30
0.0
 40
210.474799633841
 50
332.68949955838423
 51
332.81117920094317
  0
ARC
  5
18AC
  8
0
 10
21.01086880165759
 20
-1.1941395613044921
 30
0.0
 40
4.4230005132135473
 50
151.6040964196564
 51
162.8948881114469
  0
ARC
  5
18AD
  8
0
 10
21.896984259263942
 20
-1.437242434173716
 30
0.0
 40
5.3414978673762921
 50
163.19823163097979
 51
171.69748576420139
  0
ARC
  5
18AE
  8
0
 10
17.918234557676239
 20
-0.8939632652464803
 30
0.0
 40
1.3265129015124
 50
170.10153725501269
 51
194.63746472098799
  0
ARC
  5
18AF
  8
0
 10
17.10898008809189
 20
-1.060198019351589
 30
0.0
 40
0.5034125338102657
 50
199.61296166006059
 51
240.53994731310971
  0
ARC
  5
18B0
  8
0
 10
17.315230543618721
 20
-2.3536352130697731
 30
0.0
 40
0.6578277535846856
 50
89.952462749396759
 51
270.2187904585374
  0
ARC
  5
18BA
  8
0
 10
17.313896159012589
 20
-2.3536389247917779
 30
0.0
 40
0.6578304907620297
 50
270.33501327634332
 51
89.873570932211535
  0
ARC
  5
18BB
  8
0
 10
-70.847459261447284
 20
7.2710284485591528
 30
0.0
 40
87.696788042762165
 50
354.9804131980116
 51
356.34017405093948
  0
ARC
  5
18FE
  8
0
 10
8.8880336168536473
 20
4.8381500539517104
 30
0.0
 40
0.0104526069707909
 50
356.6735020622819
 51
69.649671254997926
  0
ARC
  5
18FF
  8
0
 10
9.9812823534983686
 20
4.4740779120233229
 30
0.0
 40
0.0098425197219726
 50
254.00000004655811
 51
333.9995734057585
  0
LINE
  5
1900
  8
0
 10
9.9785670590999995
 20
4.4646173424000004
 30
0.0
 11
8.899957962495316
 21
4.7739035239208709
 31
0.0
  0
ARC
  5
1901
  8
0
 10
8.9026709285847225
 20
4.7833647610322814
 30
0.0
 40
0.0098425196494658
 50
174.0004266688166
 51
254.0000000365369
  0
ARC
  5
1943
  8
0
 10
10.0224029249
 20
4.513482616300001
 30
0.0
 40
0.0098425196999998
 50
75.676410114895475
 51
154.00000000001319
  0
ATTDEF
  5
1BB6
  8
DEFPOINTS
 10
17.318218575629071
 20
-4.921938718631977
 30
0.0
 40
0.001
  1
METAL
  3

  2
MATERIAL
 70
     0
1001
AcDbAttr
1070
     0
1070
     1
  0
ATTDEF
  5
1BB7
  8
DEFPOINTS
 10
17.318218575629071
 20
-4.9202720519653118
 30
0.0
 40
0.001
  1
KITCHEN SINK FAUCET
  3

  2
PRODUCT
 70
     0
1001
AcDbAttr
1070
     0
1070
     1
  0
ATTDEF
  5
1BB8
  8
DEFPOINTS
 10
17.318218575629071
 20
-4.9186053852986467
 30
0.0
 40
0.001
  1
BELLERA
  3

  2
TRADENAME
 70
     0
1001
AcDbAttr
1070
     0
1070
     1
  0
ATTDEF
  5
1BB9
  8
DEFPOINTS
 10
17.318218575629071
 20
-4.9169387186319824
 30
0.0
 40
0.001
  1
K-560
  3

  2
MODELNUMBER
 70
     0
1001
AcDbAttr
1070
     0
1070
     1
  0
ENDSEC
  0
EOF
