  0
SECTION
  2
HEADER
  9
$ACADVER
  1
AC1009
  9
$INSBASE
 10
4.5675718161321512
 20
16.783558084075288
 30
0.0
  9
$EXTMIN
 10
-0.6836804323960628
 20
16.77156213809857
 30
-0.0015258207003583
  9
$EXTMAX
 10
9.8189938429645842
 20
33.48283890511749
 30
0.0000000349246037
  9
$LIMMIN
 10
0.0
 20
0.0
  9
$LIMMAX
 10
11.692913385800001
 20
8.2677165353999982
  9
$ORTHOMODE
 70
     0
  9
$REGENMODE
 70
     1
  9
$FILLMODE
 70
     1
  9
$QTEXTMODE
 70
     0
  9
$MIRRTEXT
 70
     0
  9
$DRAGMODE
 70
     2
  9
$LTSCALE
 40
0.6431102362
  9
$OSMODE
 70
    39
  9
$ATTMODE
 70
     1
  9
$TEXTSIZE
 40
0.2
  9
$TRACEWID
 40
0.05
  9
$TEXTSTYLE
  7
STANDARD
  9
$CLAYER
  8
0
  9
$CELTYPE
  6
BYLAYER
  9
$CECOLOR
 62
   256
  9
$DIMSCALE
 40
1.0
  9
$DIMASZ
 40
0.1875
  9
$DIMEXO
 40
0.0625
  9
$DIMDLI
 40
0.4443307087
  9
$DIMRND
 40
0.0
  9
$DIMDLE
 40
0.0
  9
$DIMEXE
 40
0.125
  9
$DIMTP
 40
0.01
  9
$DIMTM
 40
0.01
  9
$DIMTXT
 40
0.15625
  9
$DIMCEN
 40
0.1052362205
  9
$DIMTSZ
 40
0.0
  9
$DIMTOL
 70
     1
  9
$DIMLIM
 70
     0
  9
$DIMTIH
 70
     1
  9
$DIMTOH
 70
     1
  9
$DIMSE1
 70
     0
  9
$DIMSE2
 70
     0
  9
$DIMTAD
 70
     0
  9
$DIMZIN
 70
     0
  9
$DIMBLK
  1

  9
$DIMASO
 70
     1
  9
$DIMSHO
 70
     1
  9
$DIMPOST
  1

  9
$DIMAPOST
  1

  9
$DIMALT
 70
     0
  9
$DIMALTD
 70
     2
  9
$DIMALTF
 40
25.399999999999999
  9
$DIMLFAC
 40
1.0
  9
$DIMTOFL
 70
     0
  9
$DIMTVP
 40
0.0
  9
$DIMTIX
 70
     0
  9
$DIMSOXD
 70
     0
  9
$DIMSAH
 70
     0
  9
$DIMBLK1
  1

  9
$DIMBLK2
  1

  9
$DIMSTYLE
  2
STANDARD
  9
$DIMCLRD
 70
     0
  9
$DIMCLRE
 70
     0
  9
$DIMCLRT
 70
     0
  9
$DIMTFAC
 40
1.0
  9
$DIMGAP
 40
0.09
  9
$LUNITS
 70
     2
  9
$LUPREC
 70
     4
  9
$SKETCHINC
 40
0.1
  9
$FILLETRAD
 40
0.0
  9
$AUNITS
 70
     0
  9
$AUPREC
 70
     0
  9
$MENU
  1
.
  9
$ELEVATION
 40
0.0
  9
$PELEVATION
 40
0.0
  9
$THICKNESS
 40
0.0
  9
$LIMCHECK
 70
     0
  9
$BLIPMODE
 70
     0
  9
$CHAMFERA
 40
0.0
  9
$CHAMFERB
 40
0.0
  9
$SKPOLY
 70
     0
  9
$TDCREATE
 40
2457588.4100927319
  9
$TDUPDATE
 40
2457588.740549074
  9
$TDINDWG
 40
0.192066794
  9
$TDUSRTIMER
 40
0.192066794
  9
$USRTIMER
 70
     1
  9
$ANGBASE
 50
0.0
  9
$ANGDIR
 70
     0
  9
$PDMODE
 70
     0
  9
$PDSIZE
 40
0.3125
  9
$PLINEWID
 40
0.0
  9
$COORDS
 70
     1
  9
$SPLFRAME
 70
     0
  9
$SPLINETYPE
 70
     6
  9
$SPLINESEGS
 70
     8
  9
$ATTDIA
 70
     1
  9
$ATTREQ
 70
     1
  9
$HANDLING
 70
     1
  9
$HANDSEED
  5
2A16
  9
$SURFTAB1
 70
     6
  9
$SURFTAB2
 70
     6
  9
$SURFTYPE
 70
     6
  9
$SURFU
 70
     6
  9
$SURFV
 70
     6
  9
$UCSNAME
  2

  9
$UCSORG
 10
0.0
 20
0.0
 30
0.0
  9
$UCSXDIR
 10
1.0
 20
0.0
 30
0.0
  9
$UCSYDIR
 10
0.0
 20
1.0
 30
0.0
  9
$PUCSNAME
  2

  9
$PUCSORG
 10
0.0
 20
0.0
 30
0.0
  9
$PUCSXDIR
 10
1.0
 20
0.0
 30
0.0
  9
$PUCSYDIR
 10
0.0
 20
1.0
 30
0.0
  9
$USERI1
 70
     0
  9
$USERI2
 70
     0
  9
$USERI3
 70
     0
  9
$USERI4
 70
     0
  9
$USERI5
 70
     0
  9
$USERR1
 40
0.0
  9
$USERR2
 40
0.0
  9
$USERR3
 40
0.0
  9
$USERR4
 40
0.0
  9
$USERR5
 40
0.0
  9
$WORLDVIEW
 70
     1
  9
$SHADEDGE
 70
     3
  9
$SHADEDIF
 70
    70
  9
$TILEMODE
 70
     1
  9
$MAXACTVP
 70
    64
  9
$PLIMCHECK
 70
     0
  9
$PEXTMIN
 10
1.0000000000000000E+020
 20
1.0000000000000000E+020
 30
1.0000000000000000E+020
  9
$PEXTMAX
 10
-1.0000000000000000E+020
 20
-1.0000000000000000E+020
 30
-1.0000000000000000E+020
  9
$PLIMMIN
 10
0.0
 20
0.0
  9
$PLIMMAX
 10
12.0
 20
9.0
  9
$UNITMODE
 70
     0
  9
$VISRETAIN
 70
     1
  9
$PLINEGEN
 70
     0
  9
$PSLTSCALE
 70
     1
  0
ENDSEC
  0
SECTION
  2
TABLES
  0
TABLE
  2
VPORT
 70
     1
  0
VPORT
  2
*ACTIVE
 70
     0
 10
0.0
 20
0.0
 11
1.0
 21
1.0
 12
-12.2519836331366
 22
-3.6682620867293698
 13
0.0
 23
0.0
 14
1.0
 24
1.0
 15
0.0
 25
0.0
 16
-0.000000000000032
 26
0.0
 36
149.77508925466179
 17
16.819640338420871
 27
28.795462608337399
 37
0.0
 40
16.817635296561338
 41
1.786624203821656
 42
50.0
 43
0.0
 44
0.0
 50
0.0
 51
0.0
 71
     0
 72
   100
 73
     1
 74
     1
 75
     0
 76
     0
 77
     0
 78
     0
  0
ENDTAB
  0
TABLE
  2
LTYPE
 70
     1
  0
LTYPE
  2
CONTINUOUS
 70
     0
  3
Solid line
 72
    65
 73
     0
 40
0.0
  0
ENDTAB
  0
TABLE
  2
LAYER
 70
     2
  0
LAYER
  2
0
 70
     0
 62
     7
  6
CONTINUOUS
  0
LAYER
  2
DEFPOINTS
 70
     0
 62
     7
  6
CONTINUOUS
  0
ENDTAB
  0
TABLE
  2
STYLE
 70
     1
  0
STYLE
  2
STANDARD
 70
     0
 40
0.0
 41
0.8
 50
0.0
 71
     0
 42
0.2
  3
txt
  4

  0
ENDTAB
  0
TABLE
  2
VIEW
 70
     3
  0
ENDTAB
  0
TABLE
  2
UCS
 70
     0
  0
ENDTAB
  0
TABLE
  2
APPID
 70
     5
  0
APPID
  2
ACAD
 70
     0
  0
APPID
  2
ACAD_MLEADERVER
 70
     0
  0
APPID
  2
ACAD_NAV_VCDISPLAY
 70
     0
  0
APPID
  2
ACAD_EXEMPT_FROM_CAD_STANDARDS
 70
     0
  0
APPID
  2
ACDBATTR
 70
     0
  0
ENDTAB
  0
TABLE
  2
DIMSTYLE
 70
     1
  0
DIMSTYLE
  2
STANDARD
 70
     0
  3

  4

  5

  6

  7

 40
1.0
 41
0.1875
 42
0.0625
 43
0.38
 44
0.125
 45
0.0
 46
0.0
 47
0.01
 48
0.01
140
0.15625
141
0.09
142
0.0
143
25.399999999999999
144
1.0
145
0.0
146
1.0
147
0.09
 71
     1
 72
     0
 73
     1
 74
     1
 75
     0
 76
     0
 77
     0
 78
     4
170
     0
171
     2
172
     0
173
     0
174
     0
175
     0
176
     0
177
     0
178
     0
  0
ENDTAB
  0
ENDSEC
  0
SECTION
  2
BLOCKS
  0
BLOCK
  8
0
  2
$MODEL_SPACE
 70
     0
 10
0.0
 20
0.0
 30
0.0
  3
$MODEL_SPACE
  1

  0
ENDBLK
  5
21
  8
0
  0
BLOCK
 67
     1
  8
0
  2
$PAPER_SPACE
 70
     0
 10
0.0
 20
0.0
 30
0.0
  3
$PAPER_SPACE
  1

  0
ENDBLK
  5
1D
 67
     1
  8
0
  0
ENDSEC
  0
SECTION
  2
ENTITIES
  0
ARC
  5
278A
  8
0
 10
4.5676257960701721
 20
33.043029971776377
 30
0.0
 40
0.438809133851192
 50
9.5088905264562342
 51
168.52230081421899
  0
ARC
  5
278B
  8
0
 10
-40.952299591638912
 20
29.652252934392418
 30
0.0
 40
46.083026717156017
 50
0.3120345194582565
 51
4.3100020010266462
  0
LINE
  5
278C
  8
0
 10
5.1300437334320481
 20
29.90322122801485
 30
0.0
 11
5.130072137953233
 21
29.48292435159912
 31
0.0
  0
ARC
  5
278D
  8
0
 10
5.0728426461164062
 20
29.48320771299338
 30
0.0
 40
0.0572302048133761
 50
332.20793094944833
 51
359.71401779076712
  0
ARC
  5
278E
  8
0
 10
5.0592505417569686
 20
29.424711481662769
 30
0.0
 40
0.0716677879095204
 50
1.1204360741748911
 51
26.351648844377781
  0
ARC
  5
278F
  8
0
 10
16.805245270565759
 20
29.675429613148619
 30
0.0
 40
11.67700253916651
 50
181.22342032828831
 51
188.37832126322931
  0
ARC
  5
2790
  8
0
 10
-2.355369831200087
 20
26.628617351629231
 30
0.0
 40
7.7262709709135118
 50
359.56733990978898
 51
10.02800108864523
  0
ARC
  5
2791
  8
0
 10
48.569186047198443
 20
29.68967375581294
 30
0.0
 40
44.564613700381557
 50
175.5719926767311
 51
179.72623443662829
  0
LINE
  5
2792
  8
0
 10
4.0050810584806653
 20
29.902607592426889
 30
0.0
 11
4.0050721380321512
 21
29.482922059275289
 31
0.0
  0
ARC
  5
2793
  8
0
 10
4.062138594194483
 20
29.48318708734643
 30
0.0
 40
0.0570669651577088
 50
180.26597832406031
 51
208.20020463572851
  0
ARC
  5
2794
  8
0
 10
4.096999271061831
 20
29.418401719521661
 30
0.0
 40
0.0931740207131906
 50
126.5646415520856
 51
173.12105000886291
  0
ARC
  5
2795
  8
0
 10
4.2463298240017862
 20
29.205901367198589
 30
0.0
 40
0.3528744770026696
 50
105.1531924616737
 51
125.4844046961243
  0
ARC
  5
2796
  8
0
 10
4.4490466066337886
 20
28.537711134650831
 30
0.0
 40
1.0510321685334629
 50
95.722882908614338
 51
106.2982215378661
  0
ARC
  5
2797
  8
0
 10
4.567232697005724
 20
27.9863478421209
 30
0.0
 40
1.6126486619036811
 50
82.243978327440985
 51
97.948148840771196
  0
ARC
  5
2798
  8
0
 10
4.6723078978738304
 20
28.478406665652361
 30
0.0
 40
1.1115506865982121
 50
73.25522268661895
 51
84.188046456949465
  0
ARC
  5
2799
  8
0
 10
4.912830008034617
 20
29.25729750893511
 30
0.0
 40
0.2964491587269412
 50
50.023056929603953
 51
74.399082695661733
  0
ARC
  5
279A
  8
0
 10
5.0402455867440032
 20
29.417683161406309
 30
0.0
 40
0.0918424861149865
 50
25.017791168764131
 51
46.648886924056029
  0
LINE
  5
279B
  8
0
 10
4.0044959717139044
 20
29.429561367616909
 30
0.0
 11
3.996070770232151
 21
29.1783425853253
 31
0.0
  0
ARC
  5
279C
  8
0
 10
-5.9725961237764809
 20
29.512664829547489
 30
0.0
 40
9.9742714524262617
 50
351.12585658245649
 51
358.07917377444272
  0
ARC
  5
279D
  8
0
 10
17.1439489905997
 20
25.903397624644398
 30
0.0
 40
13.422340861782359
 50
171.12585658245629
 51
174.40143174370959
  0
ARC
  5
279E
  8
0
 10
12.51792283008138
 20
26.603802880669551
 30
0.0
 40
8.7535019996715295
 50
176.0102459811236
 51
180.20909365829141
  0
ARC
  5
279F
  8
0
 10
3.835537690834661
 20
26.56587797708363
 30
0.0
 40
0.0713249448366342
 50
127.98924982597249
 51
175.05246282010179
  0
ARC
  5
27A0
  8
0
 10
4.1268572386114064
 20
26.13692449222486
 30
0.0
 40
0.5897115494568516
 50
99.380707816949041
 51
124.6421501238117
  0
ARC
  5
27A1
  8
0
 10
4.5584727857393146
 20
24.148910794869721
 30
0.0
 40
2.6234666067571788
 50
75.761267337848224
 51
101.6047631576004
  0
ARC
  5
27A2
  8
0
 10
5.0787473938391603
 20
26.259848981339768
 30
0.0
 40
0.4496574013786116
 50
55.274951980711627
 51
73.859718285746055
  0
ARC
  5
27A3
  8
0
 10
5.2929543929379488
 20
26.563641618221201
 30
0.0
 40
0.0780089332615873
 50
4.8773557539075361
 51
57.481559463600789
  0
ARC
  5
27A4
  8
0
 10
3.874633286570015
 20
26.576402084406389
 30
0.0
 40
0.1102478469601325
 50
182.36214570561509
 51
229.97728277986849
  0
ARC
  5
27A5
  8
0
 10
4.0767860203337181
 20
26.83834712037855
 30
0.0
 40
0.4410564888247749
 50
231.75053592575151
 51
255.8900143652213
  0
ARC
  5
27A6
  8
0
 10
4.3562417278164629
 20
27.73369722419304
 30
0.0
 40
1.3785300209280711
 50
253.69693599770949
 51
260.89397917272902
  0
ARC
  5
27A7
  8
0
 10
4.4753751820090306
 20
28.377968222482831
 30
0.0
 40
2.0335960295645372
 50
260.4525200032802
 51
264.56849009433489
  0
ARC
  5
27A8
  8
0
 10
5.2458321076090471
 20
26.583254223183719
 30
0.0
 40
0.125521675118279
 50
303.27625087090343
 51
354.06450412306941
  0
ARC
  5
27A9
  8
0
 10
5.0223329812002717
 20
26.9238066603512
 30
0.0
 40
0.5328640642287124
 50
285.8556535818102
 51
303.27625087090348
  0
ARC
  5
27AA
  8
0
 10
4.7083699668126853
 20
28.029228952204932
 30
0.0
 40
1.6820077531251449
 50
274.91970201076282
 51
285.85565358181009
  0
ARC
  5
27AB
  8
0
 10
4.184358798241778
 20
26.43568976985118
 30
0.0
 40
0.0401297475703212
 50
123.5868955801282
 51
175.66621859488521
  0
ARC
  5
27AC
  8
0
 10
4.3029294809821899
 20
26.272173962330591
 30
0.0
 40
0.2420825973077017
 50
104.0820475073493
 51
125.5559598242362
  0
ARC
  5
27AD
  8
0
 10
4.4932288076024154
 20
25.602984253882841
 30
0.0
 40
0.9377164470642679
 50
95.06207877402278
 51
105.41168532203589
  0
ARC
  5
27AE
  8
0
 10
4.5675721380321539
 20
-43.607181335506581
 30
0.0
 40
70.144400531481878
 50
89.871690568263233
 51
90.128309431736753
  0
ARC
  5
27AF
  8
0
 10
4.6585564920256122
 20
25.705523153613889
 30
0.0
 40
0.8341431356595102
 50
72.258788401684612
 51
85.455053690551495
  0
ARC
  5
27B0
  8
0
 10
4.8539880056416642
 20
26.312310208174861
 30
0.0
 40
0.1966656826579568
 50
51.869078693459223
 51
72.61952984210825
  0
ARC
  5
27B1
  8
0
 10
4.9505310915561331
 20
26.435151010399331
 30
0.0
 40
0.0404274374022481
 50
5.0679310864748102
 51
51.998948566803087
  0
ARC
  5
27B2
  8
0
 10
4.9382473095125041
 20
26.443286914310612
 30
0.0
 40
0.0527510421875112
 50
301.90869349121772
 51
355.03585084291802
  0
ARC
  5
27B3
  8
0
 10
4.7919173673716031
 20
26.671659227907419
 30
0.0
 40
0.323978551211827
 50
279.74484748711609
 51
302.5291224604901
  0
ARC
  5
27B4
  8
0
 10
4.6326845494374087
 20
27.32388852211605
 30
0.0
 40
0.9948380264746489
 50
276.7045805769547
 51
282.42611508987937
  0
LINE
  5
27B5
  8
0
 10
4.7488320252173031
 20
26.335853875562631
 30
0.0
 11
4.7220032852747131
 21
26.332700048484242
 31
0.0
  0
LINE
  5
27B6
  8
0
 10
4.7220032852747131
 20
26.332700048484242
 30
0.0
 11
4.4136521551205217
 21
26.33285747975377
 31
0.0
  0
ARC
  5
27B7
  8
0
 10
4.1882412847754917
 20
26.440353650768611
 30
0.0
 40
0.0439277977207406
 50
182.12836586334959
 51
223.67139423601679
  0
ARC
  5
27B8
  8
0
 10
4.2420228829805877
 20
26.490660051311021
 30
0.0
 40
0.117568710273879
 50
223.30582907613811
 51
246.23961960277501
  0
ARC
  5
27B9
  8
0
 10
4.3396056849051634
 20
26.684824540538411
 30
0.0
 40
0.3347762714446405
 50
244.34292979664269
 51
253.40570344679881
  0
ARC
  5
27BA
  8
0
 10
4.4636948896729782
 20
27.101224895808329
 30
0.0
 40
0.7692729763905187
 50
253.40570344679881
 51
264.22680856523772
  0
LINE
  5
27BB
  8
0
 10
4.3863131180897907
 20
26.33585376123937
 30
0.0
 11
4.4131645026036823
 21
26.332893893064469
 31
0.0
  0
LINE
  5
27BC
  8
0
 10
4.4131645026036823
 20
26.332893893064469
 30
0.0
 11
4.4136521551205226
 21
26.33285747975377
 31
0.0
  0
LINE
  5
27BD
  8
0
 10
4.0985721829321511
 20
26.379462597461369
 30
0.0
 11
4.0922079921696719
 21
25.84295430093653
 31
0.0
  0
ARC
  5
27BE
  8
0
 10
-67.428078493632938
 20
28.547996531274048
 30
0.0
 40
71.57142329504974
 50
355.02786831189798
 51
357.83398989745763
  0
ARC
  5
27BF
  8
0
 10
3.8939799437321438
 20
22.343558084075291
 30
0.0
 40
0.0199999999999941
 50
176.3935607774421
 51
270.00000000001779
  0
LINE
  5
27C0
  8
0
 10
3.8939799437321501
 20
22.323558084075291
 30
0.0
 11
5.2411622336321511
 21
22.323558084075291
 31
0.0
  0
ARC
  5
27C1
  8
0
 10
5.2411622336321511
 20
22.343560044409159
 30
0.0
 40
0.0200019603338717
 50
270.0000000000029
 51
3.9017294154098141
  0
ARC
  5
27C2
  8
0
 10
61.503367839122213
 20
27.4986125892333
 30
0.0
 40
56.47788258918753
 50
181.1352969850318
 51
185.2356090506072
  0
ARC
  5
27C3
  8
0
 10
3.9125721380321492
 20
22.303558084075291
 30
0.0
 40
0.0199999999999996
 50
89.999999999994913
 51
180.0
  0
LINE
  5
27C4
  8
0
 10
3.8925721380321501
 20
22.303558084075291
 30
0.0
 11
3.8925721380321501
 21
22.29355808404156
 31
0.0
  0
LINE
  5
27C5
  8
0
 10
3.8925721380321501
 20
22.29355808404156
 30
0.0
 11
5.2425721380321511
 21
22.29355808407529
 31
0.0
  0
LINE
  5
27C6
  8
0
 10
5.2425721380321511
 20
22.29355808407529
 30
0.0
 11
5.2425721380321511
 21
22.303558084075291
 31
0.0
  0
ARC
  5
27C7
  8
0
 10
5.2225721380321506
 20
22.303558084075291
 30
0.0
 40
0.0199999999999996
 50
0.0
 51
90.0
  0
ARC
  5
27C8
  8
0
 10
3.9102602444362229
 20
22.253564060104662
 30
0.0
 40
0.0399939316954791
 50
90.118961430064189
 51
176.44039104532411
  0
LINE
  5
27C9
  8
0
 10
3.8703434712321512
 20
22.256047160875291
 30
0.0
 11
3.8321502860321508
 21
21.7117459631753
 31
0.0
  0
ARC
  5
27CA
  8
0
 10
-2.371036282322724
 20
22.199889907456971
 30
0.0
 40
6.2223635470902208
 50
350.76183949240959
 51
355.50052715458128
  0
ARC
  5
27CB
  8
0
 10
17.878151007255688
 20
18.529445659228791
 30
0.0
 40
14.3582522661151
 50
169.27698698539351
 51
174.3747251043053
  0
ARC
  5
27CC
  8
0
 10
10.918638822984819
 20
19.423618672143821
 30
0.0
 40
7.3475424673060408
 50
175.9944364868625
 51
179.01394607651591
  0
LINE
  5
27CD
  8
0
 10
3.572184427232151
 20
19.550062809975291
 30
0.0
 11
3.567785022532151
 21
17.583558312775288
 31
0.0
  0
ARC
  5
27CE
  8
0
 10
3.6077850470321509
 20
17.583558312775288
 30
0.0
 40
0.0400000245000003
 50
180.0
 51
269.95594316239942
  0
LINE
  5
27CF
  8
0
 10
3.607754289541377
 20
17.543558300100582
 30
0.0
 11
5.5273907507056421
 21
17.543558300033069
 31
0.0
  0
ARC
  5
27D0
  8
0
 10
5.5273593090795421
 20
17.583558312070551
 30
0.0
 40
0.0400000239526101
 50
270.04422389763619
 51
0.0000004365168303
  0
LINE
  5
27D1
  8
0
 10
5.56735933303215
 20
17.583558312375288
 30
0.0
 11
5.5661216886321521
 21
19.104197206275291
 31
0.0
  0
ARC
  5
27D2
  8
0
 10
5.7160337116607529
 20
19.103821220603031
 30
0.0
 40
0.1499124945218168
 50
91.652542132614244
 51
179.856300071378
  0
ARC
  5
27D3
  8
0
 10
5.4525810063294893
 20
28.249828561039749
 30
0.0
 40
8.9998883341845168
 50
271.64991533153949
 51
275.41150657458991
  0
ARC
  5
27D4
  8
0
 10
6.2975723998547792
 20
19.329873785639261
 30
0.0
 40
0.0399997383189496
 50
275.41150657458968
 51
0.0048206635652946
  0
LINE
  5
27D5
  8
0
 10
6.3375721380321499
 20
19.329877151075291
 30
0.0
 11
6.3374520448710339
 21
20.757239000923182
 31
0.0
  0
ARC
  5
27D6
  8
0
 10
6.2974321179903177
 20
20.75723563378855
 30
0.0
 40
0.0400199270223656
 50
0.004820663565091
 51
84.389813437287003
  0
ARC
  5
27D7
  8
0
 10
5.4879051723684773
 20
12.516128138308551
 30
0.0
 40
8.3207920303798968
 50
84.389813437287017
 51
89.597336414356946
  0
ARC
  5
27D8
  8
0
 10
5.5474044757173617
 20
20.98225957580096
 30
0.0
 40
0.1455484827341454
 50
188.25405509798509
 51
269.59733641435702
  0
ARC
  5
27D9
  8
0
 10
22.58611377000766
 20
23.453986123664698
 30
0.0
 40
17.36260533176468
 50
183.95627407852109
 51
188.25405509798489
  0
ARC
  5
27DA
  8
0
 10
5.2246916398332468
 20
22.253270868027361
 30
0.0
 40
0.0402879767409594
 50
3.956274078521691
 51
89.608621738183814
  0
ARC
  5
27DB
  8
0
 10
6.3948786774011399
 20
20.112670583023949
 30
0.0
 40
1.305404848443444
 50
139.4276330206323
 51
230.58996793310939
  0
ARC
  5
27DC
  8
0
 10
6.4177689924656223
 20
20.776904737561509
 30
0.0
 40
0.0300000040335434
 50
85.607717119245251
 51
179.99987468691211
  0
ARC
  5
27DD
  8
0
 10
6.5478747988565633
 20
21.684534528833922
 30
0.0
 40
0.8869744390248989
 50
261.7151445804804
 51
326.67277998871282
  0
ARC
  5
27DE
  8
0
 10
6.2539878058373741
 20
21.94042411568762
 30
0.0
 40
1.274196929654579
 50
324.31857422324629
 51
24.380820471132122
  0
ARC
  5
27DF
  8
0
 10
5.2578633331773119
 20
21.46897006698569
 30
0.0
 40
2.3761747178016259
 50
24.819937766978189
 51
35.358803391791582
  0
ARC
  5
27E0
  8
0
 10
7.2452582566891248
 20
22.900746313501791
 30
0.0
 40
0.0752770249850745
 50
147.38707351520429
 51
228.86524068932351
  0
ARC
  5
27E1
  8
0
 10
7.429322850949446
 20
22.807483732119731
 30
0.0
 40
0.2813437211750964
 50
119.787908911836
 51
151.5953546054179
  0
ARC
  5
27E2
  8
0
 10
7.302637719738418
 20
23.024648744977309
 30
0.0
 40
0.0300074823390563
 50
41.82382463796737
 51
115.85018608950629
  0
ARC
  5
27E3
  8
0
 10
6.2319826200461383
 20
21.984745365489591
 30
0.0
 40
1.522531542864465
 50
357.55673589000639
 51
44.119101697200669
  0
ARC
  5
27E4
  8
0
 10
3.6694202165871221
 20
22.413478822855449
 30
0.0
 40
4.1134372131347101
 50
340.19218821374182
 51
353.10752373600491
  0
ARC
  5
27E5
  8
0
 10
13.10834782658465
 20
19.342142191099661
 30
0.0
 40
5.8160140848210728
 50
163.23684908334249
 51
179.09076576634951
  0
ARC
  5
27E6
  8
0
 10
7.2631558469282469
 20
19.434714920935289
 30
0.0
 40
0.029911525674318
 50
274.81148658773043
 51
359.46074986759118
  0
LINE
  5
27E7
  8
0
 10
7.2656647544321498
 20
19.404908801575289
 30
0.0
 11
7.1394795149321508
 21
19.394086554575289
 31
0.0
  0
ARC
  5
27E8
  8
0
 10
7.0726157547362511
 20
18.764090464098022
 30
0.0
 40
0.6335344003636897
 50
83.941671774017834
 51
105.8622668008413
  0
LINE
  5
27E9
  8
0
 10
6.8994544663321511
 20
19.373500838675291
 30
0.0
 11
6.6998369314321513
 21
19.356107765775288
 31
0.0
  0
ARC
  5
27EA
  8
0
 10
6.6972932313321527
 20
19.386007468075299
 30
0.0
 40
0.030007895300002
 50
202.01164891630251
 51
274.86275139029618
  0
LINE
  5
27EB
  8
0
 10
6.6694726813366447
 20
19.37476065615888
 30
0.0
 11
6.4969702430031804
 21
19.80146937554241
 31
0.0
  0
ARC
  5
27EC
  8
0
 10
7.8858870420533123
 20
20.362956693693761
 30
0.0
 40
1.4981181138776929
 50
179.98374950223621
 51
202.01164891630251
  0
LINE
  5
27ED
  8
0
 10
6.3877689884321498
 20
20.363381596975302
 30
0.0
 11
6.387886273822156
 21
20.776904786442781
 31
0.0
  0
LINE
  5
27EE
  8
0
 10
6.3375784384449734
 20
20.708503918968269
 30
0.0
 11
6.3877689884321498
 21
20.700794823689069
 31
0.0
  0
ARC
  5
27EF
  8
0
 10
6.2488768462321396
 20
20.123348462575329
 30
0.0
 40
0.7500000000000351
 50
276.79220002560061
 51
300.39558750232322
  0
ARC
  5
27F0
  8
0
 10
5.5375721380631697
 20
17.523558084106309
 30
0.0
 40
0.0199999999689835
 50
359.99999991113782
 51
89.998784811305285
  0
LINE
  5
27F1
  8
0
 10
5.5273907507056421
 20
17.543558300033069
 30
0.0
 11
5.537572562244045
 21
17.543558084070789
 31
0.0
  0
LINE
  5
27F2
  8
0
 10
5.5575721380321541
 20
17.523558084106309
 30
0.0
 11
5.5575721380321541
 21
17.483558084075291
 31
0.0
  0
ARC
  5
27F3
  8
0
 10
5.5487432427340089
 20
17.421751538116808
 30
0.0
 40
0.0624339532266118
 50
27.121030649921501
 51
81.870452969323665
  0
ARC
  5
27F4
  8
0
 10
5.7746117122573004
 20
17.53502906455957
 30
0.0
 40
0.1902513714100685
 50
206.47507115204741
 51
266.76811562513763
  0
ARC
  5
27F5
  8
0
 10
3.3816764830015842
 20
-33.101878590055627
 30
0.0
 40
50.503173967744253
 50
82.811893245318032
 51
87.296383588468515
  0
ARC
  5
27F6
  8
0
 10
9.6830970648206058
 20
16.875583982107589
 30
0.0
 40
0.1300302233556813
 50
3.1921250054174619
 51
82.085391689271276
  0
LINE
  5
27F7
  8
0
 10
9.8129255368074606
 20
16.882824620718019
 30
0.0
 11
9.8184464013321513
 21
16.783558084075288
 31
0.0
  0
LINE
  5
27F8
  8
0
 10
9.8184464013321513
 20
16.783558084075288
 30
0.0
 11
-0.6833027690678487
 21
16.783558084075288
 31
0.0
  0
LINE
  5
27F9
  8
0
 10
-0.6833027690678487
 20
16.783558084075288
 30
0.0
 11
-0.6777846706678489
 21
16.88282449547529
 31
0.0
  0
ARC
  5
27FA
  8
0
 10
-0.547984192886439
 20
16.875609221819619
 30
0.0
 40
0.1300008623287123
 50
97.902641215564245
 51
176.8183498110445
  0
ARC
  5
27FB
  8
0
 10
5.9271144571950236
 20
-35.096907844957983
 30
0.0
 40
52.504308548745719
 50
92.785172961777576
 51
97.103697642251774
  0
ARC
  5
27FC
  8
0
 10
3.3670836000775211
 20
17.525824907672149
 30
0.0
 40
0.1806585703872777
 50
272.78517296177802
 51
336.25735213307422
  0
ARC
  5
27FD
  8
0
 10
3.5862644615679198
 20
17.422043314786649
 30
0.0
 40
0.0621247227413471
 50
98.035441055222464
 51
150.02043466805961
  0
LINE
  5
27FE
  8
0
 10
3.5775803188321511
 20
17.483558084075291
 30
0.0
 11
5.5575721380321541
 21
17.483558084075291
 31
0.0
  0
ARC
  5
27FF
  8
0
 10
3.5987347514303769
 20
17.523076378081061
 30
0.0
 40
0.021168095013671
 50
79.877819406294847
 51
178.6960516267394
  0
LINE
  5
2800
  8
0
 10
3.577572138032151
 20
17.52355808407529
 30
0.0
 11
3.5775721357863981
 21
17.483556928305919
 31
0.0
  0
ARC
  5
2801
  8
0
 10
4.5676320364622267
 20
-518.68754113838111
 30
0.0
 40
535.71651162067076
 50
89.450969058015318
 51
90.549023000576156
  0
ARC
  5
2802
  8
0
 10
4.5701555100384601
 20
19.590407150133579
 30
0.0
 40
2.5429284248237281
 50
241.98823807320309
 51
297.99739197220481
  0
ATTDEF
  5
2803
  8
DEFPOINTS
 10
4.5632415370738784
 20
16.772053798544459
 30
0.0
 40
0.001
  1
METAL
  3

  2
MATERIAL
 70
     0
1001
ACDBATTR
1070
     0
1070
     1
  0
ATTDEF
  5
2804
  8
DEFPOINTS
 10
4.5632415370738784
 20
16.773720465211131
 30
0.0
 40
0.001
  1
KITCHEN SINK FAUCET
  3

  2
PRODUCT
 70
     0
1001
ACDBATTR
1070
     0
1070
     1
  0
ATTDEF
  5
2805
  8
DEFPOINTS
 10
4.5632415370738784
 20
16.775387131877789
 30
0.0
 40
0.001
  1
SIMPLICE
  3

  2
TRADENAME
 70
     0
1001
ACDBATTR
1070
     0
1070
     1
  0
ATTDEF
  5
2806
  8
DEFPOINTS
 10
4.5632415370738784
 20
16.777053798544461
 30
0.0
 40
0.001
  1
K-596
  3

  2
MODELNUMBER
 70
     0
1001
ACDBATTR
1070
     0
1070
     1
  0
ENDSEC
  0
EOF
