  0
SECTION
  2
HEADER
  9
$ACADVER
  1
AC1009
  9
$INSBASE
 10
4.5991629933452121
 20
47.586372616462178
 30
0.0
  9
$EXTMIN
 10
-0.649330235371675
 20
37.879933800839318
 30
-0.0015258207003583
  9
$EXTMAX
 10
9.8477349925122724
 20
48.837863137673367
 30
0.0000000349246037
  9
$LIMMIN
 10
0.0
 20
0.0
  9
$LIMMAX
 10
11.692913385800001
 20
8.2677165353999982
  9
$ORTHOMODE
 70
     1
  9
$REGENMODE
 70
     1
  9
$FILLMODE
 70
     1
  9
$QTEXTMODE
 70
     0
  9
$MIRRTEXT
 70
     0
  9
$DRAGMODE
 70
     2
  9
$LTSCALE
 40
0.6431102362
  9
$OSMODE
 70
    39
  9
$ATTMODE
 70
     1
  9
$TEXTSIZE
 40
0.2
  9
$TRACEWID
 40
0.05
  9
$TEXTSTYLE
  7
STANDARD
  9
$CLAYER
  8
0
  9
$CELTYPE
  6
BYLAYER
  9
$CECOLOR
 62
   256
  9
$DIMSCALE
 40
1.0
  9
$DIMASZ
 40
0.1875
  9
$DIMEXO
 40
0.0625
  9
$DIMDLI
 40
0.4443307087
  9
$DIMRND
 40
0.0
  9
$DIMDLE
 40
0.0
  9
$DIMEXE
 40
0.125
  9
$DIMTP
 40
0.01
  9
$DIMTM
 40
0.01
  9
$DIMTXT
 40
0.15625
  9
$DIMCEN
 40
0.1052362205
  9
$DIMTSZ
 40
0.0
  9
$DIMTOL
 70
     1
  9
$DIMLIM
 70
     0
  9
$DIMTIH
 70
     1
  9
$DIMTOH
 70
     1
  9
$DIMSE1
 70
     0
  9
$DIMSE2
 70
     0
  9
$DIMTAD
 70
     0
  9
$DIMZIN
 70
     0
  9
$DIMBLK
  1

  9
$DIMASO
 70
     1
  9
$DIMSHO
 70
     1
  9
$DIMPOST
  1

  9
$DIMAPOST
  1

  9
$DIMALT
 70
     0
  9
$DIMALTD
 70
     2
  9
$DIMALTF
 40
25.399999999999999
  9
$DIMLFAC
 40
1.0
  9
$DIMTOFL
 70
     0
  9
$DIMTVP
 40
0.0
  9
$DIMTIX
 70
     0
  9
$DIMSOXD
 70
     0
  9
$DIMSAH
 70
     0
  9
$DIMBLK1
  1

  9
$DIMBLK2
  1

  9
$DIMSTYLE
  2
STANDARD
  9
$DIMCLRD
 70
     0
  9
$DIMCLRE
 70
     0
  9
$DIMCLRT
 70
     0
  9
$DIMTFAC
 40
1.0
  9
$DIMGAP
 40
0.09
  9
$LUNITS
 70
     2
  9
$LUPREC
 70
     4
  9
$SKETCHINC
 40
0.1
  9
$FILLETRAD
 40
0.0
  9
$AUNITS
 70
     0
  9
$AUPREC
 70
     0
  9
$MENU
  1
.
  9
$ELEVATION
 40
0.0
  9
$PELEVATION
 40
0.0
  9
$THICKNESS
 40
0.0
  9
$LIMCHECK
 70
     0
  9
$BLIPMODE
 70
     0
  9
$CHAMFERA
 40
0.0
  9
$CHAMFERB
 40
0.0
  9
$SKPOLY
 70
     0
  9
$TDCREATE
 40
2457588.4100927319
  9
$TDUPDATE
 40
2457588.7402990861
  9
$TDINDWG
 40
0.1940762269
  9
$TDUSRTIMER
 40
0.1940762269
  9
$USRTIMER
 70
     1
  9
$ANGBASE
 50
0.0
  9
$ANGDIR
 70
     0
  9
$PDMODE
 70
     0
  9
$PDSIZE
 40
0.3125
  9
$PLINEWID
 40
0.0
  9
$COORDS
 70
     1
  9
$SPLFRAME
 70
     0
  9
$SPLINETYPE
 70
     6
  9
$SPLINESEGS
 70
     8
  9
$ATTDIA
 70
     1
  9
$ATTREQ
 70
     1
  9
$HANDLING
 70
     1
  9
$HANDSEED
  5
1DB1
  9
$SURFTAB1
 70
     6
  9
$SURFTAB2
 70
     6
  9
$SURFTYPE
 70
     6
  9
$SURFU
 70
     6
  9
$SURFV
 70
     6
  9
$UCSNAME
  2

  9
$UCSORG
 10
0.0
 20
0.0
 30
0.0
  9
$UCSXDIR
 10
1.0
 20
0.0
 30
0.0
  9
$UCSYDIR
 10
0.0
 20
1.0
 30
0.0
  9
$PUCSNAME
  2

  9
$PUCSORG
 10
0.0
 20
0.0
 30
0.0
  9
$PUCSXDIR
 10
1.0
 20
0.0
 30
0.0
  9
$PUCSYDIR
 10
0.0
 20
1.0
 30
0.0
  9
$USERI1
 70
     0
  9
$USERI2
 70
     0
  9
$USERI3
 70
     0
  9
$USERI4
 70
     0
  9
$USERI5
 70
     0
  9
$USERR1
 40
0.0
  9
$USERR2
 40
0.0
  9
$USERR3
 40
0.0
  9
$USERR4
 40
0.0
  9
$USERR5
 40
0.0
  9
$WORLDVIEW
 70
     1
  9
$SHADEDGE
 70
     3
  9
$SHADEDIF
 70
    70
  9
$TILEMODE
 70
     1
  9
$MAXACTVP
 70
    64
  9
$PLIMCHECK
 70
     0
  9
$PEXTMIN
 10
1.0000000000000000E+020
 20
1.0000000000000000E+020
 30
1.0000000000000000E+020
  9
$PEXTMAX
 10
-1.0000000000000000E+020
 20
-1.0000000000000000E+020
 30
-1.0000000000000000E+020
  9
$PLIMMIN
 10
0.0
 20
0.0
  9
$PLIMMAX
 10
12.0
 20
9.0
  9
$UNITMODE
 70
     0
  9
$VISRETAIN
 70
     1
  9
$PLINEGEN
 70
     0
  9
$PSLTSCALE
 70
     1
  0
ENDSEC
  0
SECTION
  2
TABLES
  0
TABLE
  2
VPORT
 70
     1
  0
VPORT
  2
*ACTIVE
 70
     0
 10
0.0
 20
0.0
 11
1.0
 21
1.0
 12
-12.220437959850569
 22
14.56343586091894
 13
0.0
 23
0.0
 14
1.0
 24
1.0
 15
0.0
 25
0.0
 16
-0.000000000000032
 26
0.0
 36
149.77508925466179
 17
16.819640338420871
 27
28.795462608337399
 37
0.0
 40
11.029190938762669
 41
1.786624203821656
 42
50.0
 43
0.0
 44
0.0
 50
0.0
 51
0.0
 71
     0
 72
   100
 73
     1
 74
     1
 75
     0
 76
     0
 77
     0
 78
     0
  0
ENDTAB
  0
TABLE
  2
LTYPE
 70
     1
  0
LTYPE
  2
CONTINUOUS
 70
     0
  3
Solid line
 72
    65
 73
     0
 40
0.0
  0
ENDTAB
  0
TABLE
  2
LAYER
 70
     2
  0
LAYER
  2
0
 70
     0
 62
     7
  6
CONTINUOUS
  0
LAYER
  2
DEFPOINTS
 70
     0
 62
     7
  6
CONTINUOUS
  0
ENDTAB
  0
TABLE
  2
STYLE
 70
     1
  0
STYLE
  2
STANDARD
 70
     0
 40
0.0
 41
0.8
 50
0.0
 71
     0
 42
0.2
  3
txt
  4

  0
ENDTAB
  0
TABLE
  2
VIEW
 70
     3
  0
ENDTAB
  0
TABLE
  2
UCS
 70
     0
  0
ENDTAB
  0
TABLE
  2
APPID
 70
     5
  0
APPID
  2
ACAD
 70
     0
  0
APPID
  2
ACAD_MLEADERVER
 70
     0
  0
APPID
  2
ACAD_NAV_VCDISPLAY
 70
     0
  0
APPID
  2
ACAD_EXEMPT_FROM_CAD_STANDARDS
 70
     0
  0
APPID
  2
ACDBATTR
 70
     0
  0
ENDTAB
  0
TABLE
  2
DIMSTYLE
 70
     1
  0
DIMSTYLE
  2
STANDARD
 70
     0
  3

  4

  5

  6

  7

 40
1.0
 41
0.1875
 42
0.0625
 43
0.38
 44
0.125
 45
0.0
 46
0.0
 47
0.01
 48
0.01
140
0.15625
141
0.09
142
0.0
143
25.399999999999999
144
1.0
145
0.0
146
1.0
147
0.09
 71
     1
 72
     0
 73
     1
 74
     1
 75
     0
 76
     0
 77
     0
 78
     4
170
     0
171
     2
172
     0
173
     0
174
     0
175
     0
176
     0
177
     0
178
     0
  0
ENDTAB
  0
ENDSEC
  0
SECTION
  2
BLOCKS
  0
BLOCK
  8
0
  2
$MODEL_SPACE
 70
     0
 10
0.0
 20
0.0
 30
0.0
  3
$MODEL_SPACE
  1

  0
ENDBLK
  5
21
  8
0
  0
BLOCK
 67
     1
  8
0
  2
$PAPER_SPACE
 70
     0
 10
0.0
 20
0.0
 30
0.0
  3
$PAPER_SPACE
  1

  0
ENDBLK
  5
1D
 67
     1
  8
0
  0
ENDSEC
  0
SECTION
  2
ENTITIES
  0
ARC
  5
1AF1
  8
0
 10
0.6010550869539271
 20
47.586372360219613
 30
0.0
 40
1.2500087071702479
 50
90.213878805154366
 51
269.78616834239659
  0
LINE
  5
1AF2
  8
0
 10
0.5963899822
 20
46.336372358299997
 30
0.0
 11
4.1346039240279611
 21
46.336372358299997
 31
0.0
  0
ARC
  5
1AF3
  8
0
 10
8.5972793094137927
 20
47.586372358654643
 30
0.0
 40
1.2500002974930591
 50
269.96049409813179
 51
90.039553026500883
  0
LINE
  5
1AF4
  8
0
 10
8.5964163961000004
 20
48.836372358299997
 30
0.0
 11
0.59638895360008
 21
48.836372358299997
 31
0.0
  0
ARC
  5
1AF5
  8
0
 10
4.5964031887999983
 20
47.579546684780823
 30
0.0
 40
1.1926174047252101
 50
292.81950702211498
 51
318.72199530655161
  0
ARC
  5
1AF6
  8
0
 10
4.5964031888000001
 20
47.626372358299989
 30
0.0
 40
0.4689999551000002
 50
358.11150577630031
 51
181.48386371637241
  0
ARC
  5
1AF7
  8
0
 10
4.5964031888000001
 20
47.626372358299989
 30
0.0
 40
0.9824635544657073
 50
298.18727410791092
 51
304.39918695258069
  0
ARC
  5
1AF8
  8
0
 10
5.0501781223632243
 20
48.382566238291048
 30
0.0
 40
0.0027560777418194
 50
118.4183308206262
 51
219.4809353119407
  0
ARC
  5
1AF9
  8
0
 10
5.0560984415139147
 20
48.355542403922087
 30
0.0
 40
0.0303228254507645
 50
72.432558304039489
 51
103.7979446226355
  0
ARC
  5
1AFA
  8
0
 10
5.0053661782576011
 20
48.115392991954451
 30
0.0
 40
0.2756417858573109
 50
69.191301031011832
 51
77.452145081115077
  0
ARC
  5
1AFB
  8
0
 10
5.1139443537599618
 20
48.493788167115071
 30
0.0
 40
0.1212024266863555
 50
264.95574830556728
 51
272.35693580675672
  0
ARC
  5
1AFC
  8
0
 10
5.4834382957187309
 20
39.45512005855602
 30
0.0
 40
8.9250148510946783
 50
84.556026649102847
 51
92.340687203719696
  0
ARC
  5
1AFD
  8
0
 10
6.3263207387931306
 20
48.299932888360317
 30
0.0
 40
0.0401308169659833
 50
357.18669608846818
 51
84.487947093995032
  0
LINE
  5
1AFE
  8
0
 10
6.3664031887999988
 20
48.29796320010977
 30
0.0
 11
6.3664031887999988
 21
46.872688298199989
 31
0.0
  0
ARC
  5
1AFF
  8
0
 10
6.3264031890186256
 20
46.87268829811542
 30
0.0
 40
0.0399999997813732
 50
275.4113465676387
 51
0.0000001211358785
  0
ARC
  5
1B00
  8
0
 10
5.48138820406158
 20
55.793090588179567
 30
0.0
 40
9.0003363406439885
 50
268.2580065368029
 51
275.41138670519678
  0
ARC
  5
1B01
  8
0
 10
5.2023829538997948
 20
46.684071598845648
 30
0.0
 40
0.1129720300958761
 50
87.241976557853874
 51
124.55230358712291
  0
ARC
  5
1B02
  8
0
 10
5.1085813558061464
 20
46.834224308633189
 30
0.0
 40
0.0643824992894584
 50
281.40794906278938
 51
297.50004158757849
  0
ARC
  5
1B03
  8
0
 10
5.1199423077199109
 20
46.778493261771779
 30
0.0
 40
0.0075062234300179
 50
244.9032066518896
 51
280.54329784003329
  0
ARC
  5
1B04
  8
0
 10
5.1205224961777844
 20
46.775510361036673
 30
0.0
 40
0.0053590157053446
 50
153.3204617921667
 51
225.3835641488192
  0
ARC
  5
1B05
  8
0
 10
4.3385488749227541
 20
47.547974346846424
 30
0.0
 40
1.094077596014166
 50
315.26393141850519
 51
49.571593456228278
  0
ARC
  5
1B06
  8
0
 10
6.4821082967095434
 20
48.255244630081009
 30
0.0
 40
0.0660961948911747
 50
94.973054829861823
 51
190.2156023717244
  0
ARC
  5
1B07
  8
0
 10
-156.9874177979878
 20
-1864.702087602265
 30
0.0
 40
1919.9942964680649
 50
85.090803890485859
 51
85.116059853616534
  0
ARC
  5
1B08
  8
0
 10
7.3143327903750972
 20
48.211443462841508
 30
0.0
 40
0.0377636820694562
 50
11.7226570570114
 51
82.847875744643176
  0
ARC
  5
1B09
  8
0
 10
8.5069209341158967
 20
48.458908457223188
 30
0.0
 40
1.180228684095235
 50
191.72265705701111
 51
210.08176823985039
  0
LINE
  5
1B0A
  8
0
 10
6.417059901725457
 20
48.243522288630373
 30
0.0
 11
6.4167373991999987
 21
46.934697693499999
 31
0.0
  0
ARC
  5
1B0B
  8
0
 10
6.5413906697490161
 20
46.933175633245177
 30
0.0
 40
0.1246625626480773
 50
179.30043315540351
 51
207.29966418556899
  0
ARC
  5
1B0C
  8
0
 10
6.4743233745945341
 20
46.90287194703135
 30
0.0
 40
0.0513098757047402
 50
211.58222590498289
 51
274.96163041027887
  0
LINE
  5
1B0D
  8
0
 10
6.4787610937000002
 20
46.851754337599999
 30
0.0
 11
7.3190550826000003
 21
46.923818345799987
 31
0.0
  0
ARC
  5
1B0E
  8
0
 10
7.3149962188750974
 20
46.959233677912927
 30
0.0
 40
0.035646674047071
 50
276.44154864460222
 51
335.95712653056182
  0
ARC
  5
1B12
  8
0
 10
8.6170005511735148
 20
46.664808927982143
 30
0.0
 40
1.2999419380745281
 50
150.5398807944311
 51
167.5657850029859
  0
LINE
  5
1B13
  8
0
 10
6.3664107344422778
 20
48.25131804487922
 30
0.0
 11
6.417059901725457
 21
48.243522288630331
 31
0.0
  0
LINE
  5
1B14
  8
0
 10
6.3664107344422778
 20
46.921426671720781
 30
0.0
 11
6.416862870068786
 21
46.929185197474531
 31
0.0
  0
ARC
  5
1B15
  8
0
 10
7.4773349103104527
 20
47.585186839430818
 30
0.0
 40
0.2794122787717989
 50
132.93073996180709
 51
267.97824622382211
  0
ARC
  5
1B16
  8
0
 10
7.5196512571896443
 20
47.729181929985657
 30
0.0
 40
0.4264371446009459
 50
262.97237044867978
 51
287.72323722387767
  0
ARC
  5
1B17
  8
0
 10
7.6138661843509974
 20
47.475004760185293
 30
0.0
 40
0.1561333954255515
 50
283.18025635864109
 51
323.36099919729338
  0
ARC
  5
1B18
  8
0
 10
7.2945924549180301
 20
47.584949312102488
 30
0.0
 40
0.4887625274596351
 50
335.44408378420007
 51
25.770456161309419
  0
ARC
  5
1B19
  8
0
 10
7.5159947481327389
 20
47.49663863126537
 30
0.0
 40
0.3719368249788832
 50
53.975159658020921
 51
128.02972978524119
  0
ARC
  5
1B1A
  8
0
 10
7.5551738648226303
 20
47.508982164614729
 30
0.0
 40
0.3433450396434591
 50
65.789144315078616
 51
113.1363468879278
  0
ARC
  5
1B1B
  8
0
 10
7.5047016413450063
 20
47.702312658078121
 30
0.0
 40
0.1486979462444789
 50
124.59901640660151
 51
182.7338177086925
  0
LINE
  5
1B1C
  8
0
 10
7.3561729286326107
 20
47.695220358216538
 30
0.0
 11
7.3557689674903957
 21
47.48140066130982
 31
0.0
  0
ARC
  5
1B1D
  8
0
 10
7.4973410333321997
 20
47.465617630124321
 30
0.0
 40
0.142449127410871
 50
173.63870031142449
 51
263.98501269548279
  0
ARC
  5
1B1E
  8
0
 10
7.5490804999475891
 20
47.62658330528366
 30
0.0
 40
0.3098865511362641
 50
257.57672874002168
 51
307.83257332601659
  0
LINE
  5
1B47
  8
0
 10
5.0651484083580387
 20
47.610916711264437
 30
0.0
 11
5.0392194170999991
 21
42.8924305954
 31
0.0
  0
LINE
  5
1B48
  8
0
 10
5.0392194170999991
 20
42.8924305954
 30
0.0
 11
5.090231415449999
 21
40.851999064499999
 31
0.0
  0
ARC
  5
1B49
  8
0
 10
25.89428650683535
 20
41.372112779625233
 30
0.0
 40
20.810555651449061
 50
181.4321301421906
 51
184.37059567374061
  0
ARC
  5
1B4A
  8
0
 10
-0.4661572123638562
 20
39.357394978843487
 30
0.0
 40
5.6267679818133693
 50
358.99237630962762
 51
4.3705956737405298
  0
ARC
  5
1B4B
  8
0
 10
4.5941734887853114
 20
39.268393051178514
 30
0.0
 40
0.5656546509225361
 50
172.08822864999351
 51
358.99237630962801
  0
ARC
  5
1B4C
  8
0
 10
-75.250466258509661
 20
43.797217015021197
 30
0.0
 40
79.409207952799946
 50
356.78683231342848
 51
359.347143513346
  0
LINE
  5
1B4D
  8
0
 10
4.1535867217999991
 20
42.892408752899989
 30
0.0
 11
4.1275605092806842
 21
47.614227410998751
 31
0.0
  0
LINE
  5
1B4E
  8
0
 10
5.0581445413179553
 20
46.33637235829999
 30
0.0
 11
8.5964174242000002
 21
46.336372358299997
 31
0.0
  0
ARC
  5
1B51
  8
0
 10
4.3439525226946509
 20
38.675758489250477
 30
0.0
 40
1.0553539774853229
 50
0.0308399635764332
 51
39.30278362652048
  0
ARC
  5
1B52
  8
0
 10
4.6065997925703153
 20
38.675899861496177
 30
0.0
 40
0.7927066695622207
 50
267.81841283996403
 51
0.0308399635764522
  0
ARC
  5
1B53
  8
0
 10
4.6085261192951474
 20
38.726467196526372
 30
0.0
 40
0.8433106823152206
 50
213.4394038382319
 51
267.81841283996391
  0
ARC
  5
1B54
  8
0
 10
4.7831728688425237
 20
38.707132460191993
 30
0.0
 40
0.9848257651807463
 50
139.53605134355041
 51
206.88736212727659
  0
ARC
  5
1B55
  8
0
 10
4.5964031887999983
 20
47.579546684780823
 30
0.0
 40
1.1926174047252101
 50
42.157093418517597
 51
247.17734181507791
  0
ARC
  5
1B56
  8
0
 10
4.5964031888000001
 20
47.626372358299989
 30
0.0
 40
0.9824635544657073
 50
49.775476990264451
 51
241.8084124165502
  0
ATTDEF
  5
1B6D
  8
DEFPOINTS
 10
4.5957767785170631
 20
47.589540451673578
 30
0.0
 40
0.001
  1
METAL
  3

  2
MATERIAL
 70
     0
1001
ACDBATTR
1070
     0
1070
     1
  0
ATTDEF
  5
1B6E
  8
DEFPOINTS
 10
4.5957767785170631
 20
47.591207118340243
 30
0.0
 40
0.001
  1
KITCHEN SINK FAUCET
  3

  2
PRODUCT
 70
     0
1001
ACDBATTR
1070
     0
1070
     1
  0
ATTDEF
  5
1B6F
  8
DEFPOINTS
 10
4.5957767785170631
 20
47.592873785006908
 30
0.0
 40
0.001
  1
SIMPLICE
  3

  2
TRADENAME
 70
     0
1001
ACDBATTR
1070
     0
1070
     1
  0
ATTDEF
  5
1B70
  8
DEFPOINTS
 10
4.5957767785170631
 20
47.594540451673581
 30
0.0
 40
0.001
  1
K-596
  3

  2
MODELNUMBER
 70
     0
1001
ACDBATTR
1070
     0
1070
     1
  0
ENDSEC
  0
EOF
