  0
SECTION
  2
HEADER
  9
$ACADVER
  1
AC1009
  9
$INSBASE
 10
33.49842180537896
 20
18.247981579736269
 30
0.0
  9
$EXTMIN
 10
23.79516105145419
 20
18.236823309790861
 30
-0.0015258207003583
  9
$EXTMAX
 10
34.749482185108107
 20
34.949556176839408
 30
0.0000000349246037
  9
$LIMMIN
 10
0.0
 20
0.0
  9
$LIMMAX
 10
11.692913385800001
 20
8.2677165353999982
  9
$ORTHOMODE
 70
     1
  9
$REGENMODE
 70
     1
  9
$FILLMODE
 70
     1
  9
$QTEXTMODE
 70
     0
  9
$MIRRTEXT
 70
     0
  9
$DRAGMODE
 70
     2
  9
$LTSCALE
 40
0.6431102362
  9
$OSMODE
 70
    39
  9
$ATTMODE
 70
     1
  9
$TEXTSIZE
 40
0.2
  9
$TRACEWID
 40
0.05
  9
$TEXTSTYLE
  7
STANDARD
  9
$CLAYER
  8
0
  9
$CELTYPE
  6
BYLAYER
  9
$CECOLOR
 62
   256
  9
$DIMSCALE
 40
1.0
  9
$DIMASZ
 40
0.1875
  9
$DIMEXO
 40
0.0625
  9
$DIMDLI
 40
0.4443307087
  9
$DIMRND
 40
0.0
  9
$DIMDLE
 40
0.0
  9
$DIMEXE
 40
0.125
  9
$DIMTP
 40
0.01
  9
$DIMTM
 40
0.01
  9
$DIMTXT
 40
0.15625
  9
$DIMCEN
 40
0.1052362205
  9
$DIMTSZ
 40
0.0
  9
$DIMTOL
 70
     1
  9
$DIMLIM
 70
     0
  9
$DIMTIH
 70
     1
  9
$DIMTOH
 70
     1
  9
$DIMSE1
 70
     0
  9
$DIMSE2
 70
     0
  9
$DIMTAD
 70
     0
  9
$DIMZIN
 70
     0
  9
$DIMBLK
  1

  9
$DIMASO
 70
     1
  9
$DIMSHO
 70
     1
  9
$DIMPOST
  1

  9
$DIMAPOST
  1

  9
$DIMALT
 70
     0
  9
$DIMALTD
 70
     2
  9
$DIMALTF
 40
25.399999999999999
  9
$DIMLFAC
 40
1.0
  9
$DIMTOFL
 70
     0
  9
$DIMTVP
 40
0.0
  9
$DIMTIX
 70
     0
  9
$DIMSOXD
 70
     0
  9
$DIMSAH
 70
     0
  9
$DIMBLK1
  1

  9
$DIMBLK2
  1

  9
$DIMSTYLE
  2
STANDARD
  9
$DIMCLRD
 70
     0
  9
$DIMCLRE
 70
     0
  9
$DIMCLRT
 70
     0
  9
$DIMTFAC
 40
1.0
  9
$DIMGAP
 40
0.09
  9
$LUNITS
 70
     2
  9
$LUPREC
 70
     4
  9
$SKETCHINC
 40
0.1
  9
$FILLETRAD
 40
0.0
  9
$AUNITS
 70
     0
  9
$AUPREC
 70
     0
  9
$MENU
  1
.
  9
$ELEVATION
 40
0.0
  9
$PELEVATION
 40
0.0
  9
$THICKNESS
 40
0.0
  9
$LIMCHECK
 70
     0
  9
$BLIPMODE
 70
     0
  9
$CHAMFERA
 40
0.0
  9
$CHAMFERB
 40
0.0
  9
$SKPOLY
 70
     0
  9
$TDCREATE
 40
2457588.4100927319
  9
$TDUPDATE
 40
2457588.7404245259
  9
$TDINDWG
 40
0.191013044
  9
$TDUSRTIMER
 40
0.191013044
  9
$USRTIMER
 70
     1
  9
$ANGBASE
 50
0.0
  9
$ANGDIR
 70
     0
  9
$PDMODE
 70
     0
  9
$PDSIZE
 40
0.3125
  9
$PLINEWID
 40
0.0
  9
$COORDS
 70
     1
  9
$SPLFRAME
 70
     0
  9
$SPLINETYPE
 70
     6
  9
$SPLINESEGS
 70
     8
  9
$ATTDIA
 70
     1
  9
$ATTREQ
 70
     1
  9
$HANDLING
 70
     1
  9
$HANDSEED
  5
35E0
  9
$SURFTAB1
 70
     6
  9
$SURFTAB2
 70
     6
  9
$SURFTYPE
 70
     6
  9
$SURFU
 70
     6
  9
$SURFV
 70
     6
  9
$UCSNAME
  2

  9
$UCSORG
 10
0.0
 20
0.0
 30
0.0
  9
$UCSXDIR
 10
1.0
 20
0.0
 30
0.0
  9
$UCSYDIR
 10
0.0
 20
1.0
 30
0.0
  9
$PUCSNAME
  2

  9
$PUCSORG
 10
0.0
 20
0.0
 30
0.0
  9
$PUCSXDIR
 10
1.0
 20
0.0
 30
0.0
  9
$PUCSYDIR
 10
0.0
 20
1.0
 30
0.0
  9
$USERI1
 70
     0
  9
$USERI2
 70
     0
  9
$USERI3
 70
     0
  9
$USERI4
 70
     0
  9
$USERI5
 70
     0
  9
$USERR1
 40
0.0
  9
$USERR2
 40
0.0
  9
$USERR3
 40
0.0
  9
$USERR4
 40
0.0
  9
$USERR5
 40
0.0
  9
$WORLDVIEW
 70
     1
  9
$SHADEDGE
 70
     3
  9
$SHADEDIF
 70
    70
  9
$TILEMODE
 70
     1
  9
$MAXACTVP
 70
    64
  9
$PLIMCHECK
 70
     0
  9
$PEXTMIN
 10
1.0000000000000000E+020
 20
1.0000000000000000E+020
 30
1.0000000000000000E+020
  9
$PEXTMAX
 10
-1.0000000000000000E+020
 20
-1.0000000000000000E+020
 30
-1.0000000000000000E+020
  9
$PLIMMIN
 10
0.0
 20
0.0
  9
$PLIMMAX
 10
12.0
 20
9.0
  9
$UNITMODE
 70
     0
  9
$VISRETAIN
 70
     1
  9
$PLINEGEN
 70
     0
  9
$PSLTSCALE
 70
     1
  0
ENDSEC
  0
SECTION
  2
TABLES
  0
TABLE
  2
VPORT
 70
     1
  0
VPORT
  2
*ACTIVE
 70
     0
 10
0.0
 20
0.0
 11
1.0
 21
1.0
 12
12.225348211012619
 22
-2.202272865022266
 13
0.0
 23
0.0
 14
1.0
 24
1.0
 15
0.0
 25
0.0
 16
-0.000000000000032
 26
0.0
 36
150.61974853136479
 17
17.046973407268521
 27
28.795462608337399
 37
0.0
 40
16.135914590449879
 41
1.786624203821656
 42
50.0
 43
0.0
 44
0.0
 50
0.0
 51
0.0
 71
     0
 72
   100
 73
     1
 74
     1
 75
     0
 76
     0
 77
     0
 78
     0
  0
ENDTAB
  0
TABLE
  2
LTYPE
 70
     1
  0
LTYPE
  2
CONTINUOUS
 70
     0
  3
Solid line
 72
    65
 73
     0
 40
0.0
  0
ENDTAB
  0
TABLE
  2
LAYER
 70
     2
  0
LAYER
  2
0
 70
     0
 62
     7
  6
CONTINUOUS
  0
LAYER
  2
DEFPOINTS
 70
     0
 62
     7
  6
CONTINUOUS
  0
ENDTAB
  0
TABLE
  2
STYLE
 70
     1
  0
STYLE
  2
STANDARD
 70
     0
 40
0.0
 41
0.8
 50
0.0
 71
     0
 42
0.2
  3
txt
  4

  0
ENDTAB
  0
TABLE
  2
VIEW
 70
     1
  0
ENDTAB
  0
TABLE
  2
UCS
 70
     0
  0
ENDTAB
  0
TABLE
  2
APPID
 70
     5
  0
APPID
  2
ACAD
 70
     0
  0
APPID
  2
ACAD_MLEADERVER
 70
     0
  0
APPID
  2
ACAD_NAV_VCDISPLAY
 70
     0
  0
APPID
  2
ACAD_EXEMPT_FROM_CAD_STANDARDS
 70
     0
  0
APPID
  2
ACDBATTR
 70
     0
  0
ENDTAB
  0
TABLE
  2
DIMSTYLE
 70
     1
  0
DIMSTYLE
  2
STANDARD
 70
     0
  3

  4

  5

  6

  7

 40
1.0
 41
0.1875
 42
0.0625
 43
0.38
 44
0.125
 45
0.0
 46
0.0
 47
0.01
 48
0.01
140
0.15625
141
0.09
142
0.0
143
25.399999999999999
144
1.0
145
0.0
146
1.0
147
0.09
 71
     1
 72
     0
 73
     1
 74
     1
 75
     0
 76
     0
 77
     0
 78
     4
170
     0
171
     2
172
     0
173
     0
174
     0
175
     0
176
     0
177
     0
178
     0
  0
ENDTAB
  0
ENDSEC
  0
SECTION
  2
BLOCKS
  0
BLOCK
  8
0
  2
$MODEL_SPACE
 70
     0
 10
0.0
 20
0.0
 30
0.0
  3
$MODEL_SPACE
  1

  0
ENDBLK
  5
21
  8
0
  0
BLOCK
 67
     1
  8
0
  2
$PAPER_SPACE
 70
     0
 10
0.0
 20
0.0
 30
0.0
  3
$PAPER_SPACE
  1

  0
ENDBLK
  5
1D
 67
     1
  8
0
  0
ENDSEC
  0
SECTION
  2
ENTITIES
  0
LINE
  5
330C
  8
0
 10
34.007388475628971
 20
30.31797725533627
 30
0.0
 11
34.007421644078967
 21
27.787981288655129
 31
0.0
  0
ARC
  5
330D
  8
0
 10
89.718587289381915
 20
28.93644596371924
 30
0.0
 40
55.723001948628209
 50
181.1809636234436
 51
185.2795241137008
  0
ARC
  5
330E
  8
0
 10
34.212013860828947
 20
23.807981579736289
 30
0.0
 40
0.0200000000000124
 50
269.99998911383148
 51
3.2302438685405641
  0
LINE
  5
330F
  8
0
 10
34.212013857028971
 20
23.787981579736279
 30
0.0
 11
33.754781963409911
 21
23.787981579736279
 31
0.0
  0
ARC
  5
3310
  8
0
 10
34.189628931921071
 20
23.767828850054791
 30
0.0
 40
0.0201533113009399
 50
0.5394646664221149
 51
89.564703745721729
  0
LINE
  5
3311
  8
0
 10
34.20978134992896
 20
23.768018599436271
 30
0.0
 11
34.209799928228982
 21
23.757981579736281
 31
0.0
  0
LINE
  5
3312
  8
0
 10
34.209799928228968
 20
23.757981579736281
 30
0.0
 11
33.750589894342667
 21
23.757982010337361
 31
0.0
  0
ARC
  5
3313
  8
0
 10
34.196804995140532
 20
23.717981669574609
 30
0.0
 40
0.0400001086849207
 50
5.2653133291615868
 51
89.819485345759745
  0
ARC
  5
3314
  8
0
 10
-59.719717822171312
 20
16.10904363738647
 30
0.0
 40
94.264247177102121
 50
1.7864701767632101
 51
4.6321470889332961
  0
ARC
  5
3315
  8
0
 10
34.460182346765052
 20
19.046504798614141
 30
0.0
 40
0.0385485917133222
 50
267.9268788011621
 51
1.7864701767636171
  0
LINE
  5
3316
  8
0
 10
34.458787855461992
 20
19.007981437947048
 30
0.0
 11
33.49842180537896
 21
19.007981579736271
 31
0.0
  0
ARC
  5
3317
  8
0
 10
34.468421666528968
 20
18.987981579736271
 30
0.0
 40
0.0200000000000031
 50
0.0000000000050889
 51
90.0
  0
LINE
  5
3318
  8
0
 10
34.488421666528971
 20
18.987981579736271
 30
0.0
 11
34.488421666528971
 21
18.947981579736268
 31
0.0
  0
LINE
  5
3319
  8
0
 10
34.488421666528971
 20
18.947981579736268
 30
0.0
 11
34.477650787528972
 21
18.947981579736268
 31
0.0
  0
ARC
  5
331A
  8
0
 10
34.477650787519039
 20
18.887981579710061
 30
0.0
 40
0.0600000000262178
 50
7.0000001142144841
 51
89.999999990514297
  0
LINE
  5
331B
  8
0
 10
34.53720355662896
 20
18.895293740436269
 30
0.0
 11
34.566771307280831
 21
18.654483740000039
 31
0.0
  0
ARC
  5
331C
  8
0
 10
34.755354676579138
 20
18.677638866574519
 30
0.0
 40
0.1899995975326906
 50
187.00000011421429
 51
235.7898419502927
  0
LINE
  5
331D
  8
0
 10
34.648531202231098
 20
18.520512826750441
 30
0.0
 11
34.686355235339519
 21
18.494048625739119
 31
0.0
  0
ARC
  5
331E
  8
0
 10
34.609236433417422
 20
18.387872840088651
 30
0.0
 40
0.1312273106803409
 50
3.4289708417614699
 51
54.007920023547229
  0
LINE
  5
331F
  8
0
 10
34.740228809622693
 20
18.395721690599022
 30
0.0
 11
34.748421666528969
 21
18.247981579736269
 31
0.0
  0
ARC
  5
3320
  8
0
 10
33.51328409580357
 20
24.250798574739051
 30
0.0
 40
0.2686811136727316
 50
56.19866675980893
 51
93.170976058297839
  0
ARC
  5
3321
  8
0
 10
33.493151545040448
 20
24.255265830684891
 30
0.0
 40
0.2768366284082934
 50
6.0611688551719052
 51
52.218660398019523
  0
ARC
  5
3322
  8
0
 10
32.164532063055688
 20
24.084201462080891
 30
0.0
 40
1.616366562497366
 50
351.47496143045521
 51
7.1182287541575269
  0
ARC
  5
3323
  8
0
 10
40.953254983737743
 20
22.76679125943479
 30
0.0
 40
7.2705462996026053
 50
171.4749614304551
 51
176.72557035383849
  0
ARC
  5
3324
  8
0
 10
36.847282570123241
 20
22.925826088535931
 30
0.0
 40
3.1631006417822509
 50
175.3532880212687
 51
182.9695516128653
  0
ARC
  5
3325
  8
0
 10
34.761297228598501
 20
22.791022843922079
 30
0.0
 40
1.073261453995616
 50
181.55165595476689
 51
203.1423039250929
  0
ARC
  5
3326
  8
0
 10
36.330736603263098
 20
23.718255854966309
 30
0.0
 40
2.8904626392512069
 50
207.82171489946811
 51
216.0342302267436
  0
ARC
  5
3327
  8
0
 10
33.414097427804947
 20
21.554932959913842
 30
0.0
 40
0.7415014453201679
 50
320.05437802932812
 51
38.634337656047407
  0
ARC
  5
3328
  8
0
 10
33.495070397319573
 20
21.541069884531101
 30
0.0
 40
0.6717967334144954
 50
270.28583397949382
 51
316.52454516720059
  0
ARC
  5
3329
  8
0
 10
33.290729233745481
 20
21.4860127099431
 30
0.0
 40
1.0087677489834059
 50
311.87327557643403
 51
61.411399625065712
  0
ARC
  5
332A
  8
0
 10
33.49637936213179
 20
21.309009277523671
 30
0.0
 40
0.7405253385070522
 50
270.00712119209061
 51
309.16544490634351
  0
ARC
  5
332B
  8
0
 10
33.477275265173141
 20
21.575335155969888
 30
0.0
 40
0.762587705990848
 50
271.58901438781322
 51
338.21546047718169
  0
ARC
  5
332C
  8
0
 10
33.534052211024978
 20
21.552702221997709
 30
0.0
 40
0.701465958000591
 50
338.21102686605258
 51
57.364582496991247
  0
ARC
  5
332D
  8
0
 10
33.496664657715762
 20
22.652484442240191
 30
0.0
 40
1.7939753146106361
 50
271.33322159973181
 51
273.68130095335931
  0
ARC
  5
332E
  8
0
 10
33.613533048740678
 20
20.836047628225518
 30
0.0
 40
0.0262172356786456
 50
76.576472640913636
 51
93.681235798039282
  0
ARC
  5
332F
  8
0
 10
33.61770932705052
 20
20.853071471760121
 30
0.0
 40
0.008689658980633
 50
63.607906857530722
 51
77.302740494166841
  0
ARC
  5
3330
  8
0
 10
33.621177426949743
 20
20.859870544040479
 30
0.0
 40
0.0010609817811338
 50
321.21061314883582
 51
68.168617250564822
  0
ARC
  5
3331
  8
0
 10
33.608712871485409
 20
20.87362853469914
 30
0.0
 40
0.0196132098193028
 50
288.84196790448698
 51
312.66286108775267
  0
ARC
  5
3332
  8
0
 10
33.504393873701311
 20
21.20259443851544
 30
0.0
 40
0.364718965951573
 50
269.06177184522352
 51
287.66152211448491
  0
LINE
  5
3333
  8
0
 10
34.477650787528972
 20
18.947981579736268
 30
0.0
 11
33.498421666528969
 21
18.947981579736268
 31
0.0
  0
ARC
  5
3334
  8
0
 10
33.580145529342182
 20
22.652484442240191
 30
0.0
 40
1.7939753146106361
 50
267.38901340918881
 51
268.66677840026807
  0
LINE
  5
3335
  8
0
 10
33.069421711428973
 20
30.31797725533627
 30
0.0
 11
33.069421666528967
 21
27.787981285668931
 31
0.0
  0
LINE
  5
3336
  8
0
 10
34.748411557028959
 20
18.247981579736269
 30
0.0
 11
33.49842180537896
 21
18.247981579736269
 31
0.0
  0
ARC
  5
3337
  8
0
 10
32.865318724349713
 20
23.80843855170848
 30
0.0
 40
0.0204628215598708
 50
177.4622913599726
 51
268.62997704211898
  0
LINE
  5
3338
  8
0
 10
32.864829476028973
 20
23.787981579736279
 30
0.0
 11
33.242061647348017
 21
23.787981579736279
 31
0.0
  0
ARC
  5
3339
  8
0
 10
32.883903709800201
 20
23.76749586394946
 30
0.0
 40
0.0204878016485538
 50
90.817591548640564
 51
178.6415295949264
  0
LINE
  5
333A
  8
0
 10
32.863421666528971
 20
23.767981579736269
 30
0.0
 11
32.863412377378957
 21
23.757963069886269
 31
0.0
  0
LINE
  5
333B
  8
0
 10
32.863421666528971
 20
23.757982007432709
 30
0.0
 11
33.246253716814962
 21
23.757982007432709
 31
0.0
  0
ARC
  5
333C
  8
0
 10
32.880966282228961
 20
23.717981394236261
 30
0.0
 40
0.0400000076000187
 50
90.126539678400064
 51
176.6220282052717
  0
ARC
  5
333D
  8
0
 10
32.538469463227791
 20
19.047984157412952
 30
0.0
 40
0.0400048586914179
 50
180.0700427285766
 51
269.40746844900269
  0
LINE
  5
333E
  8
0
 10
32.528424544028972
 20
19.007981579736271
 30
0.0
 11
33.49842180537896
 21
19.007981579736271
 31
0.0
  0
ARC
  5
333F
  8
0
 10
32.528421944228953
 20
18.987981579736271
 30
0.0
 40
0.0200000000000031
 50
90.0
 51
179.99999999999491
  0
LINE
  5
3340
  8
0
 10
32.508421944228949
 20
18.987981579736271
 30
0.0
 11
32.508421944228949
 21
18.947981579736268
 31
0.0
  0
LINE
  5
3341
  8
0
 10
32.508421944228949
 20
18.947981579736268
 30
0.0
 11
32.519192823228948
 21
18.947981579736268
 31
0.0
  0
ARC
  5
3342
  8
0
 10
32.519192823238882
 20
18.887981579710061
 30
0.0
 40
0.0600000000262178
 50
90.000000009485632
 51
172.99999988578551
  0
LINE
  5
3343
  8
0
 10
32.459640054128961
 20
18.895293740436269
 30
0.0
 11
32.430072303477097
 21
18.654483740000039
 31
0.0
  0
ARC
  5
3344
  8
0
 10
32.241488934178783
 20
18.677638866574519
 30
0.0
 40
0.1899995975326906
 50
304.2101580497075
 51
352.99999988578548
  0
LINE
  5
3345
  8
0
 10
32.348312408526823
 20
18.520512826750441
 30
0.0
 11
32.310488375418402
 21
18.494048625739119
 31
0.0
  0
ARC
  5
3346
  8
0
 10
32.387607177340499
 20
18.387872840088651
 30
0.0
 40
0.1312273106803409
 50
125.9920799764525
 51
176.5710291582383
  0
LINE
  5
3347
  8
0
 10
32.256614801135242
 20
18.395721690599022
 30
0.0
 11
32.248421944228959
 21
18.247981579736269
 31
0.0
  0
ARC
  5
3348
  8
0
 10
33.483559514954351
 20
24.250798574739051
 30
0.0
 40
0.2686811136727316
 50
86.829023941702317
 51
123.801333240191
  0
ARC
  5
3349
  8
0
 10
33.503692065717473
 20
24.255265830684891
 30
0.0
 40
0.2768366284082934
 50
127.7813396019807
 51
173.9388311448281
  0
ARC
  5
334A
  8
0
 10
34.832311547702233
 20
24.084201462080891
 30
0.0
 40
1.616366562497366
 50
172.8817712458424
 51
188.52503856954479
  0
ARC
  5
334B
  8
0
 10
26.043588627020188
 20
22.76679125943479
 30
0.0
 40
7.2705462996026053
 50
3.2744296461615319
 51
8.525038569545055
  0
ARC
  5
334C
  8
0
 10
30.14956104063468
 20
22.925826088535931
 30
0.0
 40
3.1631006417822509
 50
357.0304483871347
 51
4.6467119787313003
  0
ARC
  5
334D
  8
0
 10
32.23554638215942
 20
22.791022843922079
 30
0.0
 40
1.073261453995616
 50
336.85769607490693
 51
358.44834404523311
  0
ARC
  5
334E
  8
0
 10
30.666107007494819
 20
23.718255854966309
 30
0.0
 40
2.8904626392512069
 50
323.9657697732564
 51
332.1782851005317
  0
ARC
  5
334F
  8
0
 10
33.582746182952967
 20
21.554932959913842
 30
0.0
 40
0.7415014453201679
 50
141.36566234395261
 51
219.94562197067211
  0
ARC
  5
3350
  8
0
 10
33.501773213438348
 20
21.541069884531101
 30
0.0
 40
0.6717967334144954
 50
223.4754548327991
 51
269.7141660205059
  0
ARC
  5
3351
  8
0
 10
33.70611437701244
 20
21.4860127099431
 30
0.0
 40
1.0087677489834059
 50
118.5886003749342
 51
228.12672442356569
  0
ARC
  5
3352
  8
0
 10
33.500511380620168
 20
21.309092748568311
 30
0.0
 40
0.7406198226830228
 50
230.83580638318199
 51
269.68745780500649
  0
ARC
  5
3353
  8
0
 10
33.519568345584787
 20
21.575335155969888
 30
0.0
 40
0.762587705990848
 50
201.78453952281811
 51
268.41098561218712
  0
ARC
  5
3354
  8
0
 10
33.462791399732943
 20
21.552702221997709
 30
0.0
 40
0.701465958000591
 50
122.6354175030088
 51
201.78897313394711
  0
ARC
  5
3355
  8
0
 10
33.500178953042173
 20
22.652484442240191
 30
0.0
 40
1.7939753146106361
 50
266.31869904664029
 51
268.66677840026853
  0
ARC
  5
3356
  8
0
 10
33.383310562017243
 20
20.836047628225518
 30
0.0
 40
0.0262172356786456
 50
86.318764201960903
 51
103.4235273590859
  0
ARC
  5
3357
  8
0
 10
33.379134283707401
 20
20.853071471760121
 30
0.0
 40
0.008689658980633
 50
102.697259505833
 51
116.39209314246951
  0
ARC
  5
3358
  8
0
 10
33.375666183808178
 20
20.859870544040479
 30
0.0
 40
0.0010609817811338
 50
111.83138274943489
 51
218.78938685116441
  0
ARC
  5
3359
  8
0
 10
33.388130739272512
 20
20.87362853469914
 30
0.0
 40
0.0196132098193028
 50
227.33713891224701
 51
251.15803209551319
  0
ARC
  5
335A
  8
0
 10
33.49244973705661
 20
21.20259443851544
 30
0.0
 40
0.364718965951573
 50
252.33847788551509
 51
270.93822815477643
  0
LINE
  5
335B
  8
0
 10
32.519192823228948
 20
18.947981579736268
 30
0.0
 11
33.498421944228951
 21
18.947981579736268
 31
0.0
  0
ARC
  5
335C
  8
0
 10
33.416698081415738
 20
22.652484442240191
 30
0.0
 40
1.7939753146106361
 50
271.33322159973147
 51
272.61098659081119
  0
LINE
  5
335D
  8
0
 10
32.248432053728962
 20
18.247981579736269
 30
0.0
 11
33.49842180537896
 21
18.247981579736269
 31
0.0
  0
LINE
  5
335E
  8
0
 10
32.841035772427993
 20
23.72033829793271
 30
0.0
 11
32.841342601946181
 21
23.72033876157019
 31
0.0
  0
ARC
  5
335F
  8
0
 10
22.785331976978821
 20
24.60061877889061
 30
0.0
 40
10.094465939233739
 50
346.93194743666203
 51
354.99721190631078
  0
ARC
  5
3360
  8
0
 10
36.364390944895597
 20
21.44865327494113
 30
0.0
 40
3.8456104232633002
 50
166.93194743666169
 51
180.27260753753211
  0
LINE
  5
3361
  8
0
 10
32.518824049252771
 20
21.43035631761931
 30
0.0
 11
32.498464634428963
 21
19.047935252436272
 31
0.0
  0
ARC
  5
3362
  8
0
 10
-24.324201948856359
 20
29.031499134167358
 30
0.0
 40
57.407093362615477
 50
354.78075617995182
 51
358.75879628663051
  0
LINE
  5
3363
  8
0
 10
24.622936557553871
 20
31.03225289251408
 30
0.0
 11
23.797190682628958
 21
28.23654277283628
 31
0.0
  0
ARC
  5
3364
  8
0
 10
23.83494441999553
 20
28.22539176233844
 30
0.0
 40
0.0393660986162766
 50
163.54487445868531
 51
228.1114904709539
  0
ARC
  5
3365
  8
0
 10
23.83573966894966
 20
28.226868352176918
 30
0.0
 40
0.0409982056924525
 50
228.6619466175776
 51
254.9575908871532
  0
LINE
  5
3366
  8
0
 10
23.825099243428969
 20
28.187274991436279
 30
0.0
 11
25.306344791228959
 21
27.804702141136271
 31
0.0
  0
ARC
  5
3367
  8
0
 10
25.312467609790549
 20
27.843723004210201
 30
0.0
 40
0.0394983121433337
 50
261.08235184912598
 51
345.45494741112998
  0
ARC
  5
3368
  8
0
 10
18.895526046950671
 20
29.544611163443371
 30
0.0
 40
6.6780337475325933
 50
345.15622458141888
 51
349.49510185560058
  0
ARC
  5
3369
  8
0
 10
25.443048152448501
 20
28.33052069374174
 30
0.0
 40
0.0189000658437421
 50
349.4951018556041
 51
5.3852457380013661
  0
ARC
  5
336A
  8
0
 10
26.96720509362812
 20
28.654566989401989
 30
0.0
 40
1.539450865224764
 50
188.21129932021231
 51
192.08382366781919
  0
ARC
  5
336B
  8
0
 10
26.56457833976523
 20
28.596466534567909
 30
0.0
 40
1.1326536604923589
 50
181.54852930804151
 51
188.21129932021211
  0
ARC
  5
336C
  8
0
 10
26.280111967203069
 20
28.588776407887892
 30
0.0
 40
0.8480833613270558
 50
175.04153014709729
 51
181.5485293080412
  0
ARC
  5
336D
  8
0
 10
21.115727327680709
 20
29.036829762698911
 30
0.0
 40
4.335701020154473
 50
355.04153014709732
 51
0.4740765434028346
  0
LINE
  5
336E
  8
0
 10
25.451279932586669
 20
29.072703795950261
 30
0.0
 11
25.452369588207969
 21
29.261668194336199
 31
0.0
  0
ARC
  5
336F
  8
0
 10
25.942080645507541
 20
29.279808287311969
 30
0.0
 40
0.4900469187890393
 50
150.03465492183611
 51
182.1214056000812
  0
LINE
  5
3370
  8
0
 10
25.517539441828959
 20
29.524575010936282
 30
0.0
 11
25.53893559542896
 21
29.562322807036271
 31
0.0
  0
ARC
  5
3371
  8
0
 10
25.519126833457491
 20
29.57125324762935
 30
0.0
 40
0.0217287786133762
 50
335.7325841187706
 51
354.90899359985428
  0
ARC
  5
3372
  8
0
 10
35.48647005064106
 20
28.722223854624701
 30
0.0
 40
9.9817098800048232
 50
173.2973499230437
 51
175.13171842693899
  0
ARC
  5
3373
  8
0
 10
25.55345888716467
 20
29.889718044934551
 30
0.0
 40
0.0196783120211692
 50
352.81268763699143
 51
18.246093391307479
  0
ARC
  5
3374
  8
0
 10
26.075464292929571
 20
30.128516300980412
 30
0.0
 40
0.5544794682132518
 50
138.054272200095
 51
204.8067648426603
  0
ARC
  5
3375
  8
0
 10
25.648020473463951
 20
30.51183777949603
 30
0.0
 40
0.0196755741105074
 50
319.82658674048702
 51
350.22892359328409
  0
LINE
  5
3376
  8
0
 10
25.66741062772897
 20
30.508498597836269
 30
0.0
 11
25.714452323761311
 21
30.750019616715839
 31
0.0
  0
ARC
  5
3377
  8
0
 10
25.675907759438289
 20
30.758647116950069
 30
0.0
 40
0.0394983189407275
 50
347.38333870414988
 51
74.153263388611762
  0
LINE
  5
3378
  8
0
 10
25.68669336967897
 20
30.796644324885381
 30
0.0
 11
25.703669492228961
 21
30.792257699936279
 31
0.0
  0
ARC
  5
3379
  8
0
 10
25.708673025811638
 20
30.811621242584199
 30
0.0
 40
0.0199995532997845
 50
255.51170193626541
 51
345.51281762367591
  0
LINE
  5
337A
  8
0
 10
25.728036665886791
 20
30.80661808605748
 30
0.0
 11
25.836275068664051
 21
31.225531518506621
 31
0.0
  0
ARC
  5
337B
  8
0
 10
29.406360456404329
 20
30.401248671948132
 30
0.0
 40
3.6640076264777628
 50
358.69773427665291
 51
166.99902956206111
  0
ARC
  5
337C
  8
0
 10
24.660806338125841
 20
31.020918832955498
 30
0.0
 40
0.0395294976776483
 50
81.094333329601668
 51
163.3380662031804
  0
LINE
  5
337D
  8
0
 10
24.666925824428969
 20
31.05997178513627
 30
0.0
 11
24.65317384082897
 21
31.063705459636271
 31
0.0
  0
ARC
  5
337E
  8
0
 10
24.658177799173242
 20
31.08306925259101
 30
0.0
 40
0.019999901917391
 50
165.51158461939241
 51
255.5107031761849
  0
ARC
  5
337F
  8
0
 10
1836.4140995225739
 20
-436.96930121559433
 30
0.0
 40
1871.2582373801331
 50
165.50156204359561
 51
165.5148091457375
  0
ARC
  5
3380
  8
0
 10
29.289596574309481
 20
30.229901926988699
 30
0.0
 40
4.7186139583164959
 50
1.0695169618658711
 51
164.29757916292539
  0
LINE
  5
3381
  8
0
 10
25.642310679335271
 20
30.474674397376042
 30
0.0
 11
25.76662613888907
 21
30.442551320120739
 31
0.0
  0
ARC
  5
3382
  8
0
 10
25.759238867219139
 20
30.41396277409828
 30
0.0
 40
0.0295275590999999
 50
345.51170200495233
 51
75.511701943136458
  0
LINE
  5
3383
  8
0
 10
25.787827413128959
 20
30.406575502436269
 30
0.0
 11
25.6647062187503
 21
29.93009973616196
 31
0.0
  0
ARC
  5
3384
  8
0
 10
25.636117672766961
 20
29.937487007826459
 30
0.0
 40
0.0295275590607591
 50
255.5117019874738
 51
345.51170193436008
  0
LINE
  5
3385
  8
0
 10
25.628730401128969
 20
29.908898461836269
 30
0.0
 11
25.558924908675419
 21
29.926936179975382
 31
0.0
  0
LINE
  5
3386
  8
0
 10
24.666925824428741
 20
31.059971785136302
 30
0.0
 11
25.68669336967897
 21
30.796644324885381
 31
0.0
  0
LINE
  5
3387
  8
0
 10
25.517542721762201
 20
29.52457409399581
 30
0.0
 11
25.682311182228961
 21
29.478511271736281
 31
0.0
  0
LINE
  5
3388
  8
0
 10
25.682311182228961
 20
29.478511271736281
 30
0.0
 11
25.682298015901669
 21
29.478460603888429
 31
0.0
  0
ARC
  5
3389
  8
0
 10
25.671605408836282
 20
29.440496582805761
 30
0.0
 40
0.039441079379505
 50
345.59511741211611
 51
74.270069389783004
  0
LINE
  5
338A
  8
0
 10
25.709806538428971
 20
29.430684730936282
 30
0.0
 11
25.574849427141611
 21
28.909305991533
 31
0.0
  0
ARC
  5
338B
  8
0
 10
25.63202032576536
 20
28.894507499103501
 30
0.0
 40
0.0590551185557374
 50
165.48770193005521
 51
188.81248833476599
  0
LINE
  5
338C
  8
0
 10
25.573662352128959
 20
28.885460182336281
 30
0.0
 11
25.579117206290721
 21
28.850274696567158
 31
0.0
  0
ARC
  5
338D
  8
0
 10
25.520771202024701
 20
28.84122923542785
 30
0.0
 40
0.0590430061991497
 50
343.69795155205622
 51
8.8124883347683554
  0
LINE
  5
338E
  8
0
 10
25.577440399328971
 20
28.824655803136281
 30
0.0
 11
25.51966327952897
 21
28.646458601036279
 31
0.0
  0
LINE
  5
338F
  8
0
 10
25.51966327952897
 20
28.646458601036279
 30
0.0
 11
25.497514353206441
 21
28.575299661695318
 31
0.0
  0
ARC
  5
3390
  8
0
 10
25.859371803194261
 20
28.473964369365639
 30
0.0
 40
0.3757787322124983
 50
164.35552087043371
 51
177.5597340103181
  0
ARC
  5
3391
  8
0
 10
26.115091901648849
 20
28.457526129866249
 30
0.0
 40
0.6319910773159662
 50
177.0578989513379
 51
182.28153646698661
  0
ARC
  5
3392
  8
0
 10
25.444029834153341
 20
28.426233307358959
 30
0.0
 40
0.0400444800558421
 50
280.35422119611809
 51
8.8103456732577872
  0
LINE
  5
3393
  8
0
 10
23.86963636342897
 20
28.175766613136268
 30
0.0
 11
23.867666424309419
 21
28.168143000841319
 31
0.0
  0
LINE
  5
3394
  8
0
 10
23.867666424309419
 20
28.168143000841319
 30
0.0
 11
25.254909735328962
 21
27.809679747336279
 31
0.0
  0
LINE
  5
3395
  8
0
 10
25.254909735328962
 20
27.809679747336279
 30
0.0
 11
25.256921003670151
 21
27.81746720855341
 31
0.0
  0
LINE
  5
3396
  8
0
 10
24.178767925727129
 20
28.08775446662915
 30
0.0
 11
24.157908390207499
 21
28.001493700981431
 31
0.0
  0
ARC
  5
3397
  8
0
 10
24.167475167128959
 20
27.999180267736278
 30
0.0
 40
0.0098425197000003
 50
166.4057353828843
 51
255.50622958053489
  0
LINE
  5
3398
  8
0
 10
24.165011833079109
 20
27.98965098762686
 30
0.0
 11
24.908314938628969
 21
27.79758168913628
 31
0.0
  0
ARC
  5
3399
  8
0
 10
24.91086675260717
 20
27.806959521180548
 30
0.0
 40
0.0097188213496035
 50
254.777736350412
 51
346.24566719731268
  0
LINE
  5
339A
  8
0
 10
24.92030687793795
 20
27.804648780571039
 30
0.0
 11
24.92030687793795
 21
27.804648780571039
 31
0.0
  0
LINE
  5
339B
  8
0
 10
24.92030687792942
 20
27.804648780536159
 30
0.0
 11
24.942458892795891
 21
27.89041695088601
 31
0.0
  0
ATTDEF
  5
339C
  8
DEFPOINTS
 10
33.493775819711537
 20
18.238426956121199
 30
0.0
 40
0.001
  1
METAL
  3

  2
MATERIAL
 70
     0
1001
ACDBATTR
1070
     0
1070
     1
  0
ATTDEF
  5
339D
  8
DEFPOINTS
 10
33.493775819711537
 20
18.24009362278786
 30
0.0
 40
0.001
  1
KITCHEN SINK FAUCET
  3

  2
PRODUCT
 70
     0
1001
ACDBATTR
1070
     0
1070
     1
  0
ATTDEF
  5
339E
  8
DEFPOINTS
 10
33.493775819711537
 20
18.241760289454529
 30
0.0
 40
0.001
  1
SIMPLICE
  3

  2
TRADENAME
 70
     0
1001
ACDBATTR
1070
     0
1070
     1
  0
ATTDEF
  5
339F
  8
DEFPOINTS
 10
33.493775819711537
 20
18.243426956121201
 30
0.0
 40
0.001
  1
K-596
  3

  2
MODELNUMBER
 70
     0
1001
ACDBATTR
1070
     0
1070
     1
  0
ENDSEC
  0
EOF
