  0
SECTION
  2
HEADER
  9
$ACADVER
  1
AC1014
  9
$ACADMAINTVER
 70
       0
  9
$DWGCODEPAGE
  3
ANSI_932
  9
$INSBASE
 10
0.0
 20
0.0
 30
0.0
  9
$EXTMIN
 10
-1650.33539761
 20
-2302.60416667
 30
0.0
  9
$EXTMAX
 10
1650.0114488
 20
2302.39583333
 30
0.0
  9
$LIMMIN
 10
-525.0
 20
-742.5
  9
$LIMMAX
 10
525.0
 20
742.5
  9
$ORTHOMODE
 70
       0
  9
$REGENMODE
 70
       1
  9
$FILLMODE
 70
       1
  9
$QTEXTMODE
 70
       0
  9
$MIRRTEXT
 70
       1
  9
$DRAGMODE
 70
       2
  9
$LTSCALE
 40
5.0
  9
$OSMODE
 70
       0
  9
$ATTMODE
 70
       1
  9
$TEXTSIZE
 40
0.2
  9
$TRACEWID
 40
0.05
  9
$TEXTSTYLE
  7
STANDARD
  9
$CLAYER
  8
0
  9
$CELTYPE
  6
CONTINUOUS
  9
$CECOLOR
 62
     256
  9
$CELTSCALE
 40
1.0
  9
$DELOBJ
 70
       1
  9
$DISPSILH
 70
       0
  9
$DIMSCALE
 40
1.0
  9
$DIMASZ
 40
10.0
  9
$DIMEXO
 40
0.0625
  9
$DIMDLI
 40
0.38
  9
$DIMRND
 40
0.0
  9
$DIMDLE
 40
0.0
  9
$DIMEXE
 40
0.18
  9
$DIMTP
 40
0.0
  9
$DIMTM
 40
0.0
  9
$DIMTXT
 40
10.0
  9
$DIMCEN
 40
0.09
  9
$DIMTSZ
 40
0.0
  9
$DIMTOL
 70
       0
  9
$DIMLIM
 70
       0
  9
$DIMTIH
 70
       1
  9
$DIMTOH
 70
       1
  9
$DIMSE1
 70
       0
  9
$DIMSE2
 70
       0
  9
$DIMTAD
 70
       0
  9
$DIMZIN
 70
       0
  9
$DIMBLK
  1

  9
$DIMASO
 70
       1
  9
$DIMSHO
 70
       1
  9
$DIMPOST
  1

  9
$DIMAPOST
  1

  9
$DIMALT
 70
       0
  9
$DIMALTD
 70
       2
  9
$DIMALTF
 40
25.4
  9
$DIMLFAC
 40
1.0
  9
$DIMTOFL
 70
       0
  9
$DIMTVP
 40
0.0
  9
$DIMTIX
 70
       0
  9
$DIMSOXD
 70
       0
  9
$DIMSAH
 70
       0
  9
$DIMBLK1
  1

  9
$DIMBLK2
  1

  9
$DIMSTYLE
  2
STANDARD
  9
$DIMCLRD
 70
       0
  9
$DIMCLRE
 70
       0
  9
$DIMCLRT
 70
       0
  9
$DIMTFAC
 40
1.0
  9
$DIMGAP
 40
0.09
  9
$DIMJUST
 70
       0
  9
$DIMSD1
 70
       0
  9
$DIMSD2
 70
       0
  9
$DIMTOLJ
 70
       1
  9
$DIMTZIN
 70
       0
  9
$DIMALTZ
 70
       0
  9
$DIMALTTZ
 70
       0
  9
$DIMFIT
 70
       3
  9
$DIMUPT
 70
       0
  9
$DIMUNIT
 70
       2
  9
$DIMDEC
 70
       4
  9
$DIMTDEC
 70
       4
  9
$DIMALTU
 70
       2
  9
$DIMALTTD
 70
       2
  9
$DIMTXSTY
  7
STANDARD
  9
$DIMAUNIT
 70
       0
  9
$LUNITS
 70
       2
  9
$LUPREC
 70
       4
  9
$SKETCHINC
 40
0.1
  9
$FILLETRAD
 40
0.0
  9
$AUNITS
 70
       0
  9
$AUPREC
 70
       0
  9
$MENU
  1
acad
  9
$ELEVATION
 40
0.0
  9
$PELEVATION
 40
0.0
  9
$THICKNESS
 40
0.0
  9
$LIMCHECK
 70
       0
  9
$BLIPMODE
 70
       1
  9
$CHAMFERA
 40
0.0
  9
$CHAMFERB
 40
0.0
  9
$CHAMFERC
 40
0.0
  9
$CHAMFERD
 40
0.0
  9
$SKPOLY
 70
       0
  9
$TDCREATE
 40
0.000000000
  9
$TDUPDATE
 40
0.000000000
  9
$TDINDWG
 40
0.0000000000
  9
$TDUSRTIMER
 40
0.0000000000
  9
$USRTIMER
 70
       1
  9
$ANGBASE
 50
0.0
  9
$ANGDIR
 70
       0
  9
$PDMODE
 70
       0
  9
$PDSIZE
 40
1.0
  9
$PLINEWID
 40
0.0
  9
$COORDS
 70
       1
  9
$SPLFRAME
 70
       0
  9
$SPLINETYPE
 70
       6
  9
$SPLINESEGS
 70
       8
  9
$ATTDIA
 70
       0
  9
$ATTREQ
 70
       1
  9
$HANDLING
 70
       1
  9
$HANDSEED
  5
4FC
  9
$SURFTAB1
 70
       6
  9
$SURFTAB2
 70
       6
  9
$SURFTYPE
 70
       6
  9
$SURFU
 70
       6
  9
$SURFV
 70
       6
  9
$UCSNAME
  2

  9
$UCSORG
 10
0.0
 20
0.0
 30
0.0
  9
$UCSXDIR
 10
1.0
 20
0.0
 30
0.0
  9
$UCSYDIR
 10
0.0
 20
1.0
 30
0.0
  9
$PUCSNAME
  2

  9
$PUCSORG
 10
0.0
 20
0.0
 30
0.0
  9
$PUCSXDIR
 10
1.0
 20
0.0
 30
0.0
  9
$PUCSYDIR
 10
0.0
 20
1.0
 30
0.0
  9
$USERI1
 70
       0
  9
$USERI2
 70
       0
  9
$USERI3
 70
       0
  9
$USERI4
 70
       0
  9
$USERI5
 70
       0
  9
$USERR1
 40
0.0
  9
$USERR2
 40
0.0
  9
$USERR3
 40
0.0
  9
$USERR4
 40
0.0
  9
$USERR5
 40
0.0
  9
$WORLDVIEW
 70
       1
  9
$SHADEDGE
 70
       3
  9
$SHADEDIF
 70
      70
  9
$TILEMODE
 70
       1
  9
$MAXACTVP
 70
      16
  9
$PINSBASE
 10
0.0
 20
0.0
 30
0.0
  9
$PLIMCHECK
 70
       0
  9
$PEXTMIN
 10
1.00000000E+20
 20
1.00000000E+20
 30
1.00000000E+20
  9
$PEXTMAX
 10
-1.00000000E+20
 20
-1.00000000E+20
 30
-1.00000000E+20
  9
$PLIMMIN
 10
0.0
 20
0.0
  9
$PLIMMAX
 10
12.0
 20
9.0
  9
$UNITMODE
 70
       0
  9
$VISRETAIN
 70
       0
  9
$PLINEGEN
 70
       1
  9
$PSLTSCALE
 70
       0
  9
$TREEDEPTH
 70
    3020
  9
$PICKSTYLE
 70
       1
  9
$CMLSTYLE
  2
STANDARD
  9
$CMLJUST
 70
       0
  9
$CMLSCALE
 40
1.0
  9
$PROXYGRAPHICS
 70
       0
  9
$MEASUREMENT
 70
       0
  0
ENDSEC
  0
SECTION
  2
CLASSES
  0
CLASS
  1
LWPOLYLINE
  2
AcDbPolyline
  3
"AutoCAD"
 90
        0
280
       0
281
       1
  0
CLASS
  1
IMAGE
  2
AcDbRasterImage
  3
ISM
 90
      127
280
       0
281
       1
  0
CLASS
  1
OLE2FRAME
  2
AcDbOle2Frame
  3
""
 90
        0
280
       0
281
       1
  0
CLASS
  1
HATCH
  2
AcDbHatch
  3
"ACAD_SEDONA"
 90
        0
280
       0
281
       1
  0
CLASS
  1
DICTIONARYVAR
  2
AcDbDictionaryVar
  3
"AutoCAD"
 90
        0
280
       0
281
       0
  0
CLASS
  1
RASTERVARIABLES
  2
AcDbRasterVariables
  3
ISM
 90
        0
280
       0
281
       0
  0
CLASS
  1
IMAGEDEF
  2
AcDbRasterImageDef
  3
ISM
 90
        0
280
       0
281
       0
  0
CLASS
  1
IMAGEDEF_REACTOR
  2
AcDbRasterImageDefReactor
  3
ISM
 90
        1
280
       0
281
       0
  0
CLASS
  1
IDBUFFER
  2
AcDbIdBuffer
  3
"Acad"
 90
        0
280
       0
281
       0
  0
CLASS
  1
SPATIAL_FILTER
  2
AcDbSpatialFilter
  3
"Acad"
 90
        0
280
       0
281
       0
  0
CLASS
  1
XRECORD
  2
AcDbXrecord
  3
"<Built In>"
 90
        0
280
       0
281
       0
  0
CLASS
  1
SORTENTSTABLE
  2
AcDbSortentsTable
  3
"AutoCAD"
 90
        0
280
       0
281
       0
  0
CLASS
  1
LAYER_INDEX
  2
AcDbLayerIndex
  3
"Acad"
 90
        0
280
       0
281
       0
  0
CLASS
  1
SPATIAL_INDEX
  2
AcDbSpatialIndex
  3
"Acad"
 90
        0
280
       0
281
       0
  0
CLASS
  1
OBJECT_PTR
  2
CAseDLPNTableRecord
  3
"ASE-LPNTableRecord"
 90
        1
280
       0
281
       0
  0
CLASS
  1
LAYOUT
  2
AcDbLayout
  3
"AutoCAD 2000"
 90
        0
280
       0
281
       0
  0
CLASS
  1
PLOTSETTINGS
  2
AcDbPlotSettings
  3
"AutoCAD 2000"
 90
        0
280
       0
281
       0
  0
CLASS
  1
ACDBDICTIONARYWDFLT
  2
AcDbDictionaryWithDefault
  3
"AutoCAD 2000"
 90
        0
280
       0
281
       0
  0
CLASS
  1
ACDBPLACEHOLDER
  2
AcDbPlaceHolder
  3
"AutoCAD 2000"
 90
        0
280
       0
281
       0
  0
CLASS
  1
VBA_PROJECT
  2
AcDbVbaProject
  3
"acadvba"
 90
        0
280
       0
281
       0
  0
CLASS
  1
WIPEOUT
  2
AcDbWipeout
  3
WipeOut|AutoCAD Express Tool|expresstools@autodesk.com
 90
      127
280
       0
281
       1
  0
CLASS
  1
WIPEOUTVARIABLES
  2
AcDbWipeoutVariables
  3
WipeOut|AutoCAD Express Tool|expresstools@autodesk.com
 90
        0
280
       0
281
       0
  0
CLASS
  1
RTEXT
  2
RText
  3
RText|AutoCAD Express Tool|expresstools@autodesk.com
 90
        0
280
       0
281
       1
  0
CLASS
  1
ARCALIGNEDTEXT
  2
AcDbArcAlignedText
  3
ATEXT|AutoCAD Express Tool|expresstools@autodesk.com
 90
        0
280
       0
281
       1
  0
ENDSEC
  0
SECTION
  2
TABLES
  0
TABLE
  2
VPORT
  5
7
100
AcDbSymbolTable
 70
       1
  0
VPORT
  5
15
100
AcDbSymbolTableRecord
100
AcDbViewportTableRecord
  2
*ACTIVE
 70
       0
 10
0.0
 20
0.0
 11
1.0
 21
1.0
 12
0.0
 22
0.0
 13
0.0
 23
0.0
 14
1.0
 24
1.0
 15
0.0
 25
0.0
 16
0.0
 26
0.0
 36
1.0
 17
0.0
 27
0.0
 37
0.0
 40
1485.0
 41
0.70707071
 42
50.0
 43
0.0
 44
0.0
 50
0.0
 51
0.0
 71
       0
 72
     100
 73
       1
 74
       1
 75
       0
 76
       0
 77
       0
 78
       0
  0
ENDTAB
  0
TABLE
  2
LTYPE
  5
4
100
AcDbSymbolTable
 70
      30
  0
LTYPE
  5
11
100
AcDbSymbolTableRecord
100
AcDbLinetypeTableRecord
  2
BYBLOCK
 70
      64
  3

 72
      65
 73
       0
 40
0.0
  0
LTYPE
  5
12
100
AcDbSymbolTableRecord
100
AcDbLinetypeTableRecord
  2
BYLAYER
 70
      64
  3

 72
      65
 73
       0
 40
0.0
  0
LTYPE
  5
13
100
AcDbSymbolTableRecord
100
AcDbLinetypeTableRecord
  2
CONTINUOUS
 70
      64
  3
Solid line
 72
      65
 73
       0
 40
0.0
  0
LTYPE
  5
1D
100
AcDbSymbolTableRecord
100
AcDbLinetypeTableRecord
  2
HIDDENX2
 70
      64
  3
CADPAC LINETYPE
 72
      65
 73
       2
 40
15.38860104
 49
11.54145078
 74
       0
 49
-3.84715026
 74
       0
  0
LTYPE
  5
1E
100
AcDbSymbolTableRecord
100
AcDbLinetypeTableRecord
  2
HIDDEN
 70
      64
  3
CADPAC LINETYPE
 72
      65
 73
       2
 40
11.54145078
 49
7.69430052
 74
       0
 49
-3.84715026
 74
       0
  0
LTYPE
  5
1F
100
AcDbSymbolTableRecord
100
AcDbLinetypeTableRecord
  2
HIDDEN2
 70
      64
  3
CADPAC LINETYPE
 72
      65
 73
       2
 40
9.61787565
 49
5.77072539
 74
       0
 49
-3.84715026
 74
       0
  0
LTYPE
  5
20
100
AcDbSymbolTableRecord
100
AcDbLinetypeTableRecord
  2
DASHED
 70
      64
  3
CADPAC LINETYPE
 72
      65
 73
       2
 40
10.77202073
 49
7.69430052
 74
       0
 49
-3.07772021
 74
       0
  0
LTYPE
  5
21
100
AcDbSymbolTableRecord
100
AcDbLinetypeTableRecord
  2
DASHED2
 70
      64
  3
CADPAC LINETYPE
 72
      65
 73
       2
 40
6.92487047
 49
4.61658031
 74
       0
 49
-2.30829016
 74
       0
  0
LTYPE
  5
22
100
AcDbSymbolTableRecord
100
AcDbLinetypeTableRecord
  2
DASHEDX2
 70
      64
  3
CADPAC LINETYPE
 72
      65
 73
       2
 40
18.46632124
 49
15.38860104
 74
       0
 49
-3.07772021
 74
       0
  0
LTYPE
  5
23
100
AcDbSymbolTableRecord
100
AcDbLinetypeTableRecord
  2
DOTX2
 70
      64
  3
CADPAC LINETYPE
 72
      65
 73
       2
 40
6.73251295
 49
0.0
 74
       0
 49
-6.73251295
 74
       0
  0
LTYPE
  5
24
100
AcDbSymbolTableRecord
100
AcDbLinetypeTableRecord
  2
DOT
 70
      64
  3
CADPAC LINETYPE
 72
      65
 73
       2
 40
5.38601036
 49
0.0
 74
       0
 49
-5.38601036
 74
       0
  0
LTYPE
  5
25
100
AcDbSymbolTableRecord
100
AcDbLinetypeTableRecord
  2
DOT2
 70
      64
  3
CADPAC LINETYPE
 72
      65
 73
       2
 40
4.03950777
 49
0.0
 74
       0
 49
-4.03950777
 74
       0
  0
LTYPE
  5
26
100
AcDbSymbolTableRecord
100
AcDbLinetypeTableRecord
  2
CENTERX2
 70
      64
  3
CADPAC LINETYPE
 72
      65
 73
       4
 40
23.08290155
 49
9.61787565
 74
       0
 49
-4.80893782
 74
       0
 49
3.84715026
 74
       0
 49
-4.80893782
 74
       0
  0
LTYPE
  5
27
100
AcDbSymbolTableRecord
100
AcDbLinetypeTableRecord
  2
CENTER
 70
      64
  3
CADPAC LINETYPE
 72
      65
 73
       4
 40
17.69689119
 49
7.69430052
 74
       0
 49
-3.84715026
 74
       0
 49
2.30829016
 74
       0
 49
-3.84715026
 74
       0
  0
LTYPE
  5
28
100
AcDbSymbolTableRecord
100
AcDbLinetypeTableRecord
  2
CENTER2
 70
      64
  3
CADPAC LINETYPE
 72
      65
 73
       4
 40
12.31088083
 49
5.77072539
 74
       0
 49
-2.88536269
 74
       0
 49
0.76943005
 74
       0
 49
-2.88536269
 74
       0
  0
LTYPE
  5
29
100
AcDbSymbolTableRecord
100
AcDbLinetypeTableRecord
  2
DASHDOTX2
 70
      64
  3
CADPAC LINETYPE
 72
      65
 73
       4
 40
36.93264249
 49
18.46632124
 74
       0
 49
-6.15544041
 74
       0
 49
6.15544041
 74
       0
 49
-6.15544041
 74
       0
  0
LTYPE
  5
2A
100
AcDbSymbolTableRecord
100
AcDbLinetypeTableRecord
  2
DASHDOT
 70
      64
  3
CADPAC LINETYPE
 72
      65
 73
       4
 40
18.46632124
 49
9.23316062
 74
       0
 49
-3.07772021
 74
       0
 49
3.07772021
 74
       0
 49
-3.07772021
 74
       0
  0
LTYPE
  5
2B
100
AcDbSymbolTableRecord
100
AcDbLinetypeTableRecord
  2
DASHDOT2
 70
      64
  3
CADPAC LINETYPE
 72
      65
 73
       4
 40
11.8492228
 49
6.92487047
 74
       0
 49
-2.30829016
 74
       0
 49
0.30777202
 74
       0
 49
-2.30829016
 74
       0
  0
LTYPE
  5
2C
100
AcDbSymbolTableRecord
100
AcDbLinetypeTableRecord
  2
DIVIDEX2
 70
      64
  3
CADPAC LINETYPE
 72
      65
 73
       6
 40
49.24352332
 49
18.46632124
 74
       0
 49
-6.15544041
 74
       0
 49
6.15544041
 74
       0
 49
-6.15544041
 74
       0
 49
6.15544041
 74
       0
 49
-6.15544041
 74
       0
  0
LTYPE
  5
2D
100
AcDbSymbolTableRecord
100
AcDbLinetypeTableRecord
  2
DIVIDE
 70
      64
  3
CADPAC LINETYPE
 72
      65
 73
       6
 40
24.62176166
 49
9.23316062
 74
       0
 49
-3.07772021
 74
       0
 49
3.07772021
 74
       0
 49
-3.07772021
 74
       0
 49
3.07772021
 74
       0
 49
-3.07772021
 74
       0
  0
LTYPE
  5
2E
100
AcDbSymbolTableRecord
100
AcDbLinetypeTableRecord
  2
DIVIDE2
 70
      64
  3
CADPAC LINETYPE
 72
      65
 73
       6
 40
18.46632124
 49
6.92487047
 74
       0
 49
-2.30829016
 74
       0
 49
2.30829016
 74
       0
 49
-2.30829016
 74
       0
 49
2.30829016
 74
       0
 49
-2.30829016
 74
       0
  0
LTYPE
  5
2F
100
AcDbSymbolTableRecord
100
AcDbLinetypeTableRecord
  2
BORDERX2
 70
      64
  3
CADPAC LINETYPE
 72
      65
 73
       6
 40
33.66256477
 49
9.61787565
 74
       0
 49
-4.80893782
 74
       0
 49
9.61787565
 74
       0
 49
-4.80893782
 74
       0
 49
0.0
 74
       0
 49
-4.80893782
 74
       0
  0
LTYPE
  5
30
100
AcDbSymbolTableRecord
100
AcDbLinetypeTableRecord
  2
BORDER
 70
      64
  3
CADPAC LINETYPE
 72
      65
 73
       6
 40
26.93005181
 49
7.69430052
 74
       0
 49
-3.84715026
 74
       0
 49
7.69430052
 74
       0
 49
-3.84715026
 74
       0
 49
0.0
 74
       0
 49
-3.84715026
 74
       0
  0
LTYPE
  5
31
100
AcDbSymbolTableRecord
100
AcDbLinetypeTableRecord
  2
BORDER2
 70
      64
  3
CADPAC LINETYPE
 72
      65
 73
       6
 40
20.00518135
 49
6.15544041
 74
       0
 49
-3.84715026
 74
       0
 49
2.30829016
 74
       0
 49
-3.84715026
 74
       0
 49
0.0
 74
       0
 49
-3.84715026
 74
       0
  0
LTYPE
  5
32
100
AcDbSymbolTableRecord
100
AcDbLinetypeTableRecord
  2
PHANTOMX2
 70
      64
  3
CADPAC LINETYPE
 72
      65
 73
       6
 40
28.85362694
 49
9.61787565
 74
       0
 49
-3.84715026
 74
       0
 49
3.84715026
 74
       0
 49
-3.84715026
 74
       0
 49
3.84715026
 74
       0
 49
-3.84715026
 74
       0
  0
LTYPE
  5
33
100
AcDbSymbolTableRecord
100
AcDbLinetypeTableRecord
  2
PHANTOM
 70
      64
  3
CADPAC LINETYPE
 72
      65
 73
       6
 40
23.85233161
 49
7.69430052
 74
       0
 49
-3.84715026
 74
       0
 49
2.30829016
 74
       0
 49
-3.84715026
 74
       0
 49
2.30829016
 74
       0
 49
-3.84715026
 74
       0
  0
LTYPE
  5
34
100
AcDbSymbolTableRecord
100
AcDbLinetypeTableRecord
  2
PHANTOM2
 70
      64
  3
CADPAC LINETYPE
 72
      65
 73
       6
 40
20.38989637
 49
5.77072539
 74
       0
 49
-3.84715026
 74
       0
 49
1.5388601
 74
       0
 49
-3.84715026
 74
       0
 49
1.5388601
 74
       0
 49
-3.84715026
 74
       0
  0
LTYPE
  5
35
100
AcDbSymbolTableRecord
100
AcDbLinetypeTableRecord
  2
ACAD_ISO06W100
 70
      64
  3
CADPAC LINETYPE
 72
      65
 73
       8
 40
40.77979275
 49
18.46632124
 74
       0
 49
-3.84715026
 74
       0
 49
2.30829016
 74
       0
 49
-3.84715026
 74
       0
 49
2.30829016
 74
       0
 49
-3.84715026
 74
       0
 49
2.30829016
 74
       0
 49
-3.84715026
 74
       0
  0
LTYPE
  5
36
100
AcDbSymbolTableRecord
100
AcDbLinetypeTableRecord
  2
ACAD_ISO13W100
 70
      64
  3
CADPAC LINETYPE
 72
      65
 73
       8
 40
30.77720207
 49
7.69430052
 74
       0
 49
-3.84715026
 74
       0
 49
7.69430052
 74
       0
 49
-3.84715026
 74
       0
 49
0.0
 74
       0
 49
-3.84715026
 74
       0
 49
0.0
 74
       0
 49
-3.84715026
 74
       0
  0
LTYPE
  5
37
100
AcDbSymbolTableRecord
100
AcDbLinetypeTableRecord
  2
ACAD_ISO14W100
 70
      64
  3
CADPAC LINETYPE
 72
      65
 73
       8
 40
23.08290155
 49
7.69430052
 74
       0
 49
-3.84715026
 74
       0
 49
0.0
 74
       0
 49
-3.84715026
 74
       0
 49
0.0
 74
       0
 49
-3.84715026
 74
       0
 49
0.0
 74
       0
 49
-3.84715026
 74
       0
  0
ENDTAB
  0
TABLE
  2
LAYER
  5
2
100
AcDbSymbolTable
 70
       3
  0
LAYER
  5
14
100
AcDbSymbolTableRecord
100
AcDbLayerTableRecord
  2
0
 70
       0
 62
       7
  6
CONTINUOUS
  0
LAYER
  5
38
100
AcDbSymbolTableRecord
100
AcDbLayerTableRecord
  2
LAYER0240
 70
       0
 62
       7
  6
CONTINUOUS
  0
LAYER
  5
39
100
AcDbSymbolTableRecord
100
AcDbLayerTableRecord
  2
ZUWAKU
 70
       0
 62
       7
  6
CONTINUOUS
  0
ENDTAB
  0
TABLE
  2
STYLE
  5
3
100
AcDbSymbolTable
 70
       2
  0
STYLE
  5
17
100
AcDbSymbolTableRecord
100
AcDbTextStyleTableRecord
  2
STANDARD
 70
       0
 40
17.0
 41
0.8
 50
0.0
 71
       0
 42
17.0
  3
txt.shx
  4
bigfont.shx
  0
STYLE
  5
3A
100
AcDbSymbolTableRecord
100
AcDbTextStyleTableRecord
  2
FDASTYLE1
 70
       4
 40
15.0
 41
0.8
 50
0.0
 71
       0
 42
15.0
  3
txt.shx
  4
bigfont.shx
  0
ENDTAB
  0
TABLE
  2
VIEW
  5
5
100
AcDbSymbolTable
 70
       1
  0
VIEW
  5
3B
100
AcDbSymbolTableRecord
100
AcDbViewTableRecord
  2
QQQQ
 70
       0
 40
1485.0
 10
0.0
 20
0.0
 41
1050.0
 11
0.0
 21
0.0
 31
1.0
 12
100.0
 22
100.0
 32
0.0
 42
50.0
 43
0.0
 44
0.0
 50
0.0
 71
       0
  0
ENDTAB
  0
TABLE
  2
UCS
  5
6
100
AcDbSymbolTable
 70
       0
  0
ENDTAB
  0
TABLE
  2
APPID
  5
8
100
AcDbSymbolTable
 70
       1
  0
APPID
  5
16
100
AcDbSymbolTableRecord
100
AcDbRegAppTableRecord
  2
ACAD
 70
       0
  0
ENDTAB
  0
TABLE
  2
DIMSTYLE
  5
9
100
AcDbSymbolTable
 70
       1
  0
DIMSTYLE
105
18
100
AcDbSymbolTableRecord
100
AcDbDimStyleTableRecord
  2
STANDARD
 70
       0
  3

  4

  5

  6

  7

 40
1.0
 41
0.18
 42
0.0625
 43
0.38
 44
0.18
 45
0.0
 46
0.0
 47
0.0
 48
0.0
 71
       0
 72
       0
 73
       1
 74
       1
 75
       0
 76
       0
 77
       0
 78
       0
140
0.18
141
0.09
142
0.0
143
25.4
144
1.0
145
0.0
146
1.0
147
0.09
170
       0
171
       2
172
       0
173
       0
174
       0
175
       0
176
       0
177
       0
178
       0
270
       2
271
       4
272
       4
273
       2
274
       2
275
       0
280
       0
281
       0
282
       0
283
       1
284
       0
285
       0
286
       0
287
       3
288
       0
340
17
  0
ENDTAB
  0
TABLE
  2
BLOCK_RECORD
  5
1
100
AcDbSymbolTable
 70
      13
  0
BLOCK_RECORD
  5
A
100
AcDbSymbolTableRecord
100
AcDbBlockTableRecord
  2
*MODEL_SPACE
  0
BLOCK_RECORD
  5
B
100
AcDbSymbolTableRecord
100
AcDbBlockTableRecord
  2
*PAPER_SPACE
  0
BLOCK_RECORD
  5
3C
100
AcDbSymbolTableRecord
100
AcDbBlockTableRecord
  2
DA_IMAGEDIMGROUP_1
  0
BLOCK_RECORD
  5
3D
100
AcDbSymbolTableRecord
100
AcDbBlockTableRecord
  2
_ORIGIN
  0
BLOCK_RECORD
  5
3E
100
AcDbSymbolTableRecord
100
AcDbBlockTableRecord
  2
_DOT
  0
BLOCK_RECORD
  5
3F
100
AcDbSymbolTableRecord
100
AcDbBlockTableRecord
  2
_OPEN30
  0
BLOCK_RECORD
  5
40
100
AcDbSymbolTableRecord
100
AcDbBlockTableRecord
  2
DA_IMAGEDIMGROUP_2
  0
BLOCK_RECORD
  5
41
100
AcDbSymbolTableRecord
100
AcDbBlockTableRecord
  2
DA_IMAGEDIMGROUP_3
  0
BLOCK_RECORD
  5
42
100
AcDbSymbolTableRecord
100
AcDbBlockTableRecord
  2
DA_IMAGEDIMGROUP_4
  0
BLOCK_RECORD
  5
43
100
AcDbSymbolTableRecord
100
AcDbBlockTableRecord
  2
DA_IMAGEDIMGROUP_5
  0
BLOCK_RECORD
  5
44
100
AcDbSymbolTableRecord
100
AcDbBlockTableRecord
  2
DA_IMAGEDIMGROUP_6
  0
BLOCK_RECORD
  5
45
100
AcDbSymbolTableRecord
100
AcDbBlockTableRecord
  2
GROUP_1
  0
BLOCK_RECORD
  5
46
100
AcDbSymbolTableRecord
100
AcDbBlockTableRecord
  2
GROUP_2
  0
BLOCK_RECORD
  5
47
100
AcDbSymbolTableRecord
100
AcDbBlockTableRecord
  2
DA_IMAGEDIMGROUP_7
  0
BLOCK_RECORD
  5
48
100
AcDbSymbolTableRecord
100
AcDbBlockTableRecord
  2
DA_IMAGEDIMGROUP_8
  0
ENDTAB
  0
ENDSEC
  0
SECTION
  2
BLOCKS
  0
BLOCK
  5
D
100
AcDbEntity
  8
0
100
AcDbBlockBegin
  2
*MODEL_SPACE
 70
       0
 10
0.0
 20
0.0
 30
0.0
  3
*MODEL_SPACE
  1

  0
ENDBLK
  5
E
100
AcDbEntity
  8
0
100
AcDbBlockEnd
  0
BLOCK
  5
F
100
AcDbEntity
 67
       1
  8
0
100
AcDbBlockBegin
  2
*PAPER_SPACE
 70
       0
 10
0.0
 20
0.0
 30
0.0
  3
*PAPER_SPACE
  1

  0
ENDBLK
  5
10
100
AcDbEntity
 67
       1
  8
0
100
AcDbBlockEnd
  0
BLOCK
  5
49
100
AcDbEntity
  8
0
100
AcDbBlockBegin
  2
DA_IMAGEDIMGROUP_1
 70
       0
 10
0.0
 20
0.0
 30
0.0
  3
DA_IMAGEDIMGROUP_1
  1

  0
LINE
  5
4A
100
AcDbEntity
  8
0
  6
CONTINUOUS
 62
       7
100
AcDbLine
 10
-201.74521098
 20
-167.26742826
 30
0.0
 11
-286.1720919
 21
-167.26742826
 31
0.0
  0
LINE
  5
4B
100
AcDbEntity
  8
0
  6
CONTINUOUS
 62
       7
100
AcDbLine
 10
-173.24521098
 20
-158.26742826
 30
0.0
 11
-286.1720919
 21
-158.26742826
 31
0.0
  0
LINE
  5
4C
100
AcDbEntity
  8
0
  6
CONTINUOUS
 62
       7
100
AcDbLine
 10
-187.74521098
 20
-144.26742826
 30
0.0
 11
-286.1720919
 21
-144.26742826
 31
0.0
  0
LINE
  5
4D
100
AcDbEntity
  8
0
  6
CONTINUOUS
 62
       7
100
AcDbLine
 10
-283.1720919
 20
-158.26742826
 30
0.0
 11
-283.1720919
 21
-144.26742826
 31
0.0
  0
LINE
  5
4E
100
AcDbEntity
  8
0
  6
CONTINUOUS
 62
       7
100
AcDbLine
 10
-283.1720919
 20
-167.26742826
 30
0.0
 11
-283.1720919
 21
-158.26742826
 31
0.0
  0
INSERT
  5
4F
100
AcDbEntity
  8
0
  6
CONTINUOUS
 62
       7
100
AcDbBlockReference
  2
_DOT
 10
-283.1720919
 20
-158.26742826
 30
0.0
 41
12.5
 42
12.5
 50
90.0
  0
LINE
  5
50
100
AcDbEntity
  8
0
  6
CONTINUOUS
 62
       7
100
AcDbLine
 10
-283.1720919
 20
-191.56076826
 30
0.0
 11
-283.1720919
 21
-167.26742826
 31
0.0
  0
INSERT
  5
51
100
AcDbEntity
  8
0
  6
CONTINUOUS
 62
       7
100
AcDbBlockReference
  2
_OPEN30
 10
-283.1720919
 20
-167.26742826
 30
0.0
 41
15.00001394
 42
14.99994637
 50
90.0
  0
LINE
  5
52
100
AcDbEntity
  8
0
  6
CONTINUOUS
 62
       7
100
AcDbLine
 10
-283.1720919
 20
-110.37408826
 30
0.0
 11
-283.1720919
 21
-144.26742826
 31
0.0
  0
INSERT
  5
53
100
AcDbEntity
  8
0
  6
CONTINUOUS
 62
       7
100
AcDbBlockReference
  2
_OPEN30
 10
-283.1720919
 20
-144.26742826
 30
0.0
 41
15.00001394
 42
14.99994637
 50
270.0
  0
TEXT
  5
54
100
AcDbEntity
  8
0
 62
       7
100
AcDbText
 10
-286.1720919
 20
-194.96076826
 30
0.0
 40
20.0
  1
9
 50
90.0
 41
0.8
 72
       5
 11
-286.1720919
 21
-178.96076826
 31
0.0
100
AcDbText
  0
TEXT
  5
55
100
AcDbEntity
  8
0
 62
       7
100
AcDbText
 10
-286.1720919
 20
-132.57408826
 30
0.0
 40
20.0
  1
14
 50
90.0
 41
0.8
 72
       5
 11
-286.1720919
 21
-100.57408826
 31
0.0
100
AcDbText
  0
ENDBLK
  5
56
100
AcDbEntity
  8
0
100
AcDbBlockEnd
  0
BLOCK
  5
57
100
AcDbEntity
  8
0
100
AcDbBlockBegin
  2
_ORIGIN
 70
       0
 10
0.0
 20
0.0
 30
0.0
  3
_ORIGIN
  1

  0
CIRCLE
  5
58
100
AcDbEntity
  8
0
  6
CONTINUOUS
 62
       0
100
AcDbCircle
 10
0.0
 20
0.0
 30
0.0
 40
0.5
  0
ENDBLK
  5
59
100
AcDbEntity
  8
0
100
AcDbBlockEnd
  0
BLOCK
  5
5A
100
AcDbEntity
  8
0
100
AcDbBlockBegin
  2
_DOT
 70
       0
 10
0.0
 20
0.0
 30
0.0
  3
_DOT
  1

  0
HATCH
  5
5B
100
AcDbEntity
  8
0
  6
CONTINUOUS
 62
       0
100
AcDbHatch
 10
0.0
 20
0.0
 30
0.0
210
0.0
220
0.0
230
1.0
  2
SOLID
 70
       1
 71
       1
 91
        1
 92
        1
 93
        1
 72
       2
 10
0.0
 20
0.0
 40
0.5
 50
0.0
 51
360.0
 73
       1
 97
        0
 75
       0
 76
       1
 98
        0
  0
ENDBLK
  5
5C
100
AcDbEntity
  8
0
100
AcDbBlockEnd
  0
BLOCK
  5
5D
100
AcDbEntity
  8
0
100
AcDbBlockBegin
  2
_OPEN30
 70
       0
 10
0.0
 20
0.0
 30
0.0
  3
_OPEN30
  1

  0
LINE
  5
5E
100
AcDbEntity
  8
0
  6
CONTINUOUS
 62
       0
100
AcDbLine
 10
0.0
 20
0.0
 30
0.0
 11
-0.96592583
 21
0.25881905
 31
0.0
  0
LINE
  5
5F
100
AcDbEntity
  8
0
  6
CONTINUOUS
 62
       0
100
AcDbLine
 10
0.0
 20
0.0
 30
0.0
 11
-0.96592583
 21
-0.25881905
 31
0.0
  0
LINE
  5
60
100
AcDbEntity
  8
0
  6
CONTINUOUS
 62
       0
100
AcDbLine
 10
0.0
 20
0.0
 30
0.0
 11
-1.0
 21
0.0
 31
0.0
  0
ENDBLK
  5
61
100
AcDbEntity
  8
0
100
AcDbBlockEnd
  0
BLOCK
  5
62
100
AcDbEntity
  8
0
100
AcDbBlockBegin
  2
DA_IMAGEDIMGROUP_2
 70
       0
 10
0.0
 20
0.0
 30
0.0
  3
DA_IMAGEDIMGROUP_2
  1

  0
LINE
  5
63
100
AcDbEntity
  8
0
  6
CONTINUOUS
 62
       7
100
AcDbLine
 10
-320.74521098
 20
-42.26742826
 30
0.0
 11
-369.08482745
 21
-42.26742826
 31
0.0
  0
LINE
  5
64
100
AcDbEntity
  8
0
  6
CONTINUOUS
 62
       7
100
AcDbLine
 10
-200.74521098
 20
-167.26742826
 30
0.0
 11
-369.08482745
 21
-167.26742826
 31
0.0
  0
LINE
  5
65
100
AcDbEntity
  8
0
  6
CONTINUOUS
 62
       7
100
AcDbLine
 10
-366.08482745
 20
-42.26742826
 30
0.0
 11
-366.08482745
 21
-167.26742826
 31
0.0
  0
INSERT
  5
66
100
AcDbEntity
  8
0
  6
CONTINUOUS
 62
       7
100
AcDbBlockReference
  2
_OPEN30
 10
-366.08482745
 20
-42.26742826
 30
0.0
 41
15.00001394
 42
14.99994637
 50
90.0
  0
INSERT
  5
67
100
AcDbEntity
  8
0
  6
CONTINUOUS
 62
       7
100
AcDbBlockReference
  2
_OPEN30
 10
-366.08482745
 20
-167.26742826
 30
0.0
 41
15.00001394
 42
14.99994637
 50
270.0
  0
TEXT
  5
68
100
AcDbEntity
  8
0
 62
       7
100
AcDbText
 10
-369.08482745
 20
-128.76742826
 30
0.0
 40
20.0
  1
125
 50
90.0
 41
0.8
 72
       5
 11
-369.08482745
 21
-80.76742826
 31
0.0
100
AcDbText
  0
ENDBLK
  5
69
100
AcDbEntity
  8
0
100
AcDbBlockEnd
  0
BLOCK
  5
6A
100
AcDbEntity
  8
0
100
AcDbBlockBegin
  2
DA_IMAGEDIMGROUP_3
 70
       0
 10
0.0
 20
0.0
 30
0.0
  3
DA_IMAGEDIMGROUP_3
  1

  0
LINE
  5
6B
100
AcDbEntity
  8
0
  6
CONTINUOUS
 62
       7
100
AcDbLine
 10
-170.24521098
 20
-224.17651466
 30
0.0
 11
-135.24521098
 21
-224.17651466
 31
0.0
  0
LINE
  5
6C
100
AcDbEntity
  8
0
  6
CONTINUOUS
 62
       7
100
AcDbLine
 10
-170.24521098
 20
-170.26742826
 30
0.0
 11
-170.24521098
 21
-229.17651466
 31
0.0
  0
LINE
  5
6D
100
AcDbEntity
  8
0
  6
CONTINUOUS
 62
       7
100
AcDbLine
 10
-135.24521098
 20
-170.26742826
 30
0.0
 11
-135.24521098
 21
-229.17651466
 31
0.0
  0
LINE
  5
6E
100
AcDbEntity
  8
0
  6
CONTINUOUS
 62
       7
100
AcDbLine
 10
-256.55416399
 20
-224.17651466
 30
0.0
 11
-170.24521098
 21
-224.17651466
 31
0.0
  0
INSERT
  5
6F
100
AcDbEntity
  8
0
  6
CONTINUOUS
 62
       7
100
AcDbBlockReference
  2
_OPEN30
 10
-170.24521098
 20
-224.17651466
 30
0.0
 41
15.00001394
 42
14.99994637
 50
360.0
  0
LINE
  5
70
100
AcDbEntity
  8
0
  6
CONTINUOUS
 62
       7
100
AcDbLine
 10
-110.24521098
 20
-224.17651466
 30
0.0
 11
-135.24521098
 21
-224.17651466
 31
0.0
  0
INSERT
  5
71
100
AcDbEntity
  8
0
  6
CONTINUOUS
 62
       7
100
AcDbBlockReference
  2
_OPEN30
 10
-135.24521098
 20
-224.17651466
 30
0.0
 41
15.00001394
 42
14.99994637
 50
180.0
  0
TEXT
  5
72
100
AcDbEntity
  8
0
 62
       7
100
AcDbText
 10
-251.55416399
 20
-219.17651466
 30
0.0
 40
20.0
  1
φ35
 41
0.8
 72
       5
 11
-203.55416399
 21
-219.17651466
 31
0.0
100
AcDbText
  0
ENDBLK
  5
73
100
AcDbEntity
  8
0
100
AcDbBlockEnd
  0
BLOCK
  5
74
100
AcDbEntity
  8
0
100
AcDbBlockBegin
  2
DA_IMAGEDIMGROUP_4
 70
       0
 10
0.0
 20
0.0
 30
0.0
  3
DA_IMAGEDIMGROUP_4
  1

  0
LINE
  5
75
100
AcDbEntity
  8
0
  6
CONTINUOUS
 62
       7
100
AcDbLine
 10
-184.74521098
 20
-141.26742826
 30
0.0
 11
-184.74521098
 21
-117.84475611
 31
0.0
  0
LINE
  5
76
100
AcDbEntity
  8
0
  6
CONTINUOUS
 62
       7
100
AcDbLine
 10
-120.74521098
 20
-141.26742826
 30
0.0
 11
-120.74521098
 21
-117.84475611
 31
0.0
  0
LINE
  5
77
100
AcDbEntity
  8
0
  6
CONTINUOUS
 62
       7
100
AcDbLine
 10
-184.74521098
 20
-120.84475611
 30
0.0
 11
-120.74521098
 21
-120.84475611
 31
0.0
  0
INSERT
  5
78
100
AcDbEntity
  8
0
  6
CONTINUOUS
 62
       7
100
AcDbBlockReference
  2
_OPEN30
 10
-184.74521098
 20
-120.84475611
 30
0.0
 41
15.00001394
 42
14.99994637
 50
180.0
  0
INSERT
  5
79
100
AcDbEntity
  8
0
  6
CONTINUOUS
 62
       7
100
AcDbBlockReference
  2
_OPEN30
 10
-120.74521098
 20
-120.84475611
 30
0.0
 41
15.00001394
 42
14.99994637
 50
360.0
  0
TEXT
  5
7A
100
AcDbEntity
  8
0
 62
       7
100
AcDbText
 10
-159.68002626
 20
-117.84475611
 30
0.0
 40
20.0
  1
φ64
 41
0.8
 72
       5
 11
-111.68002626
 21
-117.84475611
 31
0.0
100
AcDbText
  0
ENDBLK
  5
7B
100
AcDbEntity
  8
0
100
AcDbBlockEnd
  0
BLOCK
  5
7C
100
AcDbEntity
  8
0
100
AcDbBlockBegin
  2
DA_IMAGEDIMGROUP_5
 70
       0
 10
0.0
 20
0.0
 30
0.0
  3
DA_IMAGEDIMGROUP_5
  1

  0
LINE
  5
7D
100
AcDbEntity
  8
0
  6
CONTINUOUS
 62
       7
100
AcDbLine
 10
-149.74521098
 20
152.72714655
 30
0.0
 11
96.37524305
 21
152.72714655
 31
0.0
  0
LINE
  5
7E
100
AcDbEntity
  8
0
  6
CONTINUOUS
 62
       7
100
AcDbLine
 10
-31.42361532
 20
432.72714655
 30
0.0
 11
96.37524305
 21
432.72714655
 31
0.0
  0
LINE
  5
7F
100
AcDbEntity
  8
0
  6
CONTINUOUS
 62
       7
100
AcDbLine
 10
93.37524305
 20
152.72714655
 30
0.0
 11
93.37524305
 21
432.72714655
 31
0.0
  0
INSERT
  5
80
100
AcDbEntity
  8
0
  6
CONTINUOUS
 62
       7
100
AcDbBlockReference
  2
_OPEN30
 10
93.37524305
 20
152.72714655
 30
0.0
 41
15.00001394
 42
14.99994637
 50
270.0
  0
INSERT
  5
81
100
AcDbEntity
  8
0
  6
CONTINUOUS
 62
       7
100
AcDbBlockReference
  2
_OPEN30
 10
93.37524305
 20
432.72714655
 30
0.0
 41
15.00001394
 42
14.99994637
 50
90.0
  0
TEXT
  5
82
100
AcDbEntity
  8
0
 62
       7
100
AcDbText
 10
90.37524305
 20
268.72714655
 30
0.0
 40
20.0
  1
280
 50
90.0
 41
0.8
 72
       5
 11
90.37524305
 21
316.72714655
 31
0.0
100
AcDbText
  0
ENDBLK
  5
83
100
AcDbEntity
  8
0
100
AcDbBlockEnd
  0
BLOCK
  5
84
100
AcDbEntity
  8
0
100
AcDbBlockBegin
  2
DA_IMAGEDIMGROUP_6
 70
       0
 10
0.0
 20
0.0
 30
0.0
  3
DA_IMAGEDIMGROUP_6
  1

  0
LINE
  5
85
100
AcDbEntity
  8
0
  6
CONTINUOUS
 62
       7
100
AcDbLine
 10
-317.74521098
 20
314.72714655
 30
0.0
 11
-317.74521098
 21
102.1551442
 31
0.0
  0
LINE
  5
86
100
AcDbEntity
  8
0
  6
CONTINUOUS
 62
       7
100
AcDbLine
 10
12.25478902
 20
314.72714655
 30
0.0
 11
12.25478902
 21
102.1551442
 31
0.0
  0
LINE
  5
87
100
AcDbEntity
  8
0
  6
CONTINUOUS
 62
       7
100
AcDbLine
 10
-317.74521098
 20
105.1551442
 30
0.0
 11
12.25478902
 21
105.1551442
 31
0.0
  0
INSERT
  5
88
100
AcDbEntity
  8
0
  6
CONTINUOUS
 62
       7
100
AcDbBlockReference
  2
_OPEN30
 10
-317.74521098
 20
105.1551442
 30
0.0
 41
15.00001394
 42
14.99994637
 50
180.0
  0
INSERT
  5
89
100
AcDbEntity
  8
0
  6
CONTINUOUS
 62
       7
100
AcDbBlockReference
  2
_OPEN30
 10
12.25478902
 20
105.1551442
 30
0.0
 41
15.00001394
 42
14.99994637
 50
360.0
  0
TEXT
  5
8A
100
AcDbEntity
  8
0
 62
       7
100
AcDbText
 10
-184.74521098
 20
108.1551442
 30
0.0
 40
20.0
  1
φ330
 41
0.8
 72
       5
 11
-120.74521098
 21
108.1551442
 31
0.0
100
AcDbText
  0
ENDBLK
  5
8B
100
AcDbEntity
  8
0
100
AcDbBlockEnd
  0
BLOCK
  5
8C
100
AcDbEntity
  8
0
100
AcDbBlockBegin
  2
GROUP_1
 70
       0
 10
0.0
 20
0.0
 30
0.0
  3
GROUP_1
  1

  0
LINE
  5
8D
100
AcDbEntity
  8
0
  6
CONTINUOUS
 62
       7
100
AcDbLine
 10
376.52075248
 20
-88.15852602
 30
0.0
 11
396.34250939
 21
-68.33676815
 31
0.0
  0
LINE
  5
8E
100
AcDbEntity
  8
0
  6
CONTINUOUS
 62
       7
100
AcDbLine
 10
384.82079739
 20
-71.37320012
 30
0.0
 11
405.43080073
 21
-50.76319582
 31
0.0
  0
LINE
  5
8F
100
AcDbEntity
  8
0
  6
CONTINUOUS
 62
       7
100
AcDbLine
 10
392.6770894
 20
-55.03162712
 30
0.0
 11
405.4412873
 21
-42.26742826
 31
0.0
  0
LINE
  5
90
100
AcDbEntity
  8
0
  6
CONTINUOUS
 62
       7
100
AcDbLine
 10
271.95600631
 20
-167.26742826
 30
0.0
 11
276.16184971
 21
-163.06158486
 31
0.0
  0
LINE
  5
91
100
AcDbEntity
  8
0
  6
CONTINUOUS
 62
       7
100
AcDbLine
 10
263.47072532
 20
-167.26742826
 30
0.0
 11
274.28390923
 21
-156.45424435
 31
0.0
  0
LINE
  5
92
100
AcDbEntity
  8
0
  6
CONTINUOUS
 62
       7
100
AcDbLine
 10
254.98544433
 20
-167.26742826
 30
0.0
 11
269.96683645
 21
-152.28603615
 31
0.0
  0
LINE
  5
93
100
AcDbEntity
  8
0
  6
CONTINUOUS
 62
       7
100
AcDbLine
 10
246.97846229
 20
-166.78912931
 30
0.0
 11
265.64976366
 21
-148.11782794
 31
0.0
  0
LINE
  5
94
100
AcDbEntity
  8
0
  6
CONTINUOUS
 62
       7
100
AcDbLine
 10
240.7691792
 20
-164.51313141
 30
0.0
 11
261.20200921
 21
-144.08030236
 31
0.0
  0
LINE
  5
95
100
AcDbEntity
  8
0
  6
CONTINUOUS
 62
       7
100
AcDbLine
 10
235.12602153
 20
-161.67100809
 30
0.0
 11
255.34037084
 21
-141.45665973
 31
0.0
  0
LINE
  5
96
100
AcDbEntity
  8
0
  6
CONTINUOUS
 62
       7
100
AcDbLine
 10
229.98832386
 20
-158.32342477
 30
0.0
 11
249.77876192
 21
-138.53298767
 31
0.0
  0
LINE
  5
97
100
AcDbEntity
  8
0
  6
CONTINUOUS
 62
       7
100
AcDbLine
 10
225.32185173
 20
-154.50461591
 30
0.0
 11
244.50012791
 21
-135.32633973
 31
0.0
  0
LINE
  5
98
100
AcDbEntity
  8
0
  6
CONTINUOUS
 62
       7
100
AcDbLine
 10
221.11148357
 20
-150.22970308
 30
0.0
 11
239.49197023
 21
-131.84921642
 31
0.0
  0
LINE
  5
99
100
AcDbEntity
  8
0
  6
CONTINUOUS
 62
       7
100
AcDbLine
 10
217.35834754
 20
-145.49755812
 30
0.0
 11
234.74552536
 21
-128.11038125
 31
0.0
  0
LINE
  5
9A
100
AcDbEntity
  8
0
  6
CONTINUOUS
 62
       7
100
AcDbLine
 10
214.08002763
 20
-140.29059704
 30
0.0
 11
230.25523409
 21
-124.11539153
 31
0.0
  0
LINE
  5
9B
100
AcDbEntity
  8
0
  6
CONTINUOUS
 62
       7
100
AcDbLine
 10
211.31393312
 20
-134.57141056
 30
0.0
 11
226.01841988
 21
-119.86692475
 31
0.0
  0
LINE
  5
9C
100
AcDbEntity
  8
0
  6
CONTINUOUS
 62
       7
100
AcDbLine
 10
208.93756274
 20
-128.46249995
 30
0.0
 11
222.03514525
 21
-115.36491839
 31
0.0
  0
LINE
  5
9D
100
AcDbEntity
  8
0
  6
CONTINUOUS
 62
       7
100
AcDbLine
 10
206.32671286
 20
-122.58806883
 30
0.0
 11
218.30821429
 21
-110.60656836
 31
0.0
  0
LINE
  5
9E
100
AcDbEntity
  8
0
  6
CONTINUOUS
 62
       7
100
AcDbLine
 10
203.52452963
 20
-116.90497107
 30
0.0
 11
214.84332812
 21
-105.58617259
 31
0.0
  0
LINE
  5
9F
100
AcDbEntity
  8
0
  6
CONTINUOUS
 62
       7
100
AcDbLine
 10
200.53858811
 20
-111.40563161
 30
0.0
 11
211.64681348
 21
-100.29740623
 31
0.0
  0
LINE
  5
A0
100
AcDbEntity
  8
0
  6
CONTINUOUS
 62
       7
100
AcDbLine
 10
197.37517318
 20
-106.08376555
 30
0.0
 11
208.3230154
 21
-95.13592333
 31
0.0
  0
LINE
  5
A1
100
AcDbEntity
  8
0
  6
CONTINUOUS
 62
       7
100
AcDbLine
 10
194.03945501
 20
-100.93420273
 30
0.0
 11
204.78622627
 21
-90.18743146
 31
0.0
  0
LINE
  5
A2
100
AcDbEntity
  8
0
  6
CONTINUOUS
 62
       7
100
AcDbLine
 10
190.53562387
 20
-95.95275287
 30
0.0
 11
201.04152154
 21
-85.44685521
 31
0.0
  0
LINE
  5
A3
100
AcDbEntity
  8
0
  6
CONTINUOUS
 62
       7
100
AcDbLine
 10
186.86699328
 20
-91.13610247
 30
0.0
 11
197.09238475
 21
-80.910711
 31
0.0
  0
LINE
  5
A4
100
AcDbEntity
  8
0
  6
CONTINUOUS
 62
       7
100
AcDbLine
 10
183.03607768
 20
-86.48173708
 30
0.0
 11
192.94083278
 21
-76.57698198
 31
0.0
  0
LINE
  5
A5
100
AcDbEntity
  8
0
  6
CONTINUOUS
 62
       7
100
AcDbLine
 10
179.04464916
 20
-81.98788461
 30
0.0
 11
188.58748615
 21
-72.44504762
 31
0.0
  0
LINE
  5
A6
100
AcDbEntity
  8
0
  6
CONTINUOUS
 62
       7
100
AcDbLine
 10
174.89377627
 20
-77.65347652
 30
0.0
 11
184.03159037
 21
-68.51566241
 31
0.0
  0
LINE
  5
A7
100
AcDbEntity
  8
0
  6
CONTINUOUS
 62
       7
100
AcDbLine
 10
170.58384697
 20
-73.47812482
 30
0.0
 11
179.27098996
 21
-64.79098183
 31
0.0
  0
LINE
  5
A8
100
AcDbEntity
  8
0
  6
CONTINUOUS
 62
       7
100
AcDbLine
 10
166.11457692
 20
-69.46211388
 30
0.0
 11
174.30205315
 21
-61.27463765
 31
0.0
  0
LINE
  5
A9
100
AcDbEntity
  8
0
  6
CONTINUOUS
 62
       7
100
AcDbLine
 10
161.48500339
 20
-65.60640642
 30
0.0
 11
169.11954082
 21
-57.97186899
 31
0.0
  0
LINE
  5
AA
100
AcDbEntity
  8
0
  6
CONTINUOUS
 62
       7
100
AcDbLine
 10
156.69346462
 20
-61.91266419
 30
0.0
 11
163.71640851
 21
-54.88972031
 31
0.0
  0
LINE
  5
AB
100
AcDbEntity
  8
0
  6
CONTINUOUS
 62
       7
100
AcDbLine
 10
151.73756362
 20
-58.38328421
 30
0.0
 11
158.08352282
 21
-52.03732501
 31
0.0
  0
LINE
  5
AC
100
AcDbEntity
  8
0
  6
CONTINUOUS
 62
       7
100
AcDbLine
 10
146.61411428
 20
-55.02145256
 30
0.0
 11
152.20926392
 21
-49.42630292
 31
0.0
  0
LINE
  5
AD
100
AcDbEntity
  8
0
  6
CONTINUOUS
 62
       7
100
AcDbLine
 10
141.31906722
 20
-51.83121863
 30
0.0
 11
146.07896947
 21
-47.07131638
 31
0.0
  0
LINE
  5
AE
100
AcDbEntity
  8
0
  6
CONTINUOUS
 62
       7
100
AcDbLine
 10
135.84741094
 20
-48.81759391
 30
0.0
 11
139.67415019
 21
-44.99085467
 31
0.0
  0
LINE
  5
AF
100
AcDbEntity
  8
0
  6
CONTINUOUS
 62
       7
100
AcDbLine
 10
130.19304233
 20
-45.98668154
 30
0.0
 11
132.97136383
 21
-43.20836004
 31
0.0
  0
LINE
  5
B0
100
AcDbEntity
  8
0
  6
CONTINUOUS
 62
       7
100
AcDbLine
 10
311.16184971
 20
-162.00270883
 30
0.0
 11
333.13084332
 21
-140.03371522
 31
0.0
  0
LINE
  5
B1
100
AcDbEntity
  8
0
  6
CONTINUOUS
 62
       7
100
AcDbLine
 10
367.52251662
 20
-105.64204192
 30
0.0
 11
390.03759129
 21
-83.12696725
 31
0.0
  0
LINE
  5
B2
100
AcDbEntity
  8
0
  6
CONTINUOUS
 62
       7
100
AcDbLine
 10
314.38241127
 20
-167.26742826
 30
0.0
 11
385.37605312
 21
-96.27378641
 31
0.0
  0
LINE
  5
B3
100
AcDbEntity
  8
0
  6
CONTINUOUS
 62
       7
100
AcDbLine
 10
322.86769226
 20
-167.26742826
 30
0.0
 11
381.84353031
 21
-108.29159021
 31
0.0
  0
LINE
  5
B4
100
AcDbEntity
  8
0
  6
CONTINUOUS
 62
       7
100
AcDbLine
 10
331.35297325
 20
-167.26742826
 30
0.0
 11
379.15498797
 21
-119.46541354
 31
0.0
  0
LINE
  5
B5
100
AcDbEntity
  8
0
  6
CONTINUOUS
 62
       7
100
AcDbLine
 10
340.977496
 20
-166.12818746
 30
0.0
 11
377.02817221
 21
-130.07751124
 31
0.0
  0
LINE
  5
B6
100
AcDbEntity
  8
0
  6
CONTINUOUS
 62
       7
100
AcDbLine
 10
359.04555983
 20
-156.54540461
 30
0.0
 11
367.44538937
 21
-148.14557507
 31
0.0
  0
ENDBLK
  5
B7
100
AcDbEntity
  8
0
100
AcDbBlockEnd
  0
BLOCK
  5
B8
100
AcDbEntity
  8
0
100
AcDbBlockBegin
  2
GROUP_2
 70
       0
 10
0.0
 20
0.0
 30
0.0
  3
GROUP_2
  1

  0
LINE
  5
B9
100
AcDbEntity
  8
0
  6
CONTINUOUS
 62
       7
100
AcDbLine
 10
-123.99521134
 20
-167.26742826
 30
0.0
 11
-3.08168693
 21
-46.3539048
 31
0.0
  0
LINE
  5
BA
100
AcDbEntity
  8
0
  6
CONTINUOUS
 62
       7
100
AcDbLine
 10
-132.48049233
 20
-167.26742826
 30
0.0
 11
-89.14664666
 21
-123.93358259
 31
0.0
  0
LINE
  5
BB
100
AcDbEntity
  8
0
  6
CONTINUOUS
 62
       7
100
AcDbLine
 10
-85.47312764
 20
-120.26006357
 30
0.0
 11
-17.32630366
 21
-52.11324055
 31
0.0
  0
LINE
  5
BC
100
AcDbEntity
  8
0
  6
CONTINUOUS
 62
       7
100
AcDbLine
 10
-135.24521098
 20
-161.54686592
 30
0.0
 11
-115.82192093
 21
-142.12357587
 31
0.0
  0
LINE
  5
BD
100
AcDbEntity
  8
0
  6
CONTINUOUS
 62
       7
100
AcDbLine
 10
-63.82042802
 20
-90.12208391
 30
0.0
 11
-38.89131291
 21
-65.19296881
 31
0.0
  0
LINE
  5
BE
100
AcDbEntity
  8
0
  6
CONTINUOUS
 62
       7
100
AcDbLine
 10
-174.90689728
 20
-167.26742826
 30
0.0
 11
-170.24521098
 21
-162.60574196
 31
0.0
  0
LINE
  5
BF
100
AcDbEntity
  8
0
  6
CONTINUOUS
 62
       7
100
AcDbLine
 10
-183.39217827
 20
-167.26742826
 30
0.0
 11
-172.35507153
 21
-156.23032152
 31
0.0
  0
LINE
  5
C0
100
AcDbEntity
  8
0
  6
CONTINUOUS
 62
       7
100
AcDbLine
 10
-191.87745926
 20
-167.26742826
 30
0.0
 11
-176.67214432
 21
-152.06211331
 31
0.0
  0
LINE
  5
C1
100
AcDbEntity
  8
0
  6
CONTINUOUS
 62
       7
100
AcDbLine
 10
-199.77801097
 20
-166.68269898
 30
0.0
 11
-180.9892171
 21
-147.89390511
 31
0.0
  0
LINE
  5
C2
100
AcDbEntity
  8
0
  6
CONTINUOUS
 62
       7
100
AcDbLine
 10
-205.95474439
 20
-164.3741514
 30
0.0
 11
-185.5279211
 21
-143.94732811
 31
0.0
  0
LINE
  5
C3
100
AcDbEntity
  8
0
  6
CONTINUOUS
 62
       7
100
AcDbLine
 10
-211.56948996
 20
-161.50361598
 30
0.0
 11
-191.37291885
 21
-141.30704487
 31
0.0
  0
LINE
  5
C4
100
AcDbEntity
  8
0
  6
CONTINUOUS
 62
       7
100
AcDbLine
 10
-216.68119479
 20
-158.13003983
 30
0.0
 11
-196.91893846
 21
-138.36778445
 31
0.0
  0
LINE
  5
C5
100
AcDbEntity
  8
0
  6
CONTINUOUS
 62
       7
100
AcDbLine
 10
-221.32293142
 20
-154.28649546
 30
0.0
 11
-202.18276151
 21
-135.14632651
 31
0.0
  0
LINE
  5
C6
100
AcDbEntity
  8
0
  6
CONTINUOUS
 62
       7
100
AcDbLine
 10
-225.50890596
 20
-149.98718901
 30
0.0
 11
-207.17666725
 21
-131.65495126
 31
0.0
  0
LINE
  5
C7
100
AcDbEntity
  8
0
  6
CONTINUOUS
 62
       7
100
AcDbLine
 10
-229.23713699
 20
-145.23013905
 30
0.0
 11
-211.90923576
 21
-127.90223878
 31
0.0
  0
LINE
  5
C8
100
AcDbEntity
  8
0
  6
CONTINUOUS
 62
       7
100
AcDbLine
 10
-232.48909351
 20
-139.99681459
 30
0.0
 11
-216.38586664
 21
-123.89358866
 31
0.0
  0
LINE
  5
C9
100
AcDbEntity
  8
0
  6
CONTINUOUS
 62
       7
100
AcDbLine
 10
-235.2261262
 20
-134.24856628
 30
0.0
 11
-220.60908511
 21
-119.6315252
 31
0.0
  0
LINE
  5
CA
100
AcDbEntity
  8
0
  6
CONTINUOUS
 62
       7
100
AcDbLine
 10
-237.60475102
 20
-128.14191011
 30
0.0
 11
-224.5786847
 21
-115.11584379
 31
0.0
  0
LINE
  5
CB
100
AcDbEntity
  8
0
  6
CONTINUOUS
 62
       7
100
AcDbLine
 10
-240.22609606
 20
-122.27797416
 30
0.0
 11
-228.29171114
 21
-110.3435902
 31
0.0
  0
LINE
  5
CC
100
AcDbEntity
  8
0
  6
CONTINUOUS
 62
       7
100
AcDbLine
 10
-243.03833122
 20
-116.60492833
 30
0.0
 11
-231.74229925
 21
-105.30889731
 31
0.0
  0
LINE
  5
CD
100
AcDbEntity
  8
0
  6
CONTINUOUS
 62
       7
100
AcDbLine
 10
-246.03395602
 20
-111.11527214
 30
0.0
 11
-234.93328845
 21
-100.01460457
 31
0.0
  0
LINE
  5
CE
100
AcDbEntity
  8
0
  6
CONTINUOUS
 62
       7
100
AcDbLine
 10
-249.2067495
 20
-105.80278463
 30
0.0
 11
-238.26868613
 21
-94.86472126
 31
0.0
  0
LINE
  5
CF
100
AcDbEntity
  8
0
  6
CONTINUOUS
 62
       7
100
AcDbLine
 10
-252.55159725
 20
-100.66235139
 30
0.0
 11
-241.81675891
 21
-89.92751305
 31
0.0
  0
LINE
  5
D0
100
AcDbEntity
  8
0
  6
CONTINUOUS
 62
       7
100
AcDbLine
 10
-256.06435847
 20
-95.68983162
 30
0.0
 11
-245.57252108
 21
-85.19799423
 31
0.0
  0
LINE
  5
D1
100
AcDbEntity
  8
0
  6
CONTINUOUS
 62
       7
100
AcDbLine
 10
-259.74176434
 20
-90.8819565
 30
0.0
 11
-249.53257051
 21
-80.67276267
 31
0.0
  0
LINE
  5
D2
100
AcDbEntity
  8
0
  6
CONTINUOUS
 62
       7
100
AcDbLine
 10
-263.58134157
 20
-86.23625274
 30
0.0
 11
-253.6949667
 21
-76.34987787
 31
0.0
  0
LINE
  5
D3
100
AcDbEntity
  8
0
  6
CONTINUOUS
 62
       7
100
AcDbLine
 10
-267.58135672
 20
-81.75098689
 30
0.0
 11
-258.05916311
 21
-72.22879329
 31
0.0
  0
LINE
  5
D4
100
AcDbEntity
  8
0
  6
CONTINUOUS
 62
       7
100
AcDbLine
 10
-271.74077822
 20
-77.42512741
 30
0.0
 11
-262.62598841
 21
-68.31033759
 31
0.0
  0
LINE
  5
D5
100
AcDbEntity
  8
0
  6
CONTINUOUS
 62
       7
100
AcDbLine
 10
-276.05925432
 20
-73.25832252
 30
0.0
 11
-267.397675
 21
-64.59674319
 31
0.0
  0
LINE
  5
D6
100
AcDbEntity
  8
0
  6
CONTINUOUS
 62
       7
100
AcDbLine
 10
-280.53710554
 20
-69.25089274
 30
0.0
 11
-272.37793714
 21
-61.09172435
 31
0.0
  0
LINE
  5
D7
100
AcDbEntity
  8
0
  6
CONTINUOUS
 62
       7
100
AcDbLine
 10
-285.17533149
 20
-65.40383771
 30
0.0
 11
-277.57210522
 21
-57.80061144
 31
0.0
  0
LINE
  5
D8
100
AcDbEntity
  8
0
  6
CONTINUOUS
 62
       7
100
AcDbLine
 10
-289.97563235
 20
-61.71885758
 30
0.0
 11
-282.98732787
 21
-54.7305531
 31
0.0
  0
LINE
  5
D9
100
AcDbEntity
  8
0
  6
CONTINUOUS
 62
       7
100
AcDbLine
 10
-294.940446
 20
-58.19839023
 30
0.0
 11
-288.63286075
 21
-51.89080498
 31
0.0
  0
LINE
  5
DA
100
AcDbEntity
  8
0
  6
CONTINUOUS
 62
       7
100
AcDbLine
 10
-300.07300281
 20
-54.84566605
 30
0.0
 11
-294.52047134
 21
-49.29313458
 31
0.0
  0
LINE
  5
DB
100
AcDbEntity
  8
0
  6
CONTINUOUS
 62
       7
100
AcDbLine
 10
-305.37740109
 20
-51.66478334
 30
0.0
 11
-300.66500516
 21
-46.95238742
 31
0.0
  0
LINE
  5
DC
100
AcDbEntity
  8
0
  6
CONTINUOUS
 62
       7
100
AcDbLine
 10
-310.8587074
 20
-48.66080866
 30
0.0
 11
-307.08518523
 21
-44.88728649
 31
0.0
  0
LINE
  5
DD
100
AcDbEntity
  8
0
  6
CONTINUOUS
 62
       7
100
AcDbLine
 10
-316.52308787
 20
-45.83990814
 30
0.0
 11
-313.80476083
 21
-43.12158111
 31
0.0
  0
LINE
  5
DE
100
AcDbEntity
  8
0
  6
CONTINUOUS
 62
       7
100
AcDbLine
 10
-115.50993035
 20
-167.26742826
 30
0.0
 11
-59.58740971
 21
-111.34490762
 31
0.0
  0
LINE
  5
DF
100
AcDbEntity
  8
0
  6
CONTINUOUS
 62
       7
100
AcDbLine
 10
0.36701133
 20
-51.39048659
 30
0.0
 11
8.73292682
 21
-43.02457205
 31
0.0
  0
LINE
  5
E0
100
AcDbEntity
  8
0
  6
CONTINUOUS
 62
       7
100
AcDbLine
 10
-106.74823068
 20
-166.99100958
 30
0.0
 11
-67.87579606
 21
-128.11857497
 31
0.0
  0
LINE
  5
E1
100
AcDbEntity
  8
0
  6
CONTINUOUS
 62
       7
100
AcDbLine
 10
-90.83636244
 20
-159.56442233
 30
0.0
 11
-75.70592201
 21
-144.4339819
 31
0.0
  0
ENDBLK
  5
E2
100
AcDbEntity
  8
0
100
AcDbBlockEnd
  0
BLOCK
  5
E3
100
AcDbEntity
  8
0
100
AcDbBlockBegin
  2
DA_IMAGEDIMGROUP_7
 70
       0
 10
0.0
 20
0.0
 30
0.0
  3
DA_IMAGEDIMGROUP_7
  1

  0
LINE
  5
E4
100
AcDbEntity
  8
0
  6
CONTINUOUS
 62
       7
100
AcDbLine
 10
-197.74521098
 20
-260.95150931
 30
0.0
 11
-107.74521098
 21
-260.95150931
 31
0.0
  0
INSERT
  5
E5
100
AcDbEntity
  8
0
  6
CONTINUOUS
 62
       7
100
AcDbBlockReference
  2
_OPEN30
 10
-197.74521098
 20
-260.95150931
 30
0.0
 41
15.00001394
 42
14.99994637
 50
180.0
  0
INSERT
  5
E6
100
AcDbEntity
  8
0
  6
CONTINUOUS
 62
       7
100
AcDbBlockReference
  2
_OPEN30
 10
-107.74521098
 20
-260.95150931
 30
0.0
 41
15.00001394
 42
14.99994637
 50
360.0
  0
LINE
  5
E7
100
AcDbEntity
  8
0
  6
CONTINUOUS
 62
       7
100
AcDbLine
 10
-197.74521098
 20
-170.26742826
 30
0.0
 11
-197.74521098
 21
-265.95150931
 31
0.0
  0
LINE
  5
E8
100
AcDbEntity
  8
0
  6
CONTINUOUS
 62
       7
100
AcDbLine
 10
-107.74521098
 20
-170.26742826
 30
0.0
 11
-107.74521098
 21
-265.95150931
 31
0.0
  0
TEXT
  5
E9
100
AcDbEntity
  8
0
 62
       7
100
AcDbText
 10
-176.74521098
 20
-257.95150931
 30
0.0
 40
20.0
  1
φ90
 41
0.8
 72
       5
 11
-128.74521098
 21
-257.95150931
 31
0.0
100
AcDbText
  0
ENDBLK
  5
EA
100
AcDbEntity
  8
0
100
AcDbBlockEnd
  0
BLOCK
  5
EB
100
AcDbEntity
  8
0
100
AcDbBlockBegin
  2
DA_IMAGEDIMGROUP_8
 70
       0
 10
0.0
 20
0.0
 30
0.0
  3
DA_IMAGEDIMGROUP_8
  1

  0
LINE
  5
EC
100
AcDbEntity
  8
0
  6
CONTINUOUS
 62
       7
100
AcDbLine
 10
263.66184971
 20
-196.26742826
 30
0.0
 11
263.66184971
 21
-242.88785758
 31
0.0
  0
LINE
  5
ED
100
AcDbEntity
  8
0
  6
CONTINUOUS
 62
       7
100
AcDbLine
 10
323.66184971
 20
-196.26742826
 30
0.0
 11
323.66184971
 21
-242.88785758
 31
0.0
  0
LINE
  5
EE
100
AcDbEntity
  8
0
  6
CONTINUOUS
 62
       7
100
AcDbLine
 10
263.66184971
 20
-238.88785758
 30
0.0
 11
323.66184971
 21
-238.88785758
 31
0.0
  0
LINE
  5
EF
100
AcDbEntity
  8
0
  6
CONTINUOUS
 62
       7
100
AcDbLine
 10
128.87072971
 20
-238.88785758
 30
0.0
 11
263.66184971
 21
-238.88785758
 31
0.0
  0
INSERT
  5
F0
100
AcDbEntity
  8
0
  6
CONTINUOUS
 62
       7
100
AcDbBlockReference
  2
_OPEN30
 10
263.66184971
 20
-238.88785758
 30
0.0
 41
15.00001394
 42
14.99994637
 50
360.0
  0
LINE
  5
F1
100
AcDbEntity
  8
0
  6
CONTINUOUS
 62
       7
100
AcDbLine
 10
343.66184971
 20
-238.88785758
 30
0.0
 11
323.66184971
 21
-238.88785758
 31
0.0
  0
INSERT
  5
F2
100
AcDbEntity
  8
0
  6
CONTINUOUS
 62
       7
100
AcDbBlockReference
  2
_OPEN30
 10
323.66184971
 20
-238.88785758
 30
0.0
 41
15.00001394
 42
14.99994637
 50
180.0
  0
TEXT
  5
F3
100
AcDbEntity
  8
0
 62
       7
100
AcDbText
 10
104.07072971
 20
-234.88785758
 30
0.0
 40
20.0
  1
推奨開口寸法φ60
 41
0.75
 72
       5
 11
248.07072971
 21
-234.88785758
 31
0.0
100
AcDbText
  0
ENDBLK
  5
F4
100
AcDbEntity
  8
0
100
AcDbBlockEnd
  0
ENDSEC
  0
SECTION
  2
ENTITIES
  0
LINE
  5
F5
100
AcDbEntity
  8
ZUWAKU
  6
CONTINUOUS
 62
       7
100
AcDbLine
 10
-283.29166667
 20
-692.89438314
 30
0.0
 11
-280.47916667
 21
-685.08188314
 31
0.0
  0
LINE
  5
F6
100
AcDbEntity
  8
ZUWAKU
  6
CONTINUOUS
 62
       7
100
AcDbLine
 10
-304.10416667
 20
-692.89438314
 30
0.0
 11
-299.72916667
 21
-681.01938314
 31
0.0
  0
LINE
  5
F7
100
AcDbEntity
  8
ZUWAKU
  6
CONTINUOUS
 62
       7
100
AcDbLine
 10
-308.16666667
 20
-676.64438314
 30
0.0
 11
-309.72916667
 21
-681.01938314
 31
0.0
  0
LINE
  5
F8
100
AcDbEntity
  8
ZUWAKU
  6
CONTINUOUS
 62
       7
100
AcDbLine
 10
-293.79166667
 20
-692.89438314
 30
0.0
 11
-289.10416667
 21
-679.14438314
 31
0.0
  0
LINE
  5
F9
100
AcDbEntity
  8
ZUWAKU
  6
CONTINUOUS
 62
       7
100
AcDbLine
 10
-228.22916667
 20
-692.89438314
 30
0.0
 11
-233.54166667
 21
-684.14438314
 31
0.0
  0
LINE
  5
FA
100
AcDbEntity
  8
ZUWAKU
  6
CONTINUOUS
 62
       7
100
AcDbLine
 10
-308.16666667
 20
-676.64438314
 30
0.0
 11
-302.22916667
 21
-676.64438314
 31
0.0
  0
LINE
  5
FB
100
AcDbEntity
  8
ZUWAKU
  6
CONTINUOUS
 62
       7
100
AcDbLine
 10
-276.41666667
 20
-673.83188314
 30
0.0
 11
-266.10416667
 21
-673.83188314
 31
0.0
  0
LINE
  5
FC
100
AcDbEntity
  8
ZUWAKU
  6
CONTINUOUS
 62
       7
100
AcDbLine
 10
-254.22916667
 20
-672.89438314
 30
0.0
 11
-251.10416667
 21
-672.89438314
 31
0.0
  0
LINE
  5
FD
100
AcDbEntity
  8
ZUWAKU
  6
CONTINUOUS
 62
       7
100
AcDbLine
 10
-274.22916667
 20
-668.20688314
 30
0.0
 11
-276.41666667
 21
-673.83188314
 31
0.0
  0
LINE
  5
FE
100
AcDbEntity
  8
ZUWAKU
  6
CONTINUOUS
 62
       7
100
AcDbLine
 10
-264.22916667
 20
-668.20688314
 30
0.0
 11
-266.10416667
 21
-673.83188314
 31
0.0
  0
LINE
  5
FF
100
AcDbEntity
  8
ZUWAKU
  6
CONTINUOUS
 62
       7
100
AcDbLine
 10
-304.10416667
 20
-692.89438314
 30
0.0
 11
-293.79166667
 21
-692.89438314
 31
0.0
  0
LINE
  5
100
100
AcDbEntity
  8
ZUWAKU
  6
CONTINUOUS
 62
       7
100
AcDbLine
 10
-288.16666667
 20
-668.20688314
 30
0.0
 11
-276.60416667
 21
-668.20688314
 31
0.0
  0
LINE
  5
101
100
AcDbEntity
  8
ZUWAKU
  6
CONTINUOUS
 62
       7
100
AcDbLine
 10
-237.19203846
 20
-673.83188314
 30
0.0
 11
-248.22916667
 21
-673.83188314
 31
0.0
  0
LINE
  5
102
100
AcDbEntity
  8
ZUWAKU
  6
CONTINUOUS
 62
       7
100
AcDbLine
 10
-225.10416667
 20
-668.20688314
 30
0.0
 11
-246.35416667
 21
-668.20688314
 31
0.0
  0
LINE
  5
103
100
AcDbEntity
  8
ZUWAKU
  6
CONTINUOUS
 62
       7
100
AcDbLine
 10
-309.72916667
 20
-681.01938314
 30
0.0
 11
-299.72916667
 21
-681.01938314
 31
0.0
  0
LINE
  5
104
100
AcDbEntity
  8
ZUWAKU
  6
CONTINUOUS
 62
       7
100
AcDbLine
 10
-283.29166667
 20
-692.89438314
 30
0.0
 11
-266.72916667
 21
-692.89438314
 31
0.0
  0
LINE
  5
105
100
AcDbEntity
  8
ZUWAKU
  6
CONTINUOUS
 62
       7
100
AcDbLine
 10
-280.47916667
 20
-685.08188314
 30
0.0
 11
-265.47916667
 21
-685.08188314
 31
0.0
  0
LINE
  5
106
100
AcDbEntity
  8
ZUWAKU
  6
CONTINUOUS
 62
       7
100
AcDbLine
 10
-228.22916667
 20
-692.89438314
 30
0.0
 11
-236.04166667
 21
-692.89438314
 31
0.0
  0
LINE
  5
107
100
AcDbEntity
  8
ZUWAKU
  6
CONTINUOUS
 62
       7
100
AcDbLine
 10
-248.22916667
 20
-673.83188314
 30
0.0
 11
-246.35416667
 21
-668.20688314
 31
0.0
  0
LINE
  5
108
100
AcDbEntity
  8
ZUWAKU
  6
CONTINUOUS
 62
       7
100
AcDbLine
 10
-356.91666667
 20
-668.20688314
 30
0.0
 11
-362.22916667
 21
-683.20688314
 31
0.0
  0
LINE
  5
109
100
AcDbEntity
  8
ZUWAKU
  6
CONTINUOUS
 62
       7
100
AcDbLine
 10
-362.22916667
 20
-683.20688314
 30
0.0
 11
-355.04166667
 21
-683.20688314
 31
0.0
  0
LINE
  5
10A
100
AcDbEntity
  8
ZUWAKU
  6
CONTINUOUS
 62
       7
100
AcDbLine
 10
-355.04166667
 20
-683.20688314
 30
0.0
 11
-349.41666667
 21
-668.20688314
 31
0.0
  0
LINE
  5
10B
100
AcDbEntity
  8
ZUWAKU
  6
CONTINUOUS
 62
       7
100
AcDbLine
 10
-349.41666667
 20
-668.20688314
 30
0.0
 11
-356.91666667
 21
-668.20688314
 31
0.0
  0
LINE
  5
10C
100
AcDbEntity
  8
ZUWAKU
  6
CONTINUOUS
 62
       7
100
AcDbLine
 10
-261.72916667
 20
-683.20688314
 30
0.0
 11
-258.29166667
 21
-680.39438314
 31
0.0
  0
LINE
  5
10D
100
AcDbEntity
  8
ZUWAKU
  6
CONTINUOUS
 62
       7
100
AcDbLine
 10
-258.29166667
 20
-680.39438314
 30
0.0
 11
-255.79166667
 21
-676.95688314
 31
0.0
  0
LINE
  5
10E
100
AcDbEntity
  8
ZUWAKU
  6
CONTINUOUS
 62
       7
100
AcDbLine
 10
-255.79166667
 20
-676.95688314
 30
0.0
 11
-254.22916667
 21
-672.89438314
 31
0.0
  0
LINE
  5
10F
100
AcDbEntity
  8
ZUWAKU
  6
CONTINUOUS
 62
       7
100
AcDbLine
 10
-331.22916667
 20
-668.20688314
 30
0.0
 11
-308.41666667
 21
-668.20688314
 31
0.0
  0
LINE
  5
110
100
AcDbEntity
  8
ZUWAKU
  6
CONTINUOUS
 62
       7
100
AcDbLine
 10
-308.41666667
 20
-668.20688314
 30
0.0
 11
-310.29166667
 21
-673.83188314
 31
0.0
  0
LINE
  5
111
100
AcDbEntity
  8
ZUWAKU
  6
CONTINUOUS
 62
       7
100
AcDbLine
 10
-308.41666667
 20
-668.20688314
 30
0.0
 11
-310.29166667
 21
-673.83188314
 31
0.0
  0
LINE
  5
112
100
AcDbEntity
  8
ZUWAKU
  6
CONTINUOUS
 62
       7
100
AcDbLine
 10
-310.29166667
 20
-673.83188314
 30
0.0
 11
-333.10416667
 21
-673.83188314
 31
0.0
  0
LINE
  5
113
100
AcDbEntity
  8
ZUWAKU
  6
CONTINUOUS
 62
       7
100
AcDbLine
 10
-333.10416667
 20
-673.83188314
 30
0.0
 11
-331.22916667
 21
-668.20688314
 31
0.0
  0
LINE
  5
114
100
AcDbEntity
  8
ZUWAKU
  6
CONTINUOUS
 62
       7
100
AcDbLine
 10
-333.10416667
 20
-673.83188314
 30
0.0
 11
-331.22916667
 21
-668.20688314
 31
0.0
  0
LINE
  5
115
100
AcDbEntity
  8
ZUWAKU
  6
CONTINUOUS
 62
       7
100
AcDbLine
 10
-308.41666667
 20
-668.20688314
 30
0.0
 11
-331.22916667
 21
-668.20688314
 31
0.0
  0
LINE
  5
116
100
AcDbEntity
  8
ZUWAKU
  6
CONTINUOUS
 62
       7
100
AcDbLine
 10
-331.22916667
 20
-668.20688314
 30
0.0
 11
-333.10416667
 21
-673.83188314
 31
0.0
  0
LINE
  5
117
100
AcDbEntity
  8
ZUWAKU
  6
CONTINUOUS
 62
       7
100
AcDbLine
 10
-333.10416667
 20
-673.83188314
 30
0.0
 11
-310.29166667
 21
-673.83188314
 31
0.0
  0
LINE
  5
118
100
AcDbEntity
  8
ZUWAKU
  6
CONTINUOUS
 62
       7
100
AcDbLine
 10
-321.54166667
 20
-692.26938314
 30
0.0
 11
-319.04166667
 21
-691.01938314
 31
0.0
  0
LINE
  5
119
100
AcDbEntity
  8
ZUWAKU
  6
CONTINUOUS
 62
       7
100
AcDbLine
 10
-319.04166667
 20
-691.01938314
 30
0.0
 11
-317.16666667
 21
-689.14438314
 31
0.0
  0
LINE
  5
11A
100
AcDbEntity
  8
ZUWAKU
  6
CONTINUOUS
 62
       7
100
AcDbLine
 10
-317.16666667
 20
-689.14438314
 30
0.0
 11
-314.97916667
 21
-686.95688314
 31
0.0
  0
LINE
  5
11B
100
AcDbEntity
  8
ZUWAKU
  6
CONTINUOUS
 62
       7
100
AcDbLine
 10
-314.97916667
 20
-686.95688314
 30
0.0
 11
-311.22916667
 21
-676.64438314
 31
0.0
  0
LINE
  5
11C
100
AcDbEntity
  8
ZUWAKU
  6
CONTINUOUS
 62
       7
100
AcDbLine
 10
-311.22916667
 20
-676.64438314
 30
0.0
 11
-333.72916667
 21
-676.64438314
 31
0.0
  0
LINE
  5
11D
100
AcDbEntity
  8
ZUWAKU
  6
CONTINUOUS
 62
       7
100
AcDbLine
 10
-333.72916667
 20
-676.64438314
 30
0.0
 11
-334.97916667
 21
-681.01938314
 31
0.0
  0
LINE
  5
11E
100
AcDbEntity
  8
ZUWAKU
  6
CONTINUOUS
 62
       7
100
AcDbLine
 10
-334.97916667
 20
-681.01938314
 30
0.0
 11
-321.85416667
 21
-681.01938314
 31
0.0
  0
LINE
  5
11F
100
AcDbEntity
  8
ZUWAKU
  6
CONTINUOUS
 62
       7
100
AcDbLine
 10
-321.85416667
 20
-681.01938314
 30
0.0
 11
-322.47916667
 21
-683.20688314
 31
0.0
  0
LINE
  5
120
100
AcDbEntity
  8
ZUWAKU
  6
CONTINUOUS
 62
       7
100
AcDbLine
 10
-322.47916667
 20
-683.20688314
 30
0.0
 11
-324.04166667
 21
-685.08188314
 31
0.0
  0
LINE
  5
121
100
AcDbEntity
  8
ZUWAKU
  6
CONTINUOUS
 62
       7
100
AcDbLine
 10
-324.04166667
 20
-685.08188314
 30
0.0
 11
-325.60416667
 21
-686.64438314
 31
0.0
  0
LINE
  5
122
100
AcDbEntity
  8
ZUWAKU
  6
CONTINUOUS
 62
       7
100
AcDbLine
 10
-325.60416667
 20
-686.64438314
 30
0.0
 11
-327.79166667
 21
-688.20688314
 31
0.0
  0
LINE
  5
123
100
AcDbEntity
  8
ZUWAKU
  6
CONTINUOUS
 62
       7
100
AcDbLine
 10
-327.79166667
 20
-688.20688314
 30
0.0
 11
-338.10416667
 21
-688.20688314
 31
0.0
  0
LINE
  5
124
100
AcDbEntity
  8
ZUWAKU
  6
CONTINUOUS
 62
       7
100
AcDbLine
 10
-338.10416667
 20
-688.20688314
 30
0.0
 11
-339.97916667
 21
-692.89438314
 31
0.0
  0
LINE
  5
125
100
AcDbEntity
  8
ZUWAKU
  6
CONTINUOUS
 62
       7
100
AcDbLine
 10
-360.04166667
 20
-692.89438314
 30
0.0
 11
-358.47916667
 21
-688.20688314
 31
0.0
  0
LINE
  5
126
100
AcDbEntity
  8
ZUWAKU
  6
CONTINUOUS
 62
       7
100
AcDbLine
 10
-358.47916667
 20
-688.20688314
 30
0.0
 11
-355.66666667
 21
-688.20688314
 31
0.0
  0
LINE
  5
127
100
AcDbEntity
  8
ZUWAKU
  6
CONTINUOUS
 62
       7
100
AcDbLine
 10
-355.66666667
 20
-688.20688314
 30
0.0
 11
-353.16666667
 21
-687.89438314
 31
0.0
  0
LINE
  5
128
100
AcDbEntity
  8
ZUWAKU
  6
CONTINUOUS
 62
       7
100
AcDbLine
 10
-353.16666667
 20
-687.89438314
 30
0.0
 11
-350.66666667
 21
-686.64438314
 31
0.0
  0
LINE
  5
129
100
AcDbEntity
  8
ZUWAKU
  6
CONTINUOUS
 62
       7
100
AcDbLine
 10
-350.66666667
 20
-686.64438314
 30
0.0
 11
-349.10416667
 21
-684.14438314
 31
0.0
  0
LINE
  5
12A
100
AcDbEntity
  8
ZUWAKU
  6
CONTINUOUS
 62
       7
100
AcDbLine
 10
-349.10416667
 20
-684.14438314
 30
0.0
 11
-343.16666667
 21
-668.20688314
 31
0.0
  0
LINE
  5
12B
100
AcDbEntity
  8
ZUWAKU
  6
CONTINUOUS
 62
       7
100
AcDbLine
 10
-343.16666667
 20
-668.20688314
 30
0.0
 11
-334.72916667
 21
-668.20688314
 31
0.0
  0
LINE
  5
12C
100
AcDbEntity
  8
ZUWAKU
  6
CONTINUOUS
 62
       7
100
AcDbLine
 10
-334.72916667
 20
-668.20688314
 30
0.0
 11
-340.97916667
 21
-686.64438314
 31
0.0
  0
LINE
  5
12D
100
AcDbEntity
  8
ZUWAKU
  6
CONTINUOUS
 62
       7
100
AcDbLine
 10
-340.97916667
 20
-686.64438314
 30
0.0
 11
-343.47916667
 21
-689.14438314
 31
0.0
  0
LINE
  5
12E
100
AcDbEntity
  8
ZUWAKU
  6
CONTINUOUS
 62
       7
100
AcDbLine
 10
-343.47916667
 20
-689.14438314
 30
0.0
 11
-345.97916667
 21
-691.33188314
 31
0.0
  0
LINE
  5
12F
100
AcDbEntity
  8
ZUWAKU
  6
CONTINUOUS
 62
       7
100
AcDbLine
 10
-345.97916667
 20
-691.33188314
 30
0.0
 11
-349.10416667
 21
-692.58188314
 31
0.0
  0
LINE
  5
130
100
AcDbEntity
  8
ZUWAKU
  6
CONTINUOUS
 62
       7
100
AcDbLine
 10
-276.60416667
 20
-668.20688314
 30
0.0
 11
-278.47916667
 21
-672.26938314
 31
0.0
  0
LINE
  5
131
100
AcDbEntity
  8
ZUWAKU
  6
CONTINUOUS
 62
       7
100
AcDbLine
 10
-278.47916667
 20
-672.26938314
 30
0.0
 11
-281.60416667
 21
-675.39438314
 31
0.0
  0
LINE
  5
132
100
AcDbEntity
  8
ZUWAKU
  6
CONTINUOUS
 62
       7
100
AcDbLine
 10
-278.47916667
 20
-672.26938314
 30
0.0
 11
-281.60416667
 21
-675.39438314
 31
0.0
  0
LINE
  5
133
100
AcDbEntity
  8
ZUWAKU
  6
CONTINUOUS
 62
       7
100
AcDbLine
 10
-281.60416667
 20
-675.39438314
 30
0.0
 11
-285.04166667
 21
-677.89438314
 31
0.0
  0
LINE
  5
134
100
AcDbEntity
  8
ZUWAKU
  6
CONTINUOUS
 62
       7
100
AcDbLine
 10
-285.04166667
 20
-677.89438314
 30
0.0
 11
-289.10416667
 21
-679.14438314
 31
0.0
  0
LINE
  5
135
100
AcDbEntity
  8
ZUWAKU
  6
CONTINUOUS
 62
       7
100
AcDbLine
 10
-285.04166667
 20
-677.89438314
 30
0.0
 11
-289.10416667
 21
-679.14438314
 31
0.0
  0
LINE
  5
136
100
AcDbEntity
  8
ZUWAKU
  6
CONTINUOUS
 62
       7
100
AcDbLine
 10
-289.10416667
 20
-679.14438314
 30
0.0
 11
-293.79166667
 21
-692.89438314
 31
0.0
  0
LINE
  5
137
100
AcDbEntity
  8
ZUWAKU
  6
CONTINUOUS
 62
       7
100
AcDbLine
 10
-293.79166667
 20
-692.89438314
 30
0.0
 11
-304.10416667
 21
-692.89438314
 31
0.0
  0
LINE
  5
138
100
AcDbEntity
  8
ZUWAKU
  6
CONTINUOUS
 62
       7
100
AcDbLine
 10
-293.79166667
 20
-692.89438314
 30
0.0
 11
-304.10416667
 21
-692.89438314
 31
0.0
  0
LINE
  5
139
100
AcDbEntity
  8
ZUWAKU
  6
CONTINUOUS
 62
       7
100
AcDbLine
 10
-300.22916667
 20
-681.01938314
 30
0.0
 11
-309.72916667
 21
-681.01938314
 31
0.0
  0
LINE
  5
13A
100
AcDbEntity
  8
ZUWAKU
  6
CONTINUOUS
 62
       7
100
AcDbLine
 10
-309.72916667
 20
-681.01938314
 30
0.0
 11
-308.16666667
 21
-676.64438314
 31
0.0
  0
LINE
  5
13B
100
AcDbEntity
  8
ZUWAKU
  6
CONTINUOUS
 62
       7
100
AcDbLine
 10
-304.10416667
 20
-692.89438314
 30
0.0
 11
-299.72916667
 21
-681.01938314
 31
0.0
  0
LINE
  5
13C
100
AcDbEntity
  8
ZUWAKU
  6
CONTINUOUS
 62
       7
100
AcDbLine
 10
-304.10416667
 20
-692.89438314
 30
0.0
 11
-299.72916667
 21
-681.01938314
 31
0.0
  0
LINE
  5
13D
100
AcDbEntity
  8
ZUWAKU
  6
CONTINUOUS
 62
       7
100
AcDbLine
 10
-308.16666667
 20
-676.64438314
 30
0.0
 11
-302.22916667
 21
-676.64438314
 31
0.0
  0
LINE
  5
13E
100
AcDbEntity
  8
ZUWAKU
  6
CONTINUOUS
 62
       7
100
AcDbLine
 10
-308.16666667
 20
-676.64438314
 30
0.0
 11
-302.22916667
 21
-676.64438314
 31
0.0
  0
LINE
  5
13F
100
AcDbEntity
  8
ZUWAKU
  6
CONTINUOUS
 62
       7
100
AcDbLine
 10
-302.22916667
 20
-676.64438314
 30
0.0
 11
-298.16666667
 21
-676.33188314
 31
0.0
  0
LINE
  5
140
100
AcDbEntity
  8
ZUWAKU
  6
CONTINUOUS
 62
       7
100
AcDbLine
 10
-302.22916667
 20
-676.64438314
 30
0.0
 11
-298.16666667
 21
-676.33188314
 31
0.0
  0
LINE
  5
141
100
AcDbEntity
  8
ZUWAKU
  6
CONTINUOUS
 62
       7
100
AcDbLine
 10
-298.16666667
 20
-676.33188314
 30
0.0
 11
-293.79166667
 21
-674.45688314
 31
0.0
  0
LINE
  5
142
100
AcDbEntity
  8
ZUWAKU
  6
CONTINUOUS
 62
       7
100
AcDbLine
 10
-298.16666667
 20
-676.33188314
 30
0.0
 11
-293.79166667
 21
-674.45688314
 31
0.0
  0
LINE
  5
143
100
AcDbEntity
  8
ZUWAKU
  6
CONTINUOUS
 62
       7
100
AcDbLine
 10
-293.79166667
 20
-674.45688314
 30
0.0
 11
-290.66666667
 21
-671.64438314
 31
0.0
  0
LINE
  5
144
100
AcDbEntity
  8
ZUWAKU
  6
CONTINUOUS
 62
       7
100
AcDbLine
 10
-293.79166667
 20
-674.45688314
 30
0.0
 11
-290.66666667
 21
-671.64438314
 31
0.0
  0
LINE
  5
145
100
AcDbEntity
  8
ZUWAKU
  6
CONTINUOUS
 62
       7
100
AcDbLine
 10
-349.41666667
 20
-668.20688314
 30
0.0
 11
-355.04166667
 21
-683.20688314
 31
0.0
  0
LINE
  5
146
100
AcDbEntity
  8
ZUWAKU
  6
CONTINUOUS
 62
       7
100
AcDbLine
 10
-355.04166667
 20
-683.20688314
 30
0.0
 11
-362.22916667
 21
-683.20688314
 31
0.0
  0
LINE
  5
147
100
AcDbEntity
  8
ZUWAKU
  6
CONTINUOUS
 62
       7
100
AcDbLine
 10
-355.04166667
 20
-683.20688314
 30
0.0
 11
-362.22916667
 21
-683.20688314
 31
0.0
  0
LINE
  5
148
100
AcDbEntity
  8
ZUWAKU
  6
CONTINUOUS
 62
       7
100
AcDbLine
 10
-362.22916667
 20
-683.20688314
 30
0.0
 11
-356.91666667
 21
-668.20688314
 31
0.0
  0
LINE
  5
149
100
AcDbEntity
  8
ZUWAKU
  6
CONTINUOUS
 62
       7
100
AcDbLine
 10
-356.91666667
 20
-668.20688314
 30
0.0
 11
-349.41666667
 21
-668.20688314
 31
0.0
  0
LINE
  5
14A
100
AcDbEntity
  8
ZUWAKU
  6
CONTINUOUS
 62
       7
100
AcDbLine
 10
-356.91666667
 20
-668.20688314
 30
0.0
 11
-349.41666667
 21
-668.20688314
 31
0.0
  0
LINE
  5
14B
100
AcDbEntity
  8
ZUWAKU
  6
CONTINUOUS
 62
       7
100
AcDbLine
 10
-246.35416667
 20
-668.20688314
 30
0.0
 11
-248.22916667
 21
-673.83188314
 31
0.0
  0
LINE
  5
14C
100
AcDbEntity
  8
ZUWAKU
  6
CONTINUOUS
 62
       7
100
AcDbLine
 10
-248.22916667
 20
-673.83188314
 30
0.0
 11
-238.22916667
 21
-673.83188314
 31
0.0
  0
LINE
  5
14D
100
AcDbEntity
  8
ZUWAKU
  6
CONTINUOUS
 62
       7
100
AcDbLine
 10
-248.22916667
 20
-673.83188314
 30
0.0
 11
-238.22916667
 21
-673.83188314
 31
0.0
  0
LINE
  5
14E
100
AcDbEntity
  8
ZUWAKU
  6
CONTINUOUS
 62
       7
100
AcDbLine
 10
-255.10416667
 20
-687.89438314
 30
0.0
 11
-256.97916667
 21
-693.20688314
 31
0.0
  0
LINE
  5
14F
100
AcDbEntity
  8
ZUWAKU
  6
CONTINUOUS
 62
       7
100
AcDbLine
 10
-255.10416667
 20
-687.89438314
 30
0.0
 11
-256.97916667
 21
-693.20688314
 31
0.0
  0
LINE
  5
150
100
AcDbEntity
  8
ZUWAKU
  6
CONTINUOUS
 62
       7
100
AcDbLine
 10
-256.97916667
 20
-693.20688314
 30
0.0
 11
-247.60416667
 21
-691.64438314
 31
0.0
  0
LINE
  5
151
100
AcDbEntity
  8
ZUWAKU
  6
CONTINUOUS
 62
       7
100
AcDbLine
 10
-247.60416667
 20
-691.64438314
 30
0.0
 11
-243.22916667
 21
-690.39438314
 31
0.0
  0
LINE
  5
152
100
AcDbEntity
  8
ZUWAKU
  6
CONTINUOUS
 62
       7
100
AcDbLine
 10
-247.60416667
 20
-691.64438314
 30
0.0
 11
-243.22916667
 21
-690.39438314
 31
0.0
  0
LINE
  5
153
100
AcDbEntity
  8
ZUWAKU
  6
CONTINUOUS
 62
       7
100
AcDbLine
 10
-238.54166667
 20
-688.83188314
 30
0.0
 11
-236.04166667
 21
-692.89438314
 31
0.0
  0
LINE
  5
154
100
AcDbEntity
  8
ZUWAKU
  6
CONTINUOUS
 62
       7
100
AcDbLine
 10
-236.04166667
 20
-692.89438314
 30
0.0
 11
-228.22916667
 21
-692.89438314
 31
0.0
  0
LINE
  5
155
100
AcDbEntity
  8
ZUWAKU
  6
CONTINUOUS
 62
       7
100
AcDbLine
 10
-236.04166667
 20
-692.89438314
 30
0.0
 11
-228.22916667
 21
-692.89438314
 31
0.0
  0
LINE
  5
156
100
AcDbEntity
  8
ZUWAKU
  6
CONTINUOUS
 62
       7
100
AcDbLine
 10
-233.54166667
 20
-684.14438314
 30
0.0
 11
-230.72916667
 21
-680.39438314
 31
0.0
  0
LINE
  5
157
100
AcDbEntity
  8
ZUWAKU
  6
CONTINUOUS
 62
       7
100
AcDbLine
 10
-230.72916667
 20
-680.39438314
 30
0.0
 11
-228.22916667
 21
-676.64438314
 31
0.0
  0
LINE
  5
158
100
AcDbEntity
  8
ZUWAKU
  6
CONTINUOUS
 62
       7
100
AcDbLine
 10
-228.22916667
 20
-676.64438314
 30
0.0
 11
-226.35416667
 21
-672.58188314
 31
0.0
  0
LINE
  5
159
100
AcDbEntity
  8
ZUWAKU
  6
CONTINUOUS
 62
       7
100
AcDbLine
 10
-226.35416667
 20
-672.58188314
 30
0.0
 11
-225.10416667
 21
-668.20688314
 31
0.0
  0
LINE
  5
15A
100
AcDbEntity
  8
ZUWAKU
  6
CONTINUOUS
 62
       7
100
AcDbLine
 10
-226.35416667
 20
-672.58188314
 30
0.0
 11
-225.10416667
 21
-668.20688314
 31
0.0
  0
LINE
  5
15B
100
AcDbEntity
  8
ZUWAKU
  6
CONTINUOUS
 62
       7
100
AcDbLine
 10
-225.10416667
 20
-668.20688314
 30
0.0
 11
-246.35416667
 21
-668.20688314
 31
0.0
  0
LINE
  5
15C
100
AcDbEntity
  8
ZUWAKU
  6
CONTINUOUS
 62
       7
100
AcDbLine
 10
-244.16666667
 20
-683.83188314
 30
0.0
 11
-249.16666667
 21
-686.64438314
 31
0.0
  0
LINE
  5
15D
100
AcDbEntity
  8
ZUWAKU
  6
CONTINUOUS
 62
       7
100
AcDbLine
 10
-243.22916667
 20
-690.39438314
 30
0.0
 11
-238.54166667
 21
-688.83188314
 31
0.0
  0
LINE
  5
15E
100
AcDbEntity
  8
ZUWAKU
  6
CONTINUOUS
 62
       7
100
AcDbLine
 10
-243.22916667
 20
-690.39438314
 30
0.0
 11
-238.54166667
 21
-688.83188314
 31
0.0
  0
LINE
  5
15F
100
AcDbEntity
  8
ZUWAKU
  6
CONTINUOUS
 62
       7
100
AcDbLine
 10
-228.22916667
 20
-692.89438314
 30
0.0
 11
-233.54166667
 21
-684.14438314
 31
0.0
  0
LINE
  5
160
100
AcDbEntity
  8
ZUWAKU
  6
CONTINUOUS
 62
       7
100
AcDbLine
 10
-228.22916667
 20
-692.89438314
 30
0.0
 11
-233.54166667
 21
-684.14438314
 31
0.0
  0
LINE
  5
161
100
AcDbEntity
  8
ZUWAKU
  6
CONTINUOUS
 62
       7
100
AcDbLine
 10
-240.10416667
 20
-679.14438314
 30
0.0
 11
-244.16666667
 21
-683.83188314
 31
0.0
  0
LINE
  5
162
100
AcDbEntity
  8
ZUWAKU
  6
CONTINUOUS
 62
       7
100
AcDbLine
 10
-240.10416667
 20
-679.14438314
 30
0.0
 11
-244.16666667
 21
-683.83188314
 31
0.0
  0
LINE
  5
163
100
AcDbEntity
  8
ZUWAKU
  6
CONTINUOUS
 62
       7
100
AcDbLine
 10
-302.22916667
 20
-676.64438314
 30
0.0
 11
-298.16666667
 21
-676.33188314
 31
0.0
  0
LINE
  5
164
100
AcDbEntity
  8
ZUWAKU
  6
CONTINUOUS
 62
       7
100
AcDbLine
 10
-298.16666667
 20
-676.33188314
 30
0.0
 11
-293.79166667
 21
-674.45688314
 31
0.0
  0
LINE
  5
165
100
AcDbEntity
  8
ZUWAKU
  6
CONTINUOUS
 62
       7
100
AcDbLine
 10
-293.79166667
 20
-674.45688314
 30
0.0
 11
-290.66666667
 21
-671.64438314
 31
0.0
  0
LINE
  5
166
100
AcDbEntity
  8
ZUWAKU
  6
CONTINUOUS
 62
       7
100
AcDbLine
 10
-290.66666667
 20
-671.64438314
 30
0.0
 11
-288.16666667
 21
-668.20688314
 31
0.0
  0
LINE
  5
167
100
AcDbEntity
  8
ZUWAKU
  6
CONTINUOUS
 62
       7
100
AcDbLine
 10
-266.72916667
 20
-692.89438314
 30
0.0
 11
-261.10416667
 21
-690.39438314
 31
0.0
  0
LINE
  5
168
100
AcDbEntity
  8
ZUWAKU
  6
CONTINUOUS
 62
       7
100
AcDbLine
 10
-261.10416667
 20
-690.39438314
 30
0.0
 11
-256.10416667
 21
-685.70688314
 31
0.0
  0
LINE
  5
169
100
AcDbEntity
  8
ZUWAKU
  6
CONTINUOUS
 62
       7
100
AcDbLine
 10
-256.10416667
 20
-685.70688314
 30
0.0
 11
-252.35416667
 21
-679.45688314
 31
0.0
  0
LINE
  5
16A
100
AcDbEntity
  8
ZUWAKU
  6
CONTINUOUS
 62
       7
100
AcDbLine
 10
-252.35416667
 20
-679.45688314
 30
0.0
 11
-251.10416667
 21
-672.89438314
 31
0.0
  0
LINE
  5
16B
100
AcDbEntity
  8
ZUWAKU
  6
CONTINUOUS
 62
       7
100
AcDbLine
 10
-255.10416667
 20
-687.89438314
 30
0.0
 11
-249.16666667
 21
-686.64438314
 31
0.0
  0
LINE
  5
16C
100
AcDbEntity
  8
ZUWAKU
  6
CONTINUOUS
 62
       7
100
AcDbLine
 10
-249.16666667
 20
-686.64438314
 30
0.0
 11
-244.16666667
 21
-683.83188314
 31
0.0
  0
LINE
  5
16D
100
AcDbEntity
  8
ZUWAKU
  6
CONTINUOUS
 62
       7
100
AcDbLine
 10
-244.16666667
 20
-683.83188314
 30
0.0
 11
-240.10416667
 21
-679.14438314
 31
0.0
  0
LINE
  5
16E
100
AcDbEntity
  8
ZUWAKU
  6
CONTINUOUS
 62
       7
100
AcDbLine
 10
-289.10416667
 20
-679.14438314
 30
0.0
 11
-285.04166667
 21
-677.89438314
 31
0.0
  0
LINE
  5
16F
100
AcDbEntity
  8
ZUWAKU
  6
CONTINUOUS
 62
       7
100
AcDbLine
 10
-285.04166667
 20
-677.89438314
 30
0.0
 11
-281.60416667
 21
-675.39438314
 31
0.0
  0
LINE
  5
170
100
AcDbEntity
  8
ZUWAKU
  6
CONTINUOUS
 62
       7
100
AcDbLine
 10
-281.60416667
 20
-675.39438314
 30
0.0
 11
-278.47916667
 21
-672.26938314
 31
0.0
  0
LINE
  5
171
100
AcDbEntity
  8
ZUWAKU
  6
CONTINUOUS
 62
       7
100
AcDbLine
 10
-278.47916667
 20
-672.26938314
 30
0.0
 11
-276.60416667
 21
-668.20688314
 31
0.0
  0
LINE
  5
172
100
AcDbEntity
  8
ZUWAKU
  6
CONTINUOUS
 62
       7
100
AcDbLine
 10
-233.54166667
 20
-684.14438314
 30
0.0
 11
-230.72916667
 21
-680.39438314
 31
0.0
  0
LINE
  5
173
100
AcDbEntity
  8
ZUWAKU
  6
CONTINUOUS
 62
       7
100
AcDbLine
 10
-230.72916667
 20
-680.39438314
 30
0.0
 11
-228.22916667
 21
-676.64438314
 31
0.0
  0
LINE
  5
174
100
AcDbEntity
  8
ZUWAKU
  6
CONTINUOUS
 62
       7
100
AcDbLine
 10
-228.22916667
 20
-676.64438314
 30
0.0
 11
-226.35416667
 21
-672.58188314
 31
0.0
  0
LINE
  5
175
100
AcDbEntity
  8
ZUWAKU
  6
CONTINUOUS
 62
       7
100
AcDbLine
 10
-226.35416667
 20
-672.58188314
 30
0.0
 11
-225.10416667
 21
-668.20688314
 31
0.0
  0
LINE
  5
176
100
AcDbEntity
  8
ZUWAKU
  6
CONTINUOUS
 62
       7
100
AcDbLine
 10
-247.60416667
 20
-691.64438314
 30
0.0
 11
-243.22916667
 21
-690.39438314
 31
0.0
  0
LINE
  5
177
100
AcDbEntity
  8
ZUWAKU
  6
CONTINUOUS
 62
       7
100
AcDbLine
 10
-243.22916667
 20
-690.39438314
 30
0.0
 11
-238.54166667
 21
-688.83188314
 31
0.0
  0
LINE
  5
178
100
AcDbEntity
  8
ZUWAKU
  6
CONTINUOUS
 62
       7
100
AcDbLine
 10
-255.79166667
 20
-676.95688314
 30
0.0
 11
-254.22916667
 21
-672.89438314
 31
0.0
  0
LINE
  5
179
100
AcDbEntity
  8
ZUWAKU
  6
CONTINUOUS
 62
       7
100
AcDbLine
 10
-254.22916667
 20
-672.89438314
 30
0.0
 11
-251.10416667
 21
-672.89438314
 31
0.0
  0
LINE
  5
17A
100
AcDbEntity
  8
ZUWAKU
  6
CONTINUOUS
 62
       7
100
AcDbLine
 10
-254.22916667
 20
-672.89438314
 30
0.0
 11
-251.10416667
 21
-672.89438314
 31
0.0
  0
LINE
  5
17B
100
AcDbEntity
  8
ZUWAKU
  6
CONTINUOUS
 62
       7
100
AcDbLine
 10
-251.10416667
 20
-672.89438314
 30
0.0
 11
-252.35416667
 21
-679.45688314
 31
0.0
  0
LINE
  5
17C
100
AcDbEntity
  8
ZUWAKU
  6
CONTINUOUS
 62
       7
100
AcDbLine
 10
-252.35416667
 20
-679.45688314
 30
0.0
 11
-256.10416667
 21
-685.70688314
 31
0.0
  0
LINE
  5
17D
100
AcDbEntity
  8
ZUWAKU
  6
CONTINUOUS
 62
       7
100
AcDbLine
 10
-252.35416667
 20
-679.45688314
 30
0.0
 11
-256.10416667
 21
-685.70688314
 31
0.0
  0
LINE
  5
17E
100
AcDbEntity
  8
ZUWAKU
  6
CONTINUOUS
 62
       7
100
AcDbLine
 10
-256.10416667
 20
-685.70688314
 30
0.0
 11
-261.10416667
 21
-690.39438314
 31
0.0
  0
LINE
  5
17F
100
AcDbEntity
  8
ZUWAKU
  6
CONTINUOUS
 62
       7
100
AcDbLine
 10
-267.35416667
 20
-692.89438314
 30
0.0
 11
-283.29166667
 21
-692.89438314
 31
0.0
  0
LINE
  5
180
100
AcDbEntity
  8
ZUWAKU
  6
CONTINUOUS
 62
       7
100
AcDbLine
 10
-283.29166667
 20
-692.89438314
 30
0.0
 11
-280.47916667
 21
-685.08188314
 31
0.0
  0
LINE
  5
181
100
AcDbEntity
  8
ZUWAKU
  6
CONTINUOUS
 62
       7
100
AcDbLine
 10
-283.29166667
 20
-692.89438314
 30
0.0
 11
-280.47916667
 21
-685.08188314
 31
0.0
  0
LINE
  5
182
100
AcDbEntity
  8
ZUWAKU
  6
CONTINUOUS
 62
       7
100
AcDbLine
 10
-258.29166667
 20
-680.39438314
 30
0.0
 11
-255.79166667
 21
-676.95688314
 31
0.0
  0
LINE
  5
183
100
AcDbEntity
  8
ZUWAKU
  6
CONTINUOUS
 62
       7
100
AcDbLine
 10
-280.47916667
 20
-685.08188314
 30
0.0
 11
-265.47916667
 21
-685.08188314
 31
0.0
  0
LINE
  5
184
100
AcDbEntity
  8
ZUWAKU
  6
CONTINUOUS
 62
       7
100
AcDbLine
 10
-280.47916667
 20
-685.08188314
 30
0.0
 11
-265.47916667
 21
-685.08188314
 31
0.0
  0
LINE
  5
185
100
AcDbEntity
  8
ZUWAKU
  6
CONTINUOUS
 62
       7
100
AcDbLine
 10
-265.47916667
 20
-685.08188314
 30
0.0
 11
-261.72916667
 21
-683.20688314
 31
0.0
  0
LINE
  5
186
100
AcDbEntity
  8
ZUWAKU
  6
CONTINUOUS
 62
       7
100
AcDbLine
 10
-265.47916667
 20
-685.08188314
 30
0.0
 11
-261.72916667
 21
-683.20688314
 31
0.0
  0
LINE
  5
187
100
AcDbEntity
  8
ZUWAKU
  6
CONTINUOUS
 62
       7
100
AcDbLine
 10
-261.72916667
 20
-683.20688314
 30
0.0
 11
-258.29166667
 21
-680.39438314
 31
0.0
  0
LINE
  5
188
100
AcDbEntity
  8
ZUWAKU
  6
CONTINUOUS
 62
       7
100
AcDbLine
 10
-311.22916667
 20
-676.64438314
 30
0.0
 11
-314.97916667
 21
-686.95688314
 31
0.0
  0
LINE
  5
189
100
AcDbEntity
  8
ZUWAKU
  6
CONTINUOUS
 62
       7
100
AcDbLine
 10
-314.97916667
 20
-686.95688314
 30
0.0
 11
-317.16666667
 21
-689.14438314
 31
0.0
  0
LINE
  5
18A
100
AcDbEntity
  8
ZUWAKU
  6
CONTINUOUS
 62
       7
100
AcDbLine
 10
-314.97916667
 20
-686.95688314
 30
0.0
 11
-317.16666667
 21
-689.14438314
 31
0.0
  0
LINE
  5
18B
100
AcDbEntity
  8
ZUWAKU
  6
CONTINUOUS
 62
       7
100
AcDbLine
 10
-317.16666667
 20
-689.14438314
 30
0.0
 11
-319.04166667
 21
-691.01938314
 31
0.0
  0
LINE
  5
18C
100
AcDbEntity
  8
ZUWAKU
  6
CONTINUOUS
 62
       7
100
AcDbLine
 10
-319.04166667
 20
-691.01938314
 30
0.0
 11
-321.54166667
 21
-692.26938314
 31
0.0
  0
LINE
  5
18D
100
AcDbEntity
  8
ZUWAKU
  6
CONTINUOUS
 62
       7
100
AcDbLine
 10
-319.04166667
 20
-691.01938314
 30
0.0
 11
-321.54166667
 21
-692.26938314
 31
0.0
  0
LINE
  5
18E
100
AcDbEntity
  8
ZUWAKU
  6
CONTINUOUS
 62
       7
100
AcDbLine
 10
-321.54166667
 20
-692.26938314
 30
0.0
 11
-324.04166667
 21
-692.89438314
 31
0.0
  0
LINE
  5
18F
100
AcDbEntity
  8
ZUWAKU
  6
CONTINUOUS
 62
       7
100
AcDbLine
 10
-324.04166667
 20
-692.89438314
 30
0.0
 11
-339.97916667
 21
-692.89438314
 31
0.0
  0
LINE
  5
190
100
AcDbEntity
  8
ZUWAKU
  6
CONTINUOUS
 62
       7
100
AcDbLine
 10
-324.04166667
 20
-692.89438314
 30
0.0
 11
-339.97916667
 21
-692.89438314
 31
0.0
  0
LINE
  5
191
100
AcDbEntity
  8
ZUWAKU
  6
CONTINUOUS
 62
       7
100
AcDbLine
 10
-339.97916667
 20
-692.89438314
 30
0.0
 11
-338.10416667
 21
-688.20688314
 31
0.0
  0
LINE
  5
192
100
AcDbEntity
  8
ZUWAKU
  6
CONTINUOUS
 62
       7
100
AcDbLine
 10
-338.10416667
 20
-688.20688314
 30
0.0
 11
-327.79166667
 21
-688.20688314
 31
0.0
  0
LINE
  5
193
100
AcDbEntity
  8
ZUWAKU
  6
CONTINUOUS
 62
       7
100
AcDbLine
 10
-338.10416667
 20
-688.20688314
 30
0.0
 11
-327.79166667
 21
-688.20688314
 31
0.0
  0
LINE
  5
194
100
AcDbEntity
  8
ZUWAKU
  6
CONTINUOUS
 62
       7
100
AcDbLine
 10
-321.85416667
 20
-681.01938314
 30
0.0
 11
-334.97916667
 21
-681.01938314
 31
0.0
  0
LINE
  5
195
100
AcDbEntity
  8
ZUWAKU
  6
CONTINUOUS
 62
       7
100
AcDbLine
 10
-334.97916667
 20
-681.01938314
 30
0.0
 11
-333.72916667
 21
-676.64438314
 31
0.0
  0
LINE
  5
196
100
AcDbEntity
  8
ZUWAKU
  6
CONTINUOUS
 62
       7
100
AcDbLine
 10
-334.97916667
 20
-681.01938314
 30
0.0
 11
-333.72916667
 21
-676.64438314
 31
0.0
  0
LINE
  5
197
100
AcDbEntity
  8
ZUWAKU
  6
CONTINUOUS
 62
       7
100
AcDbLine
 10
-327.79166667
 20
-688.20688314
 30
0.0
 11
-325.60416667
 21
-686.64438314
 31
0.0
  0
LINE
  5
198
100
AcDbEntity
  8
ZUWAKU
  6
CONTINUOUS
 62
       7
100
AcDbLine
 10
-327.79166667
 20
-688.20688314
 30
0.0
 11
-325.60416667
 21
-686.64438314
 31
0.0
  0
LINE
  5
199
100
AcDbEntity
  8
ZUWAKU
  6
CONTINUOUS
 62
       7
100
AcDbLine
 10
-325.60416667
 20
-686.64438314
 30
0.0
 11
-324.04166667
 21
-685.08188314
 31
0.0
  0
LINE
  5
19A
100
AcDbEntity
  8
ZUWAKU
  6
CONTINUOUS
 62
       7
100
AcDbLine
 10
-325.60416667
 20
-686.64438314
 30
0.0
 11
-324.04166667
 21
-685.08188314
 31
0.0
  0
LINE
  5
19B
100
AcDbEntity
  8
ZUWAKU
  6
CONTINUOUS
 62
       7
100
AcDbLine
 10
-324.04166667
 20
-685.08188314
 30
0.0
 11
-322.47916667
 21
-683.20688314
 31
0.0
  0
LINE
  5
19C
100
AcDbEntity
  8
ZUWAKU
  6
CONTINUOUS
 62
       7
100
AcDbLine
 10
-324.04166667
 20
-685.08188314
 30
0.0
 11
-322.47916667
 21
-683.20688314
 31
0.0
  0
LINE
  5
19D
100
AcDbEntity
  8
ZUWAKU
  6
CONTINUOUS
 62
       7
100
AcDbLine
 10
-322.47916667
 20
-683.20688314
 30
0.0
 11
-321.85416667
 21
-681.01938314
 31
0.0
  0
LINE
  5
19E
100
AcDbEntity
  8
ZUWAKU
  6
CONTINUOUS
 62
       7
100
AcDbLine
 10
-322.47916667
 20
-683.20688314
 30
0.0
 11
-321.85416667
 21
-681.01938314
 31
0.0
  0
LINE
  5
19F
100
AcDbEntity
  8
ZUWAKU
  6
CONTINUOUS
 62
       7
100
AcDbLine
 10
-342.16666667
 20
-668.20688314
 30
0.0
 11
-335.29414798
 21
-668.20688314
 31
0.0
  0
LINE
  5
1A0
100
AcDbEntity
  8
ZUWAKU
  6
CONTINUOUS
 62
       7
100
AcDbLine
 10
-340.97916667
 20
-686.64438314
 30
0.0
 11
-343.47916667
 21
-689.14438314
 31
0.0
  0
LINE
  5
1A1
100
AcDbEntity
  8
ZUWAKU
  6
CONTINUOUS
 62
       7
100
AcDbLine
 10
-343.47916667
 20
-689.14438314
 30
0.0
 11
-345.97916667
 21
-691.33188314
 31
0.0
  0
LINE
  5
1A2
100
AcDbEntity
  8
ZUWAKU
  6
CONTINUOUS
 62
       7
100
AcDbLine
 10
-343.47916667
 20
-689.14438314
 30
0.0
 11
-345.97916667
 21
-691.33188314
 31
0.0
  0
LINE
  5
1A3
100
AcDbEntity
  8
ZUWAKU
  6
CONTINUOUS
 62
       7
100
AcDbLine
 10
-345.97916667
 20
-691.33188314
 30
0.0
 11
-349.10416667
 21
-692.58188314
 31
0.0
  0
LINE
  5
1A4
100
AcDbEntity
  8
ZUWAKU
  6
CONTINUOUS
 62
       7
100
AcDbLine
 10
-349.10416667
 20
-692.58188314
 30
0.0
 11
-352.22916667
 21
-692.89438314
 31
0.0
  0
LINE
  5
1A5
100
AcDbEntity
  8
ZUWAKU
  6
CONTINUOUS
 62
       7
100
AcDbLine
 10
-352.22916667
 20
-692.89438314
 30
0.0
 11
-360.04166667
 21
-692.89438314
 31
0.0
  0
LINE
  5
1A6
100
AcDbEntity
  8
ZUWAKU
  6
CONTINUOUS
 62
       7
100
AcDbLine
 10
-360.04166667
 20
-692.89438314
 30
0.0
 11
-358.47916667
 21
-688.20688314
 31
0.0
  0
LINE
  5
1A7
100
AcDbEntity
  8
ZUWAKU
  6
CONTINUOUS
 62
       7
100
AcDbLine
 10
-360.04166667
 20
-692.89438314
 30
0.0
 11
-358.47916667
 21
-688.20688314
 31
0.0
  0
LINE
  5
1A8
100
AcDbEntity
  8
ZUWAKU
  6
CONTINUOUS
 62
       7
100
AcDbLine
 10
-349.10416667
 20
-684.14438314
 30
0.0
 11
-343.16666667
 21
-668.20688314
 31
0.0
  0
LINE
  5
1A9
100
AcDbEntity
  8
ZUWAKU
  6
CONTINUOUS
 62
       7
100
AcDbLine
 10
-358.47916667
 20
-688.20688314
 30
0.0
 11
-355.66666667
 21
-688.20688314
 31
0.0
  0
LINE
  5
1AA
100
AcDbEntity
  8
ZUWAKU
  6
CONTINUOUS
 62
       7
100
AcDbLine
 10
-358.47916667
 20
-688.20688314
 30
0.0
 11
-355.66666667
 21
-688.20688314
 31
0.0
  0
LINE
  5
1AB
100
AcDbEntity
  8
ZUWAKU
  6
CONTINUOUS
 62
       7
100
AcDbLine
 10
-350.66666667
 20
-686.64438314
 30
0.0
 11
-349.10416667
 21
-684.14438314
 31
0.0
  0
LINE
  5
1AC
100
AcDbEntity
  8
ZUWAKU
  6
CONTINUOUS
 62
       7
100
AcDbLine
 10
-353.16666667
 20
-687.89438314
 30
0.0
 11
-350.66666667
 21
-686.64438314
 31
0.0
  0
LINE
  5
1AD
100
AcDbEntity
  8
ZUWAKU
  6
CONTINUOUS
 62
       7
100
AcDbLine
 10
-355.66666667
 20
-688.20688314
 30
0.0
 11
-353.16666667
 21
-687.89438314
 31
0.0
  0
LINE
  5
1AE
100
AcDbEntity
  8
ZUWAKU
  6
CONTINUOUS
 62
       7
100
AcDbLine
 10
-355.66666667
 20
-688.20688314
 30
0.0
 11
-353.16666667
 21
-687.89438314
 31
0.0
  0
LINE
  5
1AF
100
AcDbEntity
  8
ZUWAKU
  6
CONTINUOUS
 62
       7
100
AcDbLine
 10
-274.22916667
 20
-668.20688314
 30
0.0
 11
-264.22916667
 21
-668.20688314
 31
0.0
  0
LINE
  5
1B0
100
AcDbEntity
  8
ZUWAKU
  6
CONTINUOUS
 62
       7
100
AcDbLine
 10
-264.22916667
 20
-668.20688314
 30
0.0
 11
-266.10416667
 21
-673.83188314
 31
0.0
  0
LINE
  5
1B1
100
AcDbEntity
  8
ZUWAKU
  6
CONTINUOUS
 62
       7
100
AcDbLine
 10
-264.22916667
 20
-668.20688314
 30
0.0
 11
-266.10416667
 21
-673.83188314
 31
0.0
  0
LINE
  5
1B2
100
AcDbEntity
  8
ZUWAKU
  6
CONTINUOUS
 62
       7
100
AcDbLine
 10
-266.60416667
 20
-673.83188314
 30
0.0
 11
-276.41666667
 21
-673.83188314
 31
0.0
  0
LINE
  5
1B3
100
AcDbEntity
  8
ZUWAKU
  6
CONTINUOUS
 62
       7
100
AcDbLine
 10
-237.19203846
 20
-673.79031077
 30
0.0
 11
-240.10416667
 21
-679.14438314
 31
0.0
  0
LINE
  5
1B4
100
AcDbEntity
  8
ZUWAKU
  6
CONTINUOUS
 62
       7
100
AcDbLine
 10
-228.54166667
 20
-668.20688314
 30
0.0
 11
-244.16666667
 21
-683.83188314
 31
0.0
  0
LINE
  5
1B5
100
AcDbEntity
  8
ZUWAKU
  6
CONTINUOUS
 62
       7
100
AcDbLine
 10
-244.16666667
 20
-683.83188314
 30
0.0
 11
-252.85416667
 21
-692.51938314
 31
0.0
  0
LINE
  5
1B6
100
AcDbEntity
  8
ZUWAKU
  6
CONTINUOUS
 62
       7
100
AcDbLine
 10
-229.95588023
 20
-668.20688314
 30
0.0
 11
-239.16299401
 21
-677.41399692
 31
0.0
  0
LINE
  5
1B7
100
AcDbEntity
  8
ZUWAKU
  6
CONTINUOUS
 62
       7
100
AcDbLine
 10
-247.39915481
 20
-685.65015772
 30
0.0
 11
-254.55122294
 21
-692.80222585
 31
0.0
  0
LINE
  5
1B8
100
AcDbEntity
  8
ZUWAKU
  6
CONTINUOUS
 62
       7
100
AcDbLine
 10
-231.37009379
 20
-668.20688314
 30
0.0
 11
-237.47648076
 21
-674.3132701
 31
0.0
  0
LINE
  5
1B9
100
AcDbEntity
  8
ZUWAKU
  6
CONTINUOUS
 62
       7
100
AcDbLine
 10
-249.97850769
 20
-686.81529704
 30
0.0
 11
-256.24827922
 21
-693.08506856
 31
0.0
  0
LINE
  5
1BA
100
AcDbEntity
  8
ZUWAKU
  6
CONTINUOUS
 62
       7
100
AcDbLine
 10
-232.78430735
 20
-668.20688314
 30
0.0
 11
-238.40930735
 21
-673.83188314
 31
0.0
  0
LINE
  5
1BB
100
AcDbEntity
  8
ZUWAKU
  6
CONTINUOUS
 62
       7
100
AcDbLine
 10
-251.76984487
 20
-687.19242065
 30
0.0
 11
-256.53999902
 21
-691.9625748
 31
0.0
  0
LINE
  5
1BC
100
AcDbEntity
  8
ZUWAKU
  6
CONTINUOUS
 62
       7
100
AcDbLine
 10
-234.19852092
 20
-668.20688314
 30
0.0
 11
-239.82352092
 21
-673.83188314
 31
0.0
  0
LINE
  5
1BD
100
AcDbEntity
  8
ZUWAKU
  6
CONTINUOUS
 62
       7
100
AcDbLine
 10
-253.56118205
 20
-687.56954427
 30
0.0
 11
-255.7686098
 21
-689.77697202
 31
0.0
  0
LINE
  5
1BE
100
AcDbEntity
  8
ZUWAKU
  6
CONTINUOUS
 62
       7
100
AcDbLine
 10
-235.61273448
 20
-668.20688314
 30
0.0
 11
-241.23773448
 21
-673.83188314
 31
0.0
  0
LINE
  5
1BF
100
AcDbEntity
  8
ZUWAKU
  6
CONTINUOUS
 62
       7
100
AcDbLine
 10
-237.02694804
 20
-668.20688314
 30
0.0
 11
-242.65194804
 21
-673.83188314
 31
0.0
  0
LINE
  5
1C0
100
AcDbEntity
  8
ZUWAKU
  6
CONTINUOUS
 62
       7
100
AcDbLine
 10
-238.4411616
 20
-668.20688314
 30
0.0
 11
-244.0661616
 21
-673.83188314
 31
0.0
  0
LINE
  5
1C1
100
AcDbEntity
  8
ZUWAKU
  6
CONTINUOUS
 62
       7
100
AcDbLine
 10
-239.85537517
 20
-668.20688314
 30
0.0
 11
-245.48037517
 21
-673.83188314
 31
0.0
  0
LINE
  5
1C2
100
AcDbEntity
  8
ZUWAKU
  6
CONTINUOUS
 62
       7
100
AcDbLine
 10
-241.26958873
 20
-668.20688314
 30
0.0
 11
-246.89458873
 21
-673.83188314
 31
0.0
  0
LINE
  5
1C3
100
AcDbEntity
  8
ZUWAKU
  6
CONTINUOUS
 62
       7
100
AcDbLine
 10
-242.68380229
 20
-668.20688314
 30
0.0
 11
-248.18934885
 21
-673.7124297
 31
0.0
  0
LINE
  5
1C4
100
AcDbEntity
  8
ZUWAKU
  6
CONTINUOUS
 62
       7
100
AcDbLine
 10
-244.09801585
 20
-668.20688314
 30
0.0
 11
-247.48224207
 21
-671.59110936
 31
0.0
  0
LINE
  5
1C5
100
AcDbEntity
  8
ZUWAKU
  6
CONTINUOUS
 62
       7
100
AcDbLine
 10
-245.51222942
 20
-668.20688314
 30
0.0
 11
-246.77513529
 21
-669.46978901
 31
0.0
  0
LINE
  5
1C6
100
AcDbEntity
  8
ZUWAKU
  6
CONTINUOUS
 62
       7
100
AcDbLine
 10
-227.1274531
 20
-668.20688314
 30
0.0
 11
-251.15711039
 21
-692.23654042
 31
0.0
  0
LINE
  5
1C7
100
AcDbEntity
  8
ZUWAKU
  6
CONTINUOUS
 62
       7
100
AcDbLine
 10
-225.71323954
 20
-668.20688314
 30
0.0
 11
-249.46005412
 21
-691.95369771
 31
0.0
  0
LINE
  5
1C8
100
AcDbEntity
  8
ZUWAKU
  6
CONTINUOUS
 62
       7
100
AcDbLine
 10
-225.42622294
 20
-669.3340801
 30
0.0
 11
-247.76299784
 21
-691.670855
 31
0.0
  0
LINE
  5
1C9
100
AcDbEntity
  8
ZUWAKU
  6
CONTINUOUS
 62
       7
100
AcDbLine
 10
-225.99190837
 20
-671.31397908
 30
0.0
 11
-245.80957072
 21
-691.13164144
 31
0.0
  0
LINE
  5
1CA
100
AcDbEntity
  8
ZUWAKU
  6
CONTINUOUS
 62
       7
100
AcDbLine
 10
-226.79008193
 20
-673.52636621
 30
0.0
 11
-243.82967173
 21
-690.56595601
 31
0.0
  0
LINE
  5
1CB
100
AcDbEntity
  8
ZUWAKU
  6
CONTINUOUS
 62
       7
100
AcDbLine
 10
-228.00226499
 20
-676.15276283
 30
0.0
 11
-241.75124461
 21
-689.90174245
 31
0.0
  0
LINE
  5
1CC
100
AcDbEntity
  8
ZUWAKU
  6
CONTINUOUS
 62
       7
100
AcDbLine
 10
-230.52815654
 20
-680.09286795
 30
0.0
 11
-239.62992426
 21
-689.19463567
 31
0.0
  0
LINE
  5
1CD
100
AcDbEntity
  8
ZUWAKU
  6
CONTINUOUS
 62
       7
100
AcDbLine
 10
-233.39954346
 20
-684.37846842
 30
0.0
 11
-238.27930152
 21
-689.25822649
 31
0.0
  0
LINE
  5
1CE
100
AcDbEntity
  8
ZUWAKU
  6
CONTINUOUS
 62
       7
100
AcDbLine
 10
-232.865285
 20
-685.25842353
 30
0.0
 11
-237.7405535
 21
-690.13369203
 31
0.0
  0
LINE
  5
1CF
100
AcDbEntity
  8
ZUWAKU
  6
CONTINUOUS
 62
       7
100
AcDbLine
 10
-232.33102654
 20
-686.13837863
 30
0.0
 11
-237.20180548
 21
-691.00915757
 31
0.0
  0
LINE
  5
1D0
100
AcDbEntity
  8
ZUWAKU
  6
CONTINUOUS
 62
       7
100
AcDbLine
 10
-231.79676809
 20
-687.01833374
 30
0.0
 11
-236.66305745
 21
-691.88462311
 31
0.0
  0
LINE
  5
1D1
100
AcDbEntity
  8
ZUWAKU
  6
CONTINUOUS
 62
       7
100
AcDbLine
 10
-231.26250963
 20
-687.89828885
 30
0.0
 11
-236.12430943
 21
-692.76008865
 31
0.0
  0
LINE
  5
1D2
100
AcDbEntity
  8
ZUWAKU
  6
CONTINUOUS
 62
       7
100
AcDbLine
 10
-230.72825117
 20
-688.77824395
 30
0.0
 11
-234.84439036
 21
-692.89438314
 31
0.0
  0
LINE
  5
1D3
100
AcDbEntity
  8
ZUWAKU
  6
CONTINUOUS
 62
       7
100
AcDbLine
 10
-230.19399271
 20
-689.65819906
 30
0.0
 11
-233.43017679
 21
-692.89438314
 31
0.0
  0
LINE
  5
1D4
100
AcDbEntity
  8
ZUWAKU
  6
CONTINUOUS
 62
       7
100
AcDbLine
 10
-229.65973426
 20
-690.53815416
 30
0.0
 11
-232.01596323
 21
-692.89438314
 31
0.0
  0
LINE
  5
1D5
100
AcDbEntity
  8
ZUWAKU
  6
CONTINUOUS
 62
       7
100
AcDbLine
 10
-229.1254758
 20
-691.41810927
 30
0.0
 11
-230.60174967
 21
-692.89438314
 31
0.0
  0
LINE
  5
1D6
100
AcDbEntity
  8
ZUWAKU
  6
CONTINUOUS
 62
       7
100
AcDbLine
 10
-228.59121734
 20
-692.29806437
 30
0.0
 11
-229.18753611
 21
-692.89438314
 31
0.0
  0
LINE
  5
1D7
100
AcDbEntity
  8
ZUWAKU
  6
CONTINUOUS
 62
       7
100
AcDbLine
 10
-267.51041667
 20
-668.20688314
 30
0.0
 11
-273.13541667
 21
-673.83188314
 31
0.0
  0
LINE
  5
1D8
100
AcDbEntity
  8
ZUWAKU
  6
CONTINUOUS
 62
       7
100
AcDbLine
 10
-268.92463023
 20
-668.20688314
 30
0.0
 11
-274.54963023
 21
-673.83188314
 31
0.0
  0
LINE
  5
1D9
100
AcDbEntity
  8
ZUWAKU
  6
CONTINUOUS
 62
       7
100
AcDbLine
 10
-270.33884379
 20
-668.20688314
 30
0.0
 11
-275.96384379
 21
-673.83188314
 31
0.0
  0
LINE
  5
1DA
100
AcDbEntity
  8
ZUWAKU
  6
CONTINUOUS
 62
       7
100
AcDbLine
 10
-271.75305735
 20
-668.20688314
 30
0.0
 11
-275.80487259
 21
-672.25869837
 31
0.0
  0
LINE
  5
1DB
100
AcDbEntity
  8
ZUWAKU
  6
CONTINUOUS
 62
       7
100
AcDbLine
 10
-273.16727092
 20
-668.20688314
 30
0.0
 11
-274.90491851
 21
-669.94453073
 31
0.0
  0
LINE
  5
1DC
100
AcDbEntity
  8
ZUWAKU
  6
CONTINUOUS
 62
       7
100
AcDbLine
 10
-266.0962031
 20
-668.20688314
 30
0.0
 11
-271.7212031
 21
-673.83188314
 31
0.0
  0
LINE
  5
1DD
100
AcDbEntity
  8
ZUWAKU
  6
CONTINUOUS
 62
       7
100
AcDbLine
 10
-264.68198954
 20
-668.20688314
 30
0.0
 11
-270.30698954
 21
-673.83188314
 31
0.0
  0
LINE
  5
1DE
100
AcDbEntity
  8
ZUWAKU
  6
CONTINUOUS
 62
       7
100
AcDbLine
 10
-264.70986201
 20
-669.64896917
 30
0.0
 11
-268.89277598
 21
-673.83188314
 31
0.0
  0
LINE
  5
1DF
100
AcDbEntity
  8
ZUWAKU
  6
CONTINUOUS
 62
       7
100
AcDbLine
 10
-265.41696879
 20
-671.77028951
 30
0.0
 11
-267.47856242
 21
-673.83188314
 31
0.0
  0
LINE
  5
1E0
100
AcDbEntity
  8
ZUWAKU
  6
CONTINUOUS
 62
       7
100
AcDbLine
 10
-266.06434885
 20
-673.83188314
 30
0.0
 11
-266.12407557
 21
-673.89160985
 31
0.0
  0
LINE
  5
1E1
100
AcDbEntity
  8
ZUWAKU
  6
CONTINUOUS
 62
       7
100
AcDbLine
 10
-269.38541667
 20
-685.08188314
 30
0.0
 11
-277.19791667
 21
-692.89438314
 31
0.0
  0
LINE
  5
1E2
100
AcDbEntity
  8
ZUWAKU
  6
CONTINUOUS
 62
       7
100
AcDbLine
 10
-270.79963023
 20
-685.08188314
 30
0.0
 11
-278.61213023
 21
-692.89438314
 31
0.0
  0
LINE
  5
1E3
100
AcDbEntity
  8
ZUWAKU
  6
CONTINUOUS
 62
       7
100
AcDbLine
 10
-272.21384379
 20
-685.08188314
 30
0.0
 11
-280.02634379
 21
-692.89438314
 31
0.0
  0
LINE
  5
1E4
100
AcDbEntity
  8
ZUWAKU
  6
CONTINUOUS
 62
       7
100
AcDbLine
 10
-273.62805735
 20
-685.08188314
 30
0.0
 11
-281.44055735
 21
-692.89438314
 31
0.0
  0
LINE
  5
1E5
100
AcDbEntity
  8
ZUWAKU
  6
CONTINUOUS
 62
       7
100
AcDbLine
 10
-275.04227092
 20
-685.08188314
 30
0.0
 11
-282.85477092
 21
-692.89438314
 31
0.0
  0
LINE
  5
1E6
100
AcDbEntity
  8
ZUWAKU
  6
CONTINUOUS
 62
       7
100
AcDbLine
 10
-276.45648448
 20
-685.08188314
 30
0.0
 11
-282.7419254
 21
-691.36732405
 31
0.0
  0
LINE
  5
1E7
100
AcDbEntity
  8
ZUWAKU
  6
CONTINUOUS
 62
       7
100
AcDbLine
 10
-277.87069804
 20
-685.08188314
 30
0.0
 11
-281.94643027
 21
-689.15761536
 31
0.0
  0
LINE
  5
1E8
100
AcDbEntity
  8
ZUWAKU
  6
CONTINUOUS
 62
       7
100
AcDbLine
 10
-279.2849116
 20
-685.08188314
 30
0.0
 11
-281.15093514
 21
-686.94790667
 31
0.0
  0
LINE
  5
1E9
100
AcDbEntity
  8
ZUWAKU
  6
CONTINUOUS
 62
       7
100
AcDbLine
 10
-267.9712031
 20
-685.08188314
 30
0.0
 11
-275.7837031
 21
-692.89438314
 31
0.0
  0
LINE
  5
1EA
100
AcDbEntity
  8
ZUWAKU
  6
CONTINUOUS
 62
       7
100
AcDbLine
 10
-266.55698954
 20
-685.08188314
 30
0.0
 11
-274.36948954
 21
-692.89438314
 31
0.0
  0
LINE
  5
1EB
100
AcDbEntity
  8
ZUWAKU
  6
CONTINUOUS
 62
       7
100
AcDbLine
 10
-252.95527598
 20
-672.89438314
 30
0.0
 11
-255.02534835
 21
-674.9644555
 31
0.0
  0
LINE
  5
1EC
100
AcDbEntity
  8
ZUWAKU
  6
CONTINUOUS
 62
       7
100
AcDbLine
 10
-264.80638529
 20
-684.74549245
 30
0.0
 11
-272.95527598
 21
-692.89438314
 31
0.0
  0
LINE
  5
1ED
100
AcDbEntity
  8
ZUWAKU
  6
CONTINUOUS
 62
       7
100
AcDbLine
 10
-251.54106242
 20
-672.89438314
 30
0.0
 11
-256.293278
 21
-677.64659872
 31
0.0
  0
LINE
  5
1EE
100
AcDbEntity
  8
ZUWAKU
  6
CONTINUOUS
 62
       7
100
AcDbLine
 10
-261.97795817
 20
-683.33127889
 30
0.0
 11
-271.54106242
 21
-692.89438314
 31
0.0
  0
LINE
  5
1EF
100
AcDbEntity
  8
ZUWAKU
  6
CONTINUOUS
 62
       7
100
AcDbLine
 10
-251.3341238
 20
-674.10165808
 30
0.0
 11
-270.12684885
 21
-692.89438314
 31
0.0
  0
LINE
  5
1F0
100
AcDbEntity
  8
ZUWAKU
  6
CONTINUOUS
 62
       7
100
AcDbLine
 10
-251.66687993
 20
-675.84862777
 30
0.0
 11
-268.71263529
 21
-692.89438314
 31
0.0
  0
LINE
  5
1F1
100
AcDbEntity
  8
ZUWAKU
  6
CONTINUOUS
 62
       7
100
AcDbLine
 10
-251.99963606
 20
-677.59559747
 30
0.0
 11
-267.29842173
 21
-692.89438314
 31
0.0
  0
LINE
  5
1F2
100
AcDbEntity
  8
ZUWAKU
  6
CONTINUOUS
 62
       7
100
AcDbLine
 10
-252.3323922
 20
-679.34256716
 30
0.0
 11
-265.20824137
 21
-692.21841634
 31
0.0
  0
LINE
  5
1F3
100
AcDbEntity
  8
ZUWAKU
  6
CONTINUOUS
 62
       7
100
AcDbLine
 10
-254.33667476
 20
-682.76106329
 30
0.0
 11
-262.66265696
 21
-691.08704549
 31
0.0
  0
LINE
  5
1F4
100
AcDbEntity
  8
ZUWAKU
  6
CONTINUOUS
 62
       7
100
AcDbLine
 10
-280.82291667
 20
-668.20688314
 30
0.0
 11
-303.28385417
 21
-690.66782064
 31
0.0
  0
LINE
  5
1F5
100
AcDbEntity
  8
ZUWAKU
  6
CONTINUOUS
 62
       7
100
AcDbLine
 10
-282.23713023
 20
-668.20688314
 30
0.0
 11
-302.45889626
 21
-688.42864916
 31
0.0
  0
LINE
  5
1F6
100
AcDbEntity
  8
ZUWAKU
  6
CONTINUOUS
 62
       7
100
AcDbLine
 10
-283.65134379
 20
-668.20688314
 30
0.0
 11
-301.63393834
 21
-686.18947769
 31
0.0
  0
LINE
  5
1F7
100
AcDbEntity
  8
ZUWAKU
  6
CONTINUOUS
 62
       7
100
AcDbLine
 10
-285.06555735
 20
-668.20688314
 30
0.0
 11
-300.80898043
 21
-683.95030621
 31
0.0
  0
LINE
  5
1F8
100
AcDbEntity
  8
ZUWAKU
  6
CONTINUOUS
 62
       7
100
AcDbLine
 10
-286.47977092
 20
-668.20688314
 30
0.0
 11
-299.98402252
 21
-681.71113474
 31
0.0
  0
LINE
  5
1F9
100
AcDbEntity
  8
ZUWAKU
  6
CONTINUOUS
 62
       7
100
AcDbLine
 10
-287.89398448
 20
-668.20688314
 30
0.0
 11
-288.89381917
 21
-669.20671783
 31
0.0
  0
LINE
  5
1FA
100
AcDbEntity
  8
ZUWAKU
  6
CONTINUOUS
 62
       7
100
AcDbLine
 10
-294.40822284
 20
-674.72112149
 30
0.0
 11
-300.70648448
 21
-681.01938314
 31
0.0
  0
LINE
  5
1FB
100
AcDbEntity
  8
ZUWAKU
  6
CONTINUOUS
 62
       7
100
AcDbLine
 10
-296.88309657
 20
-675.78178167
 30
0.0
 11
-302.12069804
 21
-681.01938314
 31
0.0
  0
LINE
  5
1FC
100
AcDbEntity
  8
ZUWAKU
  6
CONTINUOUS
 62
       7
100
AcDbLine
 10
-298.90414035
 20
-676.38861188
 30
0.0
 11
-303.5349116
 21
-681.01938314
 31
0.0
  0
LINE
  5
1FD
100
AcDbEntity
  8
ZUWAKU
  6
CONTINUOUS
 62
       7
100
AcDbLine
 10
-300.43620504
 20
-676.50646301
 30
0.0
 11
-304.94912517
 21
-681.01938314
 31
0.0
  0
LINE
  5
1FE
100
AcDbEntity
  8
ZUWAKU
  6
CONTINUOUS
 62
       7
100
AcDbLine
 10
-301.96826973
 20
-676.62431414
 30
0.0
 11
-306.36333873
 21
-681.01938314
 31
0.0
  0
LINE
  5
1FF
100
AcDbEntity
  8
ZUWAKU
  6
CONTINUOUS
 62
       7
100
AcDbLine
 10
-303.40255229
 20
-676.64438314
 30
0.0
 11
-307.77755229
 21
-681.01938314
 31
0.0
  0
LINE
  5
200
100
AcDbEntity
  8
ZUWAKU
  6
CONTINUOUS
 62
       7
100
AcDbLine
 10
-304.81676585
 20
-676.64438314
 30
0.0
 11
-309.19176585
 21
-681.01938314
 31
0.0
  0
LINE
  5
201
100
AcDbEntity
  8
ZUWAKU
  6
CONTINUOUS
 62
       7
100
AcDbLine
 10
-306.23097942
 20
-676.64438314
 30
0.0
 11
-309.24204847
 21
-679.65545219
 31
0.0
  0
LINE
  5
202
100
AcDbEntity
  8
ZUWAKU
  6
CONTINUOUS
 62
       7
100
AcDbLine
 10
-307.64519298
 20
-676.64438314
 30
0.0
 11
-308.45637427
 21
-677.45556443
 31
0.0
  0
LINE
  5
203
100
AcDbEntity
  8
ZUWAKU
  6
CONTINUOUS
 62
       7
100
AcDbLine
 10
-279.4087031
 20
-668.20688314
 30
0.0
 11
-304.10881208
 21
-692.90699211
 31
0.0
  0
LINE
  5
204
100
AcDbEntity
  8
ZUWAKU
  6
CONTINUOUS
 62
       7
100
AcDbLine
 10
-277.99448954
 20
-668.20688314
 30
0.0
 11
-288.85546638
 21
-679.06785997
 31
0.0
  0
LINE
  5
205
100
AcDbEntity
  8
ZUWAKU
  6
CONTINUOUS
 62
       7
100
AcDbLine
 10
-289.1932238
 20
-679.40561739
 30
0.0
 11
-302.68198954
 21
-692.89438314
 31
0.0
  0
LINE
  5
206
100
AcDbEntity
  8
ZUWAKU
  6
CONTINUOUS
 62
       7
100
AcDbLine
 10
-276.58027598
 20
-668.20688314
 30
0.0
 11
-286.81271345
 21
-678.43932061
 31
0.0
  0
LINE
  5
207
100
AcDbEntity
  8
ZUWAKU
  6
CONTINUOUS
 62
       7
100
AcDbLine
 10
-289.92471357
 20
-681.55132073
 30
0.0
 11
-301.26777598
 21
-692.89438314
 31
0.0
  0
LINE
  5
208
100
AcDbEntity
  8
ZUWAKU
  6
CONTINUOUS
 62
       7
100
AcDbLine
 10
-277.83682745
 20
-670.87764817
 30
0.0
 11
-284.35195109
 21
-677.3927718
 31
0.0
  0
LINE
  5
209
100
AcDbEntity
  8
ZUWAKU
  6
CONTINUOUS
 62
       7
100
AcDbLine
 10
-290.65620335
 20
-683.69702407
 30
0.0
 11
-299.85356242
 21
-692.89438314
 31
0.0
  0
LINE
  5
20A
100
AcDbEntity
  8
ZUWAKU
  6
CONTINUOUS
 62
       7
100
AcDbLine
 10
-291.38769312
 20
-685.8427274
 30
0.0
 11
-298.43934885
 21
-692.89438314
 31
0.0
  0
LINE
  5
20B
100
AcDbEntity
  8
ZUWAKU
  6
CONTINUOUS
 62
       7
100
AcDbLine
 10
-292.11918289
 20
-687.98843074
 30
0.0
 11
-297.02513529
 21
-692.89438314
 31
0.0
  0
LINE
  5
20C
100
AcDbEntity
  8
ZUWAKU
  6
CONTINUOUS
 62
       7
100
AcDbLine
 10
-292.85067267
 20
-690.13413407
 30
0.0
 11
-295.61092173
 21
-692.89438314
 31
0.0
  0
LINE
  5
20D
100
AcDbEntity
  8
ZUWAKU
  6
CONTINUOUS
 62
       7
100
AcDbLine
 10
-293.58216244
 20
-692.27983741
 30
0.0
 11
-294.19670817
 21
-692.89438314
 31
0.0
  0
LINE
  5
20E
100
AcDbEntity
  8
ZUWAKU
  6
CONTINUOUS
 62
       7
100
AcDbLine
 10
-317.94791667
 20
-668.20688314
 30
0.0
 11
-323.57291667
 21
-673.83188314
 31
0.0
  0
LINE
  5
20F
100
AcDbEntity
  8
ZUWAKU
  6
CONTINUOUS
 62
       7
100
AcDbLine
 10
-319.36213023
 20
-668.20688314
 30
0.0
 11
-324.98713023
 21
-673.83188314
 31
0.0
  0
LINE
  5
210
100
AcDbEntity
  8
ZUWAKU
  6
CONTINUOUS
 62
       7
100
AcDbLine
 10
-320.77634379
 20
-668.20688314
 30
0.0
 11
-326.40134379
 21
-673.83188314
 31
0.0
  0
LINE
  5
211
100
AcDbEntity
  8
ZUWAKU
  6
CONTINUOUS
 62
       7
100
AcDbLine
 10
-322.19055735
 20
-668.20688314
 30
0.0
 11
-327.81555735
 21
-673.83188314
 31
0.0
  0
LINE
  5
212
100
AcDbEntity
  8
ZUWAKU
  6
CONTINUOUS
 62
       7
100
AcDbLine
 10
-323.60477092
 20
-668.20688314
 30
0.0
 11
-329.22977092
 21
-673.83188314
 31
0.0
  0
LINE
  5
213
100
AcDbEntity
  8
ZUWAKU
  6
CONTINUOUS
 62
       7
100
AcDbLine
 10
-325.01898448
 20
-668.20688314
 30
0.0
 11
-330.64398448
 21
-673.83188314
 31
0.0
  0
LINE
  5
214
100
AcDbEntity
  8
ZUWAKU
  6
CONTINUOUS
 62
       7
100
AcDbLine
 10
-326.43319804
 20
-668.20688314
 30
0.0
 11
-332.05819804
 21
-673.83188314
 31
0.0
  0
LINE
  5
215
100
AcDbEntity
  8
ZUWAKU
  6
CONTINUOUS
 62
       7
100
AcDbLine
 10
-327.8474116
 20
-668.20688314
 30
0.0
 11
-332.9200442
 21
-673.27951573
 31
0.0
  0
LINE
  5
216
100
AcDbEntity
  8
ZUWAKU
  6
CONTINUOUS
 62
       7
100
AcDbLine
 10
-329.26162517
 20
-668.20688314
 30
0.0
 11
-332.21293742
 21
-671.15819539
 31
0.0
  0
LINE
  5
217
100
AcDbEntity
  8
ZUWAKU
  6
CONTINUOUS
 62
       7
100
AcDbLine
 10
-330.67583873
 20
-668.20688314
 30
0.0
 11
-331.50583064
 21
-669.03687504
 31
0.0
  0
LINE
  5
218
100
AcDbEntity
  8
ZUWAKU
  6
CONTINUOUS
 62
       7
100
AcDbLine
 10
-316.5337031
 20
-668.20688314
 30
0.0
 11
-322.1587031
 21
-673.83188314
 31
0.0
  0
LINE
  5
219
100
AcDbEntity
  8
ZUWAKU
  6
CONTINUOUS
 62
       7
100
AcDbLine
 10
-315.11948954
 20
-668.20688314
 30
0.0
 11
-320.74448954
 21
-673.83188314
 31
0.0
  0
LINE
  5
21A
100
AcDbEntity
  8
ZUWAKU
  6
CONTINUOUS
 62
       7
100
AcDbLine
 10
-313.70527598
 20
-668.20688314
 30
0.0
 11
-319.33027598
 21
-673.83188314
 31
0.0
  0
LINE
  5
21B
100
AcDbEntity
  8
ZUWAKU
  6
CONTINUOUS
 62
       7
100
AcDbLine
 10
-312.29106242
 20
-668.20688314
 30
0.0
 11
-317.91606242
 21
-673.83188314
 31
0.0
  0
LINE
  5
21C
100
AcDbEntity
  8
ZUWAKU
  6
CONTINUOUS
 62
       7
100
AcDbLine
 10
-310.87684885
 20
-668.20688314
 30
0.0
 11
-316.50184885
 21
-673.83188314
 31
0.0
  0
LINE
  5
21D
100
AcDbEntity
  8
ZUWAKU
  6
CONTINUOUS
 62
       7
100
AcDbLine
 10
-309.46263529
 20
-668.20688314
 30
0.0
 11
-315.08763529
 21
-673.83188314
 31
0.0
  0
LINE
  5
21E
100
AcDbEntity
  8
ZUWAKU
  6
CONTINUOUS
 62
       7
100
AcDbLine
 10
-308.60078913
 20
-668.75925054
 30
0.0
 11
-313.67342173
 21
-673.83188314
 31
0.0
  0
LINE
  5
21F
100
AcDbEntity
  8
ZUWAKU
  6
CONTINUOUS
 62
       7
100
AcDbLine
 10
-309.30789592
 20
-670.88057088
 30
0.0
 11
-312.25920817
 21
-673.83188314
 31
0.0
  0
LINE
  5
220
100
AcDbEntity
  8
ZUWAKU
  6
CONTINUOUS
 62
       7
100
AcDbLine
 10
-310.0150027
 20
-673.00189123
 30
0.0
 11
-310.84499461
 21
-673.83188314
 31
0.0
  0
LINE
  5
221
100
AcDbEntity
  8
ZUWAKU
  6
CONTINUOUS
 62
       7
100
AcDbLine
 10
-317.47916667
 20
-676.64438314
 30
0.0
 11
-321.85416667
 21
-681.01938314
 31
0.0
  0
LINE
  5
222
100
AcDbEntity
  8
ZUWAKU
  6
CONTINUOUS
 62
       7
100
AcDbLine
 10
-329.04166667
 20
-688.20688314
 30
0.0
 11
-333.72916667
 21
-692.89438314
 31
0.0
  0
LINE
  5
223
100
AcDbEntity
  8
ZUWAKU
  6
CONTINUOUS
 62
       7
100
AcDbLine
 10
-318.89338023
 20
-676.64438314
 30
0.0
 11
-323.26838023
 21
-681.01938314
 31
0.0
  0
LINE
  5
224
100
AcDbEntity
  8
ZUWAKU
  6
CONTINUOUS
 62
       7
100
AcDbLine
 10
-330.45588023
 20
-688.20688314
 30
0.0
 11
-335.14338023
 21
-692.89438314
 31
0.0
  0
LINE
  5
225
100
AcDbEntity
  8
ZUWAKU
  6
CONTINUOUS
 62
       7
100
AcDbLine
 10
-320.30759379
 20
-676.64438314
 30
0.0
 11
-324.68259379
 21
-681.01938314
 31
0.0
  0
LINE
  5
226
100
AcDbEntity
  8
ZUWAKU
  6
CONTINUOUS
 62
       7
100
AcDbLine
 10
-331.87009379
 20
-688.20688314
 30
0.0
 11
-336.55759379
 21
-692.89438314
 31
0.0
  0
LINE
  5
227
100
AcDbEntity
  8
ZUWAKU
  6
CONTINUOUS
 62
       7
100
AcDbLine
 10
-321.72180735
 20
-676.64438314
 30
0.0
 11
-326.09680735
 21
-681.01938314
 31
0.0
  0
LINE
  5
228
100
AcDbEntity
  8
ZUWAKU
  6
CONTINUOUS
 62
       7
100
AcDbLine
 10
-333.28430735
 20
-688.20688314
 30
0.0
 11
-337.97180735
 21
-692.89438314
 31
0.0
  0
LINE
  5
229
100
AcDbEntity
  8
ZUWAKU
  6
CONTINUOUS
 62
       7
100
AcDbLine
 10
-323.13602092
 20
-676.64438314
 30
0.0
 11
-327.51102092
 21
-681.01938314
 31
0.0
  0
LINE
  5
22A
100
AcDbEntity
  8
ZUWAKU
  6
CONTINUOUS
 62
       7
100
AcDbLine
 10
-334.69852092
 20
-688.20688314
 30
0.0
 11
-339.38602092
 21
-692.89438314
 31
0.0
  0
LINE
  5
22B
100
AcDbEntity
  8
ZUWAKU
  6
CONTINUOUS
 62
       7
100
AcDbLine
 10
-324.55023448
 20
-676.64438314
 30
0.0
 11
-328.92523448
 21
-681.01938314
 31
0.0
  0
LINE
  5
22C
100
AcDbEntity
  8
ZUWAKU
  6
CONTINUOUS
 62
       7
100
AcDbLine
 10
-336.11273448
 20
-688.20688314
 30
0.0
 11
-339.43178813
 21
-691.52593678
 31
0.0
  0
LINE
  5
22D
100
AcDbEntity
  8
ZUWAKU
  6
CONTINUOUS
 62
       7
100
AcDbLine
 10
-325.96444804
 20
-676.64438314
 30
0.0
 11
-330.33944804
 21
-681.01938314
 31
0.0
  0
LINE
  5
22E
100
AcDbEntity
  8
ZUWAKU
  6
CONTINUOUS
 62
       7
100
AcDbLine
 10
-337.52694804
 20
-688.20688314
 30
0.0
 11
-338.48897908
 21
-689.16891418
 31
0.0
  0
LINE
  5
22F
100
AcDbEntity
  8
ZUWAKU
  6
CONTINUOUS
 62
       7
100
AcDbLine
 10
-327.3786616
 20
-676.64438314
 30
0.0
 11
-331.7536616
 21
-681.01938314
 31
0.0
  0
LINE
  5
230
100
AcDbEntity
  8
ZUWAKU
  6
CONTINUOUS
 62
       7
100
AcDbLine
 10
-328.79287517
 20
-676.64438314
 30
0.0
 11
-333.16787517
 21
-681.01938314
 31
0.0
  0
LINE
  5
231
100
AcDbEntity
  8
ZUWAKU
  6
CONTINUOUS
 62
       7
100
AcDbLine
 10
-330.20708873
 20
-676.64438314
 30
0.0
 11
-334.58208873
 21
-681.01938314
 31
0.0
  0
LINE
  5
232
100
AcDbEntity
  8
ZUWAKU
  6
CONTINUOUS
 62
       7
100
AcDbLine
 10
-331.62130229
 20
-676.64438314
 30
0.0
 11
-334.57231242
 21
-679.59539326
 31
0.0
  0
LINE
  5
233
100
AcDbEntity
  8
ZUWAKU
  6
CONTINUOUS
 62
       7
100
AcDbLine
 10
-333.03551585
 20
-676.64438314
 30
0.0
 11
-334.00662699
 21
-677.61549427
 31
0.0
  0
LINE
  5
234
100
AcDbEntity
  8
ZUWAKU
  6
CONTINUOUS
 62
       7
100
AcDbLine
 10
-316.0649531
 20
-676.64438314
 30
0.0
 11
-322.41985209
 21
-682.99928212
 31
0.0
  0
LINE
  5
235
100
AcDbEntity
  8
ZUWAKU
  6
CONTINUOUS
 62
       7
100
AcDbLine
 10
-327.2169192
 20
-687.79634923
 30
0.0
 11
-332.3149531
 21
-692.89438314
 31
0.0
  0
LINE
  5
236
100
AcDbEntity
  8
ZUWAKU
  6
CONTINUOUS
 62
       7
100
AcDbLine
 10
-314.65073954
 20
-676.64438314
 30
0.0
 11
-330.90073954
 21
-692.89438314
 31
0.0
  0
LINE
  5
237
100
AcDbEntity
  8
ZUWAKU
  6
CONTINUOUS
 62
       7
100
AcDbLine
 10
-313.23652598
 20
-676.64438314
 30
0.0
 11
-329.48652598
 21
-692.89438314
 31
0.0
  0
LINE
  5
238
100
AcDbEntity
  8
ZUWAKU
  6
CONTINUOUS
 62
       7
100
AcDbLine
 10
-311.82231242
 20
-676.64438314
 30
0.0
 11
-328.07231242
 21
-692.89438314
 31
0.0
  0
LINE
  5
239
100
AcDbEntity
  8
ZUWAKU
  6
CONTINUOUS
 62
       7
100
AcDbLine
 10
-311.69834827
 20
-677.93463255
 30
0.0
 11
-326.65809885
 21
-692.89438314
 31
0.0
  0
LINE
  5
23A
100
AcDbEntity
  8
ZUWAKU
  6
CONTINUOUS
 62
       7
100
AcDbLine
 10
-312.50647031
 20
-680.15696815
 30
0.0
 11
-325.24388529
 21
-692.89438314
 31
0.0
  0
LINE
  5
23B
100
AcDbEntity
  8
ZUWAKU
  6
CONTINUOUS
 62
       7
100
AcDbLine
 10
-313.31459234
 20
-682.37930375
 30
0.0
 11
-323.75900675
 21
-692.82371816
 31
0.0
  0
LINE
  5
23C
100
AcDbEntity
  8
ZUWAKU
  6
CONTINUOUS
 62
       7
100
AcDbLine
 10
-314.12271438
 20
-684.60163935
 30
0.0
 11
-321.87338867
 21
-692.35231364
 31
0.0
  0
LINE
  5
23D
100
AcDbEntity
  8
ZUWAKU
  6
CONTINUOUS
 62
       7
100
AcDbLine
 10
-314.93083642
 20
-686.82397495
 30
0.0
 11
-319.21082254
 21
-691.10396107
 31
0.0
  0
LINE
  5
23E
100
AcDbEntity
  8
ZUWAKU
  6
CONTINUOUS
 62
       7
100
AcDbLine
 10
-335.04166667
 20
-668.20688314
 30
0.0
 11
-347.99088542
 21
-681.15610189
 31
0.0
  0
LINE
  5
23F
100
AcDbEntity
  8
ZUWAKU
  6
CONTINUOUS
 62
       7
100
AcDbLine
 10
-354.95238095
 20
-688.11759742
 30
0.0
 11
-359.72916667
 21
-692.89438314
 31
0.0
  0
LINE
  5
240
100
AcDbEntity
  8
ZUWAKU
  6
CONTINUOUS
 62
       7
100
AcDbLine
 10
-336.45588023
 20
-668.20688314
 30
0.0
 11
-347.15119611
 21
-678.90219902
 31
0.0
  0
LINE
  5
241
100
AcDbEntity
  8
ZUWAKU
  6
CONTINUOUS
 62
       7
100
AcDbLine
 10
-356.45588023
 20
-688.20688314
 30
0.0
 11
-359.49080989
 21
-691.24181279
 31
0.0
  0
LINE
  5
242
100
AcDbEntity
  8
ZUWAKU
  6
CONTINUOUS
 62
       7
100
AcDbLine
 10
-337.87009379
 20
-668.20688314
 30
0.0
 11
-346.31150681
 21
-676.64829616
 31
0.0
  0
LINE
  5
243
100
AcDbEntity
  8
ZUWAKU
  6
CONTINUOUS
 62
       7
100
AcDbLine
 10
-357.87009379
 20
-688.20688314
 30
0.0
 11
-358.7837031
 21
-689.12049245
 31
0.0
  0
LINE
  5
244
100
AcDbEntity
  8
ZUWAKU
  6
CONTINUOUS
 62
       7
100
AcDbLine
 10
-339.28430735
 20
-668.20688314
 30
0.0
 11
-345.47181751
 21
-674.39439329
 31
0.0
  0
LINE
  5
245
100
AcDbEntity
  8
ZUWAKU
  6
CONTINUOUS
 62
       7
100
AcDbLine
 10
-340.69852092
 20
-668.20688314
 30
0.0
 11
-344.63212821
 21
-672.14049043
 31
0.0
  0
LINE
  5
246
100
AcDbEntity
  8
ZUWAKU
  6
CONTINUOUS
 62
       7
100
AcDbLine
 10
-342.11273448
 20
-668.20688314
 30
0.0
 11
-343.7924389
 21
-669.88658756
 31
0.0
  0
LINE
  5
247
100
AcDbEntity
  8
ZUWAKU
  6
CONTINUOUS
 62
       7
100
AcDbLine
 10
-335.29414798
 20
-669.87357801
 30
0.0
 11
-348.83057472
 21
-683.41000475
 31
0.0
  0
LINE
  5
248
100
AcDbEntity
  8
ZUWAKU
  6
CONTINUOUS
 62
       7
100
AcDbLine
 10
-353.33613688
 20
-687.91556691
 30
0.0
 11
-358.3149531
 21
-692.89438314
 31
0.0
  0
LINE
  5
249
100
AcDbEntity
  8
ZUWAKU
  6
CONTINUOUS
 62
       7
100
AcDbLine
 10
-336.01938571
 20
-672.0130293
 30
0.0
 11
-350.63481242
 21
-686.62845601
 31
0.0
  0
LINE
  5
24A
100
AcDbEntity
  8
ZUWAKU
  6
CONTINUOUS
 62
       7
100
AcDbLine
 10
-350.69321187
 20
-686.68685547
 30
0.0
 11
-356.90073954
 21
-692.89438314
 31
0.0
  0
LINE
  5
24B
100
AcDbEntity
  8
ZUWAKU
  6
CONTINUOUS
 62
       7
100
AcDbLine
 10
-336.74462343
 20
-674.15248059
 30
0.0
 11
-355.48652598
 21
-692.89438314
 31
0.0
  0
LINE
  5
24C
100
AcDbEntity
  8
ZUWAKU
  6
CONTINUOUS
 62
       7
100
AcDbLine
 10
-337.46986115
 20
-676.29193187
 30
0.0
 11
-354.07231242
 21
-692.89438314
 31
0.0
  0
LINE
  5
24D
100
AcDbEntity
  8
ZUWAKU
  6
CONTINUOUS
 62
       7
100
AcDbLine
 10
-338.19509888
 20
-678.43138316
 30
0.0
 11
-352.65809885
 21
-692.89438314
 31
0.0
  0
LINE
  5
24E
100
AcDbEntity
  8
ZUWAKU
  6
CONTINUOUS
 62
       7
100
AcDbLine
 10
-338.9203366
 20
-680.57083445
 30
0.0
 11
-351.13440958
 21
-692.78490743
 31
0.0
  0
LINE
  5
24F
100
AcDbEntity
  8
ZUWAKU
  6
CONTINUOUS
 62
       7
100
AcDbLine
 10
-339.64557433
 20
-682.71028573
 30
0.0
 11
-349.56306118
 21
-692.62777259
 31
0.0
  0
LINE
  5
250
100
AcDbEntity
  8
ZUWAKU
  6
CONTINUOUS
 62
       7
100
AcDbLine
 10
-340.37081205
 20
-684.84973702
 30
0.0
 11
-347.43548584
 21
-691.9144108
 31
0.0
  0
LINE
  5
251
100
AcDbEntity
  8
ZUWAKU
  6
CONTINUOUS
 62
       7
100
AcDbLine
 10
-350.07291667
 20
-669.95688314
 30
0.0
 11
-361.62936828
 21
-681.51333475
 31
0.0
  0
LINE
  5
252
100
AcDbEntity
  8
ZUWAKU
  6
CONTINUOUS
 62
       7
100
AcDbLine
 10
-349.73713023
 20
-668.20688314
 30
0.0
 11
-360.85383181
 21
-679.32358472
 31
0.0
  0
LINE
  5
253
100
AcDbEntity
  8
ZUWAKU
  6
CONTINUOUS
 62
       7
100
AcDbLine
 10
-351.15134379
 20
-668.20688314
 30
0.0
 11
-360.07829534
 21
-677.13383468
 31
0.0
  0
LINE
  5
254
100
AcDbEntity
  8
ZUWAKU
  6
CONTINUOUS
 62
       7
100
AcDbLine
 10
-352.56555735
 20
-668.20688314
 30
0.0
 11
-359.30275887
 21
-674.94408465
 31
0.0
  0
LINE
  5
255
100
AcDbEntity
  8
ZUWAKU
  6
CONTINUOUS
 62
       7
100
AcDbLine
 10
-353.97977092
 20
-668.20688314
 30
0.0
 11
-358.5272224
 21
-672.75433462
 31
0.0
  0
LINE
  5
256
100
AcDbEntity
  8
ZUWAKU
  6
CONTINUOUS
 62
       7
100
AcDbLine
 10
-355.39398448
 20
-668.20688314
 30
0.0
 11
-357.75168593
 21
-670.56458459
 31
0.0
  0
LINE
  5
257
100
AcDbEntity
  8
ZUWAKU
  6
CONTINUOUS
 62
       7
100
AcDbLine
 10
-356.80819804
 20
-668.20688314
 30
0.0
 11
-356.97614946
 21
-668.37483456
 31
0.0
  0
LINE
  5
258
100
AcDbEntity
  8
ZUWAKU
  6
CONTINUOUS
 62
       7
100
AcDbLine
 10
-350.9214448
 20
-672.21962484
 30
0.0
 11
-361.9087031
 21
-683.20688314
 31
0.0
  0
LINE
  5
259
100
AcDbEntity
  8
ZUWAKU
  6
CONTINUOUS
 62
       7
100
AcDbLine
 10
-351.76997294
 20
-674.48236653
 30
0.0
 11
-360.49448954
 21
-683.20688314
 31
0.0
  0
LINE
  5
25A
100
AcDbEntity
  8
ZUWAKU
  6
CONTINUOUS
 62
       7
100
AcDbLine
 10
-352.61850108
 20
-676.74510823
 30
0.0
 11
-359.08027598
 21
-683.20688314
 31
0.0
  0
LINE
  5
25B
100
AcDbEntity
  8
ZUWAKU
  6
CONTINUOUS
 62
       7
100
AcDbLine
 10
-353.46702922
 20
-679.00784993
 30
0.0
 11
-357.66606242
 21
-683.20688314
 31
0.0
  0
LINE
  5
25C
100
AcDbEntity
  8
ZUWAKU
  6
CONTINUOUS
 62
       7
100
AcDbLine
 10
-354.31555735
 20
-681.27059163
 30
0.0
 11
-356.25184885
 21
-683.20688314
 31
0.0
  0
LINE
  5
25D
100
AcDbEntity
  8
ZUWAKU
  6
CONTINUOUS
 62
       7
100
AcDbLine
 10
-456.66666667
 20
666.94993119
 30
0.0
 11
471.77083333
 21
666.94993119
 31
0.0
  0
LINE
  5
25E
100
AcDbEntity
  8
ZUWAKU
  6
CONTINUOUS
 62
       7
100
AcDbLine
 10
156.14583333
 20
716.48061686
 30
0.0
 11
471.77083333
 21
716.48061686
 31
0.0
  0
LINE
  5
25F
100
AcDbEntity
  8
ZUWAKU
  6
CONTINUOUS
 62
       7
100
AcDbLine
 10
156.14583333
 20
716.48061686
 30
0.0
 11
156.14583333
 21
666.94993119
 31
0.0
  0
LINE
  5
260
100
AcDbEntity
  8
ZUWAKU
  6
CONTINUOUS
 62
       7
100
AcDbLine
 10
471.77083333
 20
716.48061686
 30
0.0
 11
471.77083333
 21
666.94993119
 31
0.0
  0
LINE
  5
261
100
AcDbEntity
  8
ZUWAKU
  6
CONTINUOUS
 62
       7
100
AcDbLine
 10
-455.41666667
 20
-705.70688314
 30
0.0
 11
466.77083333
 21
-705.70688314
 31
0.0
  0
LINE
  5
262
100
AcDbEntity
  8
ZUWAKU
  6
CONTINUOUS
 62
       7
100
AcDbLine
 10
-455.41666667
 20
-645.39438314
 30
0.0
 11
466.77083333
 21
-645.39438314
 31
0.0
  0
LINE
  5
263
100
AcDbEntity
  8
ZUWAKU
  6
CONTINUOUS
 62
       7
100
AcDbLine
 10
154.89583333
 20
-705.70688314
 30
0.0
 11
154.89583333
 21
-645.39438314
 31
0.0
  0
LINE
  5
264
100
AcDbEntity
  8
ZUWAKU
  6
CONTINUOUS
 62
       7
100
AcDbLine
 10
129.89583333
 20
-705.70688314
 30
0.0
 11
129.89583333
 21
-645.39438314
 31
0.0
  0
LINE
  5
265
100
AcDbEntity
  8
ZUWAKU
  6
CONTINUOUS
 62
       7
100
AcDbLine
 10
-182.91666667
 20
-705.70688314
 30
0.0
 11
-182.91666667
 21
-645.39438314
 31
0.0
  0
LINE
  5
266
100
AcDbEntity
  8
ZUWAKU
  6
CONTINUOUS
 62
       7
100
AcDbLine
 10
-207.91666667
 20
-705.70688314
 30
0.0
 11
-207.91666667
 21
-645.39438314
 31
0.0
  0
LINE
  5
267
100
AcDbEntity
  8
ZUWAKU
  6
CONTINUOUS
 62
       7
100
AcDbLine
 10
-403.85416667
 20
695.85561686
 30
0.0
 11
-408.09188406
 21
703.35311686
 31
0.0
  0
LINE
  5
268
100
AcDbEntity
  8
ZUWAKU
  6
CONTINUOUS
 62
       7
100
AcDbLine
 10
-424.98194579
 20
709.91811686
 30
0.0
 11
-424.46111246
 21
711.48061686
 31
0.0
  0
LINE
  5
269
100
AcDbEntity
  8
ZUWAKU
  6
CONTINUOUS
 62
       7
100
AcDbLine
 10
-385.15565512
 20
697.70487264
 30
0.0
 11
-385.72416667
 21
697.42061686
 31
0.0
  0
LINE
  5
26A
100
AcDbEntity
  8
ZUWAKU
  6
CONTINUOUS
 62
       7
100
AcDbLine
 10
-384.79166667
 20
695.85561686
 30
0.0
 11
-382.16666667
 21
698.48061686
 31
0.0
  0
LINE
  5
26B
100
AcDbEntity
  8
ZUWAKU
  6
CONTINUOUS
 62
       7
100
AcDbLine
 10
-382.60416667
 20
695.85561686
 30
0.0
 11
-382.16666667
 21
698.48061686
 31
0.0
  0
LINE
  5
26C
100
AcDbEntity
  8
ZUWAKU
  6
CONTINUOUS
 62
       7
100
AcDbLine
 10
-371.04166667
 20
698.04311686
 30
0.0
 11
-371.04166667
 21
697.42061686
 31
0.0
  0
LINE
  5
26D
100
AcDbEntity
  8
ZUWAKU
  6
CONTINUOUS
 62
       7
100
AcDbLine
 10
-357.21656394
 20
695.85561686
 30
0.0
 11
-362.91666667
 21
695.85561686
 31
0.0
  0
LINE
  5
26E
100
AcDbEntity
  8
ZUWAKU
  6
CONTINUOUS
 62
       7
100
AcDbLine
 10
-365.99650428
 20
698.08263395
 30
0.0
 11
-368.54166667
 21
695.85561686
 31
0.0
  0
LINE
  5
26F
100
AcDbEntity
  8
ZUWAKU
  6
CONTINUOUS
 62
       7
100
AcDbLine
 10
-347.93792665
 20
695.85561686
 30
0.0
 11
-354.47916667
 21
695.85561686
 31
0.0
  0
LINE
  5
270
100
AcDbEntity
  8
ZUWAKU
  6
CONTINUOUS
 62
       7
100
AcDbLine
 10
-413.11104167
 20
697.42061686
 30
0.0
 11
-408.42447917
 21
709.91811686
 31
0.0
  0
LINE
  5
271
100
AcDbEntity
  8
ZUWAKU
  6
CONTINUOUS
 62
       7
100
AcDbLine
 10
-408.62805843
 20
704.91811686
 30
0.0
 11
-401.31327743
 21
704.91811686
 31
0.0
  0
LINE
  5
272
100
AcDbEntity
  8
ZUWAKU
  6
CONTINUOUS
 62
       7
100
AcDbLine
 10
-361.5530303
 20
699.60561686
 30
0.0
 11
-362.60416667
 21
699.60561686
 31
0.0
  0
LINE
  5
273
100
AcDbEntity
  8
ZUWAKU
  6
CONTINUOUS
 62
       7
100
AcDbLine
 10
-362.60416667
 20
699.60561686
 30
0.0
 11
-363.63723721
 21
699.60561686
 31
0.0
  0
LINE
  5
274
100
AcDbEntity
  8
ZUWAKU
  6
CONTINUOUS
 62
       7
100
AcDbLine
 10
-372.77789068
 20
695.85561686
 30
0.0
 11
-368.54166667
 21
695.85561686
 31
0.0
  0
CIRCLE
  5
275
100
AcDbEntity
  8
ZUWAKU
  6
CONTINUOUS
 62
       7
100
AcDbCircle
 10
-379.64454287
 20
704.60561686
 30
0.0
 40
0.9466262
  0
LINE
  5
276
100
AcDbEntity
  8
ZUWAKU
  6
CONTINUOUS
 62
       7
100
AcDbLine
 10
-411.94010417
 20
709.91811686
 30
0.0
 11
-408.42447917
 21
709.91811686
 31
0.0
  0
LINE
  5
277
100
AcDbEntity
  8
ZUWAKU
  6
CONTINUOUS
 62
       7
100
AcDbLine
 10
-406.75305843
 20
709.91811686
 30
0.0
 11
-401.31327743
 21
709.91811686
 31
0.0
  0
LINE
  5
278
100
AcDbEntity
  8
ZUWAKU
  6
CONTINUOUS
 62
       7
100
AcDbLine
 10
-417.29166667
 20
695.85561686
 30
0.0
 11
-416.70479167
 21
697.42061686
 31
0.0
  0
LINE
  5
279
100
AcDbEntity
  8
ZUWAKU
  6
CONTINUOUS
 62
       7
100
AcDbLine
 10
-411.94010417
 20
709.91811686
 30
0.0
 11
-411.35416667
 21
711.48061686
 31
0.0
  0
LINE
  5
27A
100
AcDbEntity
  8
ZUWAKU
  6
CONTINUOUS
 62
       7
100
AcDbLine
 10
-412.72210902
 20
709.91811686
 30
0.0
 11
-412.13617152
 21
711.48061686
 31
0.0
  0
LINE
  5
27B
100
AcDbEntity
  8
ZUWAKU
  6
CONTINUOUS
 62
       7
100
AcDbLine
 10
-401.31327743
 20
711.48061686
 30
0.0
 11
-411.35416667
 21
711.48061686
 31
0.0
  0
LINE
  5
27C
100
AcDbEntity
  8
ZUWAKU
  6
CONTINUOUS
 62
       7
100
AcDbLine
 10
-412.13617152
 20
711.48061686
 30
0.0
 11
-413.62071842
 21
711.48061686
 31
0.0
  0
LINE
  5
27D
100
AcDbEntity
  8
ZUWAKU
  6
CONTINUOUS
 62
       7
100
AcDbLine
 10
-414.20665592
 20
709.91811686
 30
0.0
 11
-412.72210902
 21
709.91811686
 31
0.0
  0
LINE
  5
27E
100
AcDbEntity
  8
ZUWAKU
  6
CONTINUOUS
 62
       7
100
AcDbLine
 10
-414.77591814
 20
709.91811686
 30
0.0
 11
-414.18998064
 21
711.48061686
 31
0.0
  0
LINE
  5
27F
100
AcDbEntity
  8
ZUWAKU
  6
CONTINUOUS
 62
       7
100
AcDbLine
 10
-414.18998064
 20
711.48061686
 30
0.0
 11
-415.43437842
 21
711.48061686
 31
0.0
  0
LINE
  5
280
100
AcDbEntity
  8
ZUWAKU
  6
CONTINUOUS
 62
       7
100
AcDbLine
 10
-416.02031592
 20
709.91811686
 30
0.0
 11
-414.77591814
 21
709.91811686
 31
0.0
  0
LINE
  5
281
100
AcDbEntity
  8
ZUWAKU
  6
CONTINUOUS
 62
       7
100
AcDbLine
 10
-416.02031592
 20
709.91811686
 30
0.0
 11
-415.43437842
 21
711.48061686
 31
0.0
  0
LINE
  5
282
100
AcDbEntity
  8
ZUWAKU
  6
CONTINUOUS
 62
       7
100
AcDbLine
 10
-416.49681257
 20
711.48061686
 30
0.0
 11
-417.71622816
 21
711.48061686
 31
0.0
  0
LINE
  5
283
100
AcDbEntity
  8
ZUWAKU
  6
CONTINUOUS
 62
       7
100
AcDbLine
 10
-418.30216566
 20
709.91811686
 30
0.0
 11
-417.08275007
 21
709.91811686
 31
0.0
  0
LINE
  5
284
100
AcDbEntity
  8
ZUWAKU
  6
CONTINUOUS
 62
       7
100
AcDbLine
 10
-418.30216566
 20
709.91811686
 30
0.0
 11
-417.71622816
 21
711.48061686
 31
0.0
  0
LINE
  5
285
100
AcDbEntity
  8
ZUWAKU
  6
CONTINUOUS
 62
       7
100
AcDbLine
 10
-414.20665592
 20
709.91811686
 30
0.0
 11
-413.62071842
 21
711.48061686
 31
0.0
  0
LINE
  5
286
100
AcDbEntity
  8
ZUWAKU
  6
CONTINUOUS
 62
       7
100
AcDbLine
 10
-417.08275007
 20
709.91811686
 30
0.0
 11
-416.49681257
 21
711.48061686
 31
0.0
  0
LINE
  5
287
100
AcDbEntity
  8
ZUWAKU
  6
CONTINUOUS
 62
       7
100
AcDbLine
 10
-419.21548924
 20
709.91811686
 30
0.0
 11
-418.62955174
 21
711.48061686
 31
0.0
  0
LINE
  5
288
100
AcDbEntity
  8
ZUWAKU
  6
CONTINUOUS
 62
       7
100
AcDbLine
 10
-418.62955174
 20
711.48061686
 30
0.0
 11
-419.75701991
 21
711.48061686
 31
0.0
  0
LINE
  5
289
100
AcDbEntity
  8
ZUWAKU
  6
CONTINUOUS
 62
       7
100
AcDbLine
 10
-420.34295741
 20
709.91811686
 30
0.0
 11
-419.21548924
 21
709.91811686
 31
0.0
  0
LINE
  5
28A
100
AcDbEntity
  8
ZUWAKU
  6
CONTINUOUS
 62
       7
100
AcDbLine
 10
-420.34295741
 20
709.91811686
 30
0.0
 11
-419.75701991
 21
711.48061686
 31
0.0
  0
LINE
  5
28B
100
AcDbEntity
  8
ZUWAKU
  6
CONTINUOUS
 62
       7
100
AcDbLine
 10
-421.29737934
 20
709.91811686
 30
0.0
 11
-420.71144184
 21
711.48061686
 31
0.0
  0
LINE
  5
28C
100
AcDbEntity
  8
ZUWAKU
  6
CONTINUOUS
 62
       7
100
AcDbLine
 10
-420.71144184
 20
711.48061686
 30
0.0
 11
-421.71404601
 21
711.48061686
 31
0.0
  0
LINE
  5
28D
100
AcDbEntity
  8
ZUWAKU
  6
CONTINUOUS
 62
       7
100
AcDbLine
 10
-422.23487934
 20
709.91811686
 30
0.0
 11
-421.29737934
 21
709.91811686
 31
0.0
  0
LINE
  5
28E
100
AcDbEntity
  8
ZUWAKU
  6
CONTINUOUS
 62
       7
100
AcDbLine
 10
-422.23487934
 20
709.91811686
 30
0.0
 11
-421.71404601
 21
711.48061686
 31
0.0
  0
LINE
  5
28F
100
AcDbEntity
  8
ZUWAKU
  6
CONTINUOUS
 62
       7
100
AcDbLine
 10
-423.23324193
 20
709.91811686
 30
0.0
 11
-422.7124086
 21
711.48061686
 31
0.0
  0
LINE
  5
290
100
AcDbEntity
  8
ZUWAKU
  6
CONTINUOUS
 62
       7
100
AcDbLine
 10
-424.04444579
 20
709.91811686
 30
0.0
 11
-423.52361246
 21
711.48061686
 31
0.0
  0
LINE
  5
291
100
AcDbEntity
  8
ZUWAKU
  6
CONTINUOUS
 62
       7
100
AcDbLine
 10
-425.55486246
 20
709.91811686
 30
0.0
 11
-425.03402913
 21
711.48061686
 31
0.0
  0
LINE
  5
292
100
AcDbEntity
  8
ZUWAKU
  6
CONTINUOUS
 62
       7
100
AcDbLine
 10
-426.54444579
 20
709.91811686
 30
0.0
 11
-426.02361246
 21
711.48061686
 31
0.0
  0
LINE
  5
293
100
AcDbEntity
  8
ZUWAKU
  6
CONTINUOUS
 62
       7
100
AcDbLine
 10
-426.80486246
 20
709.91811686
 30
0.0
 11
-426.28402913
 21
711.48061686
 31
0.0
  0
LINE
  5
294
100
AcDbEntity
  8
ZUWAKU
  6
CONTINUOUS
 62
       7
100
AcDbLine
 10
-422.7124086
 20
711.48061686
 30
0.0
 11
-423.52361246
 21
711.48061686
 31
0.0
  0
LINE
  5
295
100
AcDbEntity
  8
ZUWAKU
  6
CONTINUOUS
 62
       7
100
AcDbLine
 10
-424.04444579
 20
709.91811686
 30
0.0
 11
-423.23324193
 21
709.91811686
 31
0.0
  0
LINE
  5
296
100
AcDbEntity
  8
ZUWAKU
  6
CONTINUOUS
 62
       7
100
AcDbLine
 10
-424.46111246
 20
711.48061686
 30
0.0
 11
-425.03402913
 21
711.48061686
 31
0.0
  0
LINE
  5
297
100
AcDbEntity
  8
ZUWAKU
  6
CONTINUOUS
 62
       7
100
AcDbLine
 10
-426.02361246
 20
711.48061686
 30
0.0
 11
-426.28402913
 21
711.48061686
 31
0.0
  0
LINE
  5
298
100
AcDbEntity
  8
ZUWAKU
  6
CONTINUOUS
 62
       7
100
AcDbLine
 10
-425.55486246
 20
709.91811686
 30
0.0
 11
-424.98194579
 21
709.91811686
 31
0.0
  0
LINE
  5
299
100
AcDbEntity
  8
ZUWAKU
  6
CONTINUOUS
 62
       7
100
AcDbLine
 10
-426.54444579
 20
709.91811686
 30
0.0
 11
-426.80486246
 21
709.91811686
 31
0.0
  0
ELLIPSE
  5
29A
100
AcDbEntity
  8
ZUWAKU
  6
CONTINUOUS
 62
       7
100
AcDbEllipse
 10
-384.32291667
 20
701.93830515
 30
0.0
 11
-63.90625
 21
0.0
 31
0.0
210
0.0
220
0.0
230
1.0
 40
0.40365317
 41
0.0
 42
6.2831853071796004
  0
LINE
  5
29B
100
AcDbEntity
  8
ZUWAKU
  6
CONTINUOUS
 62
       7
100
AcDbLine
 10
-435.72916667
 20
714.29311686
 30
0.0
 11
-435.72916667
 21
689.91811686
 31
0.0
  0
LINE
  5
29C
100
AcDbEntity
  8
ZUWAKU
  6
CONTINUOUS
 62
       7
100
AcDbLine
 10
-332.60416667
 20
714.29311686
 30
0.0
 11
-332.60416667
 21
689.91811686
 31
0.0
  0
LINE
  5
29D
100
AcDbEntity
  8
ZUWAKU
  6
CONTINUOUS
 62
       7
100
AcDbLine
 10
-435.72916667
 20
714.29311686
 30
0.0
 11
-332.60416667
 21
714.29311686
 31
0.0
  0
LINE
  5
29E
100
AcDbEntity
  8
ZUWAKU
  6
CONTINUOUS
 62
       7
100
AcDbLine
 10
-435.72916667
 20
689.91811686
 30
0.0
 11
-332.60416667
 21
689.91811686
 31
0.0
  0
LINE
  5
29F
100
AcDbEntity
  8
ZUWAKU
  6
CONTINUOUS
 62
       7
100
AcDbLine
 10
-390.69217559
 20
727.60582709
 30
0.0
 11
-404.00488581
 21
714.29311686
 31
0.0
  0
LINE
  5
2A0
100
AcDbEntity
  8
ZUWAKU
  6
CONTINUOUS
 62
       7
100
AcDbLine
 10
-392.17332483
 20
727.5388914
 30
0.0
 11
-405.41909937
 21
714.29311686
 31
0.0
  0
LINE
  5
2A1
100
AcDbEntity
  8
ZUWAKU
  6
CONTINUOUS
 62
       7
100
AcDbLine
 10
-393.66955169
 20
727.45687811
 30
0.0
 11
-406.83331294
 21
714.29311686
 31
0.0
  0
LINE
  5
2A2
100
AcDbEntity
  8
ZUWAKU
  6
CONTINUOUS
 62
       7
100
AcDbLine
 10
-395.18147924
 20
727.35916412
 30
0.0
 11
-408.2475265
 21
714.29311686
 31
0.0
  0
LINE
  5
2A3
100
AcDbEntity
  8
ZUWAKU
  6
CONTINUOUS
 62
       7
100
AcDbLine
 10
-396.70980334
 20
727.24505358
 30
0.0
 11
-409.66174006
 21
714.29311686
 31
0.0
  0
LINE
  5
2A4
100
AcDbEntity
  8
ZUWAKU
  6
CONTINUOUS
 62
       7
100
AcDbLine
 10
-398.25530381
 20
727.11376667
 30
0.0
 11
-411.07595362
 21
714.29311686
 31
0.0
  0
LINE
  5
2A5
100
AcDbEntity
  8
ZUWAKU
  6
CONTINUOUS
 62
       7
100
AcDbLine
 10
-399.81885796
 20
726.96442609
 30
0.0
 11
-412.49016719
 21
714.29311686
 31
0.0
  0
LINE
  5
2A6
100
AcDbEntity
  8
ZUWAKU
  6
CONTINUOUS
 62
       7
100
AcDbLine
 10
-401.40145722
 20
726.79604039
 30
0.0
 11
-413.90438075
 21
714.29311686
 31
0.0
  0
LINE
  5
2A7
100
AcDbEntity
  8
ZUWAKU
  6
CONTINUOUS
 62
       7
100
AcDbLine
 10
-403.00422772
 20
726.60748345
 30
0.0
 11
-415.31859431
 21
714.29311686
 31
0.0
  0
LINE
  5
2A8
100
AcDbEntity
  8
ZUWAKU
  6
CONTINUOUS
 62
       7
100
AcDbLine
 10
-404.62845607
 20
726.39746867
 30
0.0
 11
-416.73280787
 21
714.29311686
 31
0.0
  0
LINE
  5
2A9
100
AcDbEntity
  8
ZUWAKU
  6
CONTINUOUS
 62
       7
100
AcDbLine
 10
-406.27562193
 20
726.16451637
 30
0.0
 11
-418.14702143
 21
714.29311686
 31
0.0
  0
LINE
  5
2AA
100
AcDbEntity
  8
ZUWAKU
  6
CONTINUOUS
 62
       7
100
AcDbLine
 10
-407.94743991
 20
725.90691195
 30
0.0
 11
-419.561235
 21
714.29311686
 31
0.0
  0
LINE
  5
2AB
100
AcDbEntity
  8
ZUWAKU
  6
CONTINUOUS
 62
       7
100
AcDbLine
 10
-409.64591398
 20
725.62265144
 30
0.0
 11
-420.97544856
 21
714.29311686
 31
0.0
  0
LINE
  5
2AC
100
AcDbEntity
  8
ZUWAKU
  6
CONTINUOUS
 62
       7
100
AcDbLine
 10
-411.37340971
 20
725.30936927
 30
0.0
 11
-422.38966212
 21
714.29311686
 31
0.0
  0
LINE
  5
2AD
100
AcDbEntity
  8
ZUWAKU
  6
CONTINUOUS
 62
       7
100
AcDbLine
 10
-413.13275156
 20
724.96424099
 30
0.0
 11
-423.80387568
 21
714.29311686
 31
0.0
  0
LINE
  5
2AE
100
AcDbEntity
  8
ZUWAKU
  6
CONTINUOUS
 62
       7
100
AcDbLine
 10
-435.72916667
 20
702.36782588
 30
0.0
 11
-435.99137568
 21
702.10561686
 31
0.0
  0
LINE
  5
2AF
100
AcDbEntity
  8
ZUWAKU
  6
CONTINUOUS
 62
       7
100
AcDbLine
 10
-414.92735723
 20
724.58384888
 30
0.0
 11
-425.21808925
 21
714.29311686
 31
0.0
  0
LINE
  5
2B0
100
AcDbEntity
  8
ZUWAKU
  6
CONTINUOUS
 62
       7
100
AcDbLine
 10
-435.72916667
 20
703.78203944
 30
0.0
 11
-437.40558925
 21
702.10561686
 31
0.0
  0
LINE
  5
2B1
100
AcDbEntity
  8
ZUWAKU
  6
CONTINUOUS
 62
       7
100
AcDbLine
 10
-416.76142771
 20
724.16399196
 30
0.0
 11
-426.63230281
 21
714.29311686
 31
0.0
  0
LINE
  5
2B2
100
AcDbEntity
  8
ZUWAKU
  6
CONTINUOUS
 62
       7
100
AcDbLine
 10
-435.72916667
 20
705.19625301
 30
0.0
 11
-438.81980281
 21
702.10561686
 31
0.0
  0
LINE
  5
2B3
100
AcDbEntity
  8
ZUWAKU
  6
CONTINUOUS
 62
       7
100
AcDbLine
 10
-418.64022432
 20
723.69940892
 30
0.0
 11
-428.04651637
 21
714.29311686
 31
0.0
  0
LINE
  5
2B4
100
AcDbEntity
  8
ZUWAKU
  6
CONTINUOUS
 62
       7
100
AcDbLine
 10
-435.72916667
 20
706.61046657
 30
0.0
 11
-440.23401637
 21
702.10561686
 31
0.0
  0
LINE
  5
2B5
100
AcDbEntity
  8
ZUWAKU
  6
CONTINUOUS
 62
       7
100
AcDbLine
 10
-420.57048709
 20
723.1833597
 30
0.0
 11
-429.46072993
 21
714.29311686
 31
0.0
  0
LINE
  5
2B6
100
AcDbEntity
  8
ZUWAKU
  6
CONTINUOUS
 62
       7
100
AcDbLine
 10
-435.72916667
 20
708.02468013
 30
0.0
 11
-441.64822993
 21
702.10561686
 31
0.0
  0
LINE
  5
2B7
100
AcDbEntity
  8
ZUWAKU
  6
CONTINUOUS
 62
       7
100
AcDbLine
 10
-422.56109459
 20
722.60696577
 30
0.0
 11
-430.8749435
 21
714.29311686
 31
0.0
  0
LINE
  5
2B8
100
AcDbEntity
  8
ZUWAKU
  6
CONTINUOUS
 62
       7
100
AcDbLine
 10
-435.72916667
 20
709.43889369
 30
0.0
 11
-443.0624435
 21
702.10561686
 31
0.0
  0
LINE
  5
2B9
100
AcDbEntity
  8
ZUWAKU
  6
CONTINUOUS
 62
       7
100
AcDbLine
 10
-424.6241612
 20
721.95811272
 30
0.0
 11
-432.28915706
 21
714.29311686
 31
0.0
  0
LINE
  5
2BA
100
AcDbEntity
  8
ZUWAKU
  6
CONTINUOUS
 62
       7
100
AcDbLine
 10
-435.72916667
 20
710.85310726
 30
0.0
 11
-444.47665706
 21
702.10561686
 31
0.0
  0
LINE
  5
2BB
100
AcDbEntity
  8
ZUWAKU
  6
CONTINUOUS
 62
       7
100
AcDbLine
 10
-426.77699076
 20
721.21949672
 30
0.0
 11
-433.70337062
 21
714.29311686
 31
0.0
  0
LINE
  5
2BC
100
AcDbEntity
  8
ZUWAKU
  6
CONTINUOUS
 62
       7
100
AcDbLine
 10
-435.72916667
 20
712.26732082
 30
0.0
 11
-445.89087062
 21
702.10561686
 31
0.0
  0
LINE
  5
2BD
100
AcDbEntity
  8
ZUWAKU
  6
CONTINUOUS
 62
       7
100
AcDbLine
 10
-429.04588222
 20
720.36481883
 30
0.0
 11
-435.11758418
 21
714.29311686
 31
0.0
  0
LINE
  5
2BE
100
AcDbEntity
  8
ZUWAKU
  6
CONTINUOUS
 62
       7
100
AcDbLine
 10
-435.72916667
 20
713.68153438
 30
0.0
 11
-447.30508418
 21
702.10561686
 31
0.0
  0
LINE
  5
2BF
100
AcDbEntity
  8
ZUWAKU
  6
CONTINUOUS
 62
       7
100
AcDbLine
 10
-431.47453771
 20
719.3503769
 30
0.0
 11
-448.20698341
 21
702.6179312
 31
0.0
  0
LINE
  5
2C0
100
AcDbEntity
  8
ZUWAKU
  6
CONTINUOUS
 62
       7
100
AcDbLine
 10
-434.14655553
 20
718.09257265
 30
0.0
 11
-447.96710924
 21
704.27201893
 31
0.0
  0
LINE
  5
2C1
100
AcDbEntity
  8
ZUWAKU
  6
CONTINUOUS
 62
       7
100
AcDbLine
 10
-437.27007916
 20
716.38326258
 30
0.0
 11
-447.27572926
 21
706.37761247
 31
0.0
  0
LINE
  5
2C2
100
AcDbEntity
  8
ZUWAKU
  6
CONTINUOUS
 62
       7
100
AcDbLine
 10
-442.13890878
 20
712.92864652
 30
0.0
 11
-444.83904329
 21
710.228512
 31
0.0
  0
LINE
  5
2C3
100
AcDbEntity
  8
ZUWAKU
  6
CONTINUOUS
 62
       7
100
AcDbLine
 10
-389.22554443
 20
727.65824468
 30
0.0
 11
-402.59067225
 21
714.29311686
 31
0.0
  0
LINE
  5
2C4
100
AcDbEntity
  8
ZUWAKU
  6
CONTINUOUS
 62
       7
100
AcDbLine
 10
-387.77292767
 20
727.69664789
 30
0.0
 11
-401.17645869
 21
714.29311686
 31
0.0
  0
LINE
  5
2C5
100
AcDbEntity
  8
ZUWAKU
  6
CONTINUOUS
 62
       7
100
AcDbLine
 10
-386.33387095
 20
727.72149104
 30
0.0
 11
-399.76224512
 21
714.29311686
 31
0.0
  0
LINE
  5
2C6
100
AcDbEntity
  8
ZUWAKU
  6
CONTINUOUS
 62
       7
100
AcDbLine
 10
-384.9079638
 20
727.73318463
 30
0.0
 11
-398.34803156
 21
714.29311686
 31
0.0
  0
LINE
  5
2C7
100
AcDbEntity
  8
ZUWAKU
  6
CONTINUOUS
 62
       7
100
AcDbLine
 10
-383.49483494
 20
727.73209992
 30
0.0
 11
-396.933818
 21
714.29311686
 31
0.0
  0
LINE
  5
2C8
100
AcDbEntity
  8
ZUWAKU
  6
CONTINUOUS
 62
       7
100
AcDbLine
 10
-382.09414835
 20
727.71857296
 30
0.0
 11
-395.51960444
 21
714.29311686
 31
0.0
  0
LINE
  5
2C9
100
AcDbEntity
  8
ZUWAKU
  6
CONTINUOUS
 62
       7
100
AcDbLine
 10
-380.70559981
 20
727.69290793
 30
0.0
 11
-394.10539087
 21
714.29311686
 31
0.0
  0
LINE
  5
2CA
100
AcDbEntity
  8
ZUWAKU
  6
CONTINUOUS
 62
       7
100
AcDbLine
 10
-379.32891404
 20
727.65538014
 30
0.0
 11
-392.69117731
 21
714.29311686
 31
0.0
  0
LINE
  5
2CB
100
AcDbEntity
  8
ZUWAKU
  6
CONTINUOUS
 62
       7
100
AcDbLine
 10
-377.96384209
 20
727.60623852
 30
0.0
 11
-391.27696375
 21
714.29311686
 31
0.0
  0
LINE
  5
2CC
100
AcDbEntity
  8
ZUWAKU
  6
CONTINUOUS
 62
       7
100
AcDbLine
 10
-376.61015924
 20
727.54570781
 30
0.0
 11
-389.86275019
 21
714.29311686
 31
0.0
  0
LINE
  5
2CD
100
AcDbEntity
  8
ZUWAKU
  6
CONTINUOUS
 62
       7
100
AcDbLine
 10
-375.26766306
 20
727.47399043
 30
0.0
 11
-388.44853662
 21
714.29311686
 31
0.0
  0
LINE
  5
2CE
100
AcDbEntity
  8
ZUWAKU
  6
CONTINUOUS
 62
       7
100
AcDbLine
 10
-373.93617177
 20
727.39126816
 30
0.0
 11
-387.03432306
 21
714.29311686
 31
0.0
  0
LINE
  5
2CF
100
AcDbEntity
  8
ZUWAKU
  6
CONTINUOUS
 62
       7
100
AcDbLine
 10
-372.61552286
 20
727.2977035
 30
0.0
 11
-385.6201095
 21
714.29311686
 31
0.0
  0
LINE
  5
2D0
100
AcDbEntity
  8
ZUWAKU
  6
CONTINUOUS
 62
       7
100
AcDbLine
 10
-371.30557183
 20
727.19344097
 30
0.0
 11
-384.20589594
 21
714.29311686
 31
0.0
  0
LINE
  5
2D1
100
AcDbEntity
  8
ZUWAKU
  6
CONTINUOUS
 62
       7
100
AcDbLine
 10
-370.00619114
 20
727.0786081
 30
0.0
 11
-382.79168238
 21
714.29311686
 31
0.0
  0
LINE
  5
2D2
100
AcDbEntity
  8
ZUWAKU
  6
CONTINUOUS
 62
       7
100
AcDbLine
 10
-368.7172693
 20
726.95331638
 30
0.0
 11
-381.37746881
 21
714.29311686
 31
0.0
  0
LINE
  5
2D3
100
AcDbEntity
  8
ZUWAKU
  6
CONTINUOUS
 62
       7
100
AcDbLine
 10
-367.43871012
 20
726.817662
 30
0.0
 11
-379.96325525
 21
714.29311686
 31
0.0
  0
LINE
  5
2D4
100
AcDbEntity
  8
ZUWAKU
  6
CONTINUOUS
 62
       7
100
AcDbLine
 10
-366.17043199
 20
726.67172656
 30
0.0
 11
-378.54904169
 21
714.29311686
 31
0.0
  0
LINE
  5
2D5
100
AcDbEntity
  8
ZUWAKU
  6
CONTINUOUS
 62
       7
100
AcDbLine
 10
-364.91236744
 20
726.51557756
 30
0.0
 11
-377.13482813
 21
714.29311686
 31
0.0
  0
LINE
  5
2D6
100
AcDbEntity
  8
ZUWAKU
  6
CONTINUOUS
 62
       7
100
AcDbLine
 10
-363.66446257
 20
726.34926886
 30
0.0
 11
-375.72061456
 21
714.29311686
 31
0.0
  0
LINE
  5
2D7
100
AcDbEntity
  8
ZUWAKU
  6
CONTINUOUS
 62
       7
100
AcDbLine
 10
-362.42667681
 20
726.17284106
 30
0.0
 11
-374.306401
 21
714.29311686
 31
0.0
  0
LINE
  5
2D8
100
AcDbEntity
  8
ZUWAKU
  6
CONTINUOUS
 62
       7
100
AcDbLine
 10
-361.19898259
 20
725.98632171
 30
0.0
 11
-372.89218744
 21
714.29311686
 31
0.0
  0
LINE
  5
2D9
100
AcDbEntity
  8
ZUWAKU
  6
CONTINUOUS
 62
       7
100
AcDbLine
 10
-359.98136522
 20
725.78972552
 30
0.0
 11
-371.47797388
 21
714.29311686
 31
0.0
  0
LINE
  5
2DA
100
AcDbEntity
  8
ZUWAKU
  6
CONTINUOUS
 62
       7
100
AcDbLine
 10
-358.77382273
 20
725.58305445
 30
0.0
 11
-370.06376031
 21
714.29311686
 31
0.0
  0
LINE
  5
2DB
100
AcDbEntity
  8
ZUWAKU
  6
CONTINUOUS
 62
       7
100
AcDbLine
 10
-357.57636592
 20
725.3662977
 30
0.0
 11
-368.64954675
 21
714.29311686
 31
0.0
  0
LINE
  5
2DC
100
AcDbEntity
  8
ZUWAKU
  6
CONTINUOUS
 62
       7
100
AcDbLine
 10
-356.38901837
 20
725.13943168
 30
0.0
 11
-367.23533319
 21
714.29311686
 31
0.0
  0
LINE
  5
2DD
100
AcDbEntity
  8
ZUWAKU
  6
CONTINUOUS
 62
       7
100
AcDbLine
 10
-355.21181667
 20
724.90241982
 30
0.0
 11
-365.82111963
 21
714.29311686
 31
0.0
  0
LINE
  5
2DE
100
AcDbEntity
  8
ZUWAKU
  6
CONTINUOUS
 62
       7
100
AcDbLine
 10
-354.04481057
 20
724.65521236
 30
0.0
 11
-364.40690606
 21
714.29311686
 31
0.0
  0
LINE
  5
2DF
100
AcDbEntity
  8
ZUWAKU
  6
CONTINUOUS
 62
       7
100
AcDbLine
 10
-352.88806335
 20
724.39774602
 30
0.0
 11
-362.9926925
 21
714.29311686
 31
0.0
  0
LINE
  5
2E0
100
AcDbEntity
  8
ZUWAKU
  6
CONTINUOUS
 62
       7
100
AcDbLine
 10
-351.74165221
 20
724.12994359
 30
0.0
 11
-361.57847894
 21
714.29311686
 31
0.0
  0
LINE
  5
2E1
100
AcDbEntity
  8
ZUWAKU
  6
CONTINUOUS
 62
       7
100
AcDbLine
 10
-350.60566882
 20
723.85171343
 30
0.0
 11
-360.16426538
 21
714.29311686
 31
0.0
  0
LINE
  5
2E2
100
AcDbEntity
  8
ZUWAKU
  6
CONTINUOUS
 62
       7
100
AcDbLine
 10
-349.48021988
 20
723.5629488
 30
0.0
 11
-358.75005181
 21
714.29311686
 31
0.0
  0
LINE
  5
2E3
100
AcDbEntity
  8
ZUWAKU
  6
CONTINUOUS
 62
       7
100
AcDbLine
 10
-348.36542794
 20
723.26352718
 30
0.0
 11
-357.33583825
 21
714.29311686
 31
0.0
  0
LINE
  5
2E4
100
AcDbEntity
  8
ZUWAKU
  6
CONTINUOUS
 62
       7
100
AcDbLine
 10
-347.26143216
 20
722.95330939
 30
0.0
 11
-355.92162469
 21
714.29311686
 31
0.0
  0
LINE
  5
2E5
100
AcDbEntity
  8
ZUWAKU
  6
CONTINUOUS
 62
       7
100
AcDbLine
 10
-346.16838943
 20
722.63213856
 30
0.0
 11
-354.50741113
 21
714.29311686
 31
0.0
  0
LINE
  5
2E6
100
AcDbEntity
  8
ZUWAKU
  6
CONTINUOUS
 62
       7
100
AcDbLine
 10
-345.08647546
 20
722.29983897
 30
0.0
 11
-353.09319757
 21
714.29311686
 31
0.0
  0
LINE
  5
2E7
100
AcDbEntity
  8
ZUWAKU
  6
CONTINUOUS
 62
       7
100
AcDbLine
 10
-344.01588617
 20
721.95621469
 30
0.0
 11
-351.678984
 21
714.29311686
 31
0.0
  0
LINE
  5
2E8
100
AcDbEntity
  8
ZUWAKU
  6
CONTINUOUS
 62
       7
100
AcDbLine
 10
-342.95683928
 20
721.60104802
 30
0.0
 11
-350.26477044
 21
714.29311686
 31
0.0
  0
LINE
  5
2E9
100
AcDbEntity
  8
ZUWAKU
  6
CONTINUOUS
 62
       7
100
AcDbLine
 10
-341.90957607
 20
721.23409767
 30
0.0
 11
-348.85055688
 21
714.29311686
 31
0.0
  0
LINE
  5
2EA
100
AcDbEntity
  8
ZUWAKU
  6
CONTINUOUS
 62
       7
100
AcDbLine
 10
-340.87436349
 20
720.85509669
 30
0.0
 11
-347.43634332
 21
714.29311686
 31
0.0
  0
LINE
  5
2EB
100
AcDbEntity
  8
ZUWAKU
  6
CONTINUOUS
 62
       7
100
AcDbLine
 10
-339.85149659
 20
720.46375003
 30
0.0
 11
-346.02212975
 21
714.29311686
 31
0.0
  0
LINE
  5
2EC
100
AcDbEntity
  8
ZUWAKU
  6
CONTINUOUS
 62
       7
100
AcDbLine
 10
-338.84130129
 20
720.05973177
 30
0.0
 11
-344.60791619
 21
714.29311686
 31
0.0
  0
LINE
  5
2ED
100
AcDbEntity
  8
ZUWAKU
  6
CONTINUOUS
 62
       7
100
AcDbLine
 10
-337.84413766
 20
719.64268184
 30
0.0
 11
-343.19370263
 21
714.29311686
 31
0.0
  0
LINE
  5
2EE
100
AcDbEntity
  8
ZUWAKU
  6
CONTINUOUS
 62
       7
100
AcDbLine
 10
-336.86040368
 20
719.21220225
 30
0.0
 11
-341.77948907
 21
714.29311686
 31
0.0
  0
LINE
  5
2EF
100
AcDbEntity
  8
ZUWAKU
  6
CONTINUOUS
 62
       7
100
AcDbLine
 10
-335.89053971
 20
718.76785266
 30
0.0
 11
-340.3652755
 21
714.29311686
 31
0.0
  0
LINE
  5
2F0
100
AcDbEntity
  8
ZUWAKU
  6
CONTINUOUS
 62
       7
100
AcDbLine
 10
-334.93503365
 20
718.30914516
 30
0.0
 11
-338.95106194
 21
714.29311686
 31
0.0
  0
LINE
  5
2F1
100
AcDbEntity
  8
ZUWAKU
  6
CONTINUOUS
 62
       7
100
AcDbLine
 10
-333.99442714
 20
717.8355381
 30
0.0
 11
-337.53684838
 21
714.29311686
 31
0.0
  0
LINE
  5
2F2
100
AcDbEntity
  8
ZUWAKU
  6
CONTINUOUS
 62
       7
100
AcDbLine
 10
-333.06932285
 20
717.34642883
 30
0.0
 11
-336.12263482
 21
714.29311686
 31
0.0
  0
LINE
  5
2F3
100
AcDbEntity
  8
ZUWAKU
  6
CONTINUOUS
 62
       7
100
AcDbLine
 10
-332.16039322
 20
716.8411449
 30
0.0
 11
-334.70842125
 21
714.29311686
 31
0.0
  0
LINE
  5
2F4
100
AcDbEntity
  8
ZUWAKU
  6
CONTINUOUS
 62
       7
100
AcDbLine
 10
-331.26839098
 20
716.31893358
 30
0.0
 11
-333.29420769
 21
714.29311686
 31
0.0
  0
LINE
  5
2F5
100
AcDbEntity
  8
ZUWAKU
  6
CONTINUOUS
 62
       7
100
AcDbLine
 10
-330.39416192
 20
715.77894907
 30
0.0
 11
-332.60416667
 21
713.56894433
 31
0.0
  0
LINE
  5
2F6
100
AcDbEntity
  8
ZUWAKU
  6
CONTINUOUS
 62
       7
100
AcDbLine
 10
-329.53866047
 20
715.22023696
 30
0.0
 11
-332.60416667
 21
712.15473077
 31
0.0
  0
LINE
  5
2F7
100
AcDbEntity
  8
ZUWAKU
  6
CONTINUOUS
 62
       7
100
AcDbLine
 10
-328.70296895
 20
714.64171492
 30
0.0
 11
-332.60416667
 21
710.7405172
 31
0.0
  0
LINE
  5
2F8
100
AcDbEntity
  8
ZUWAKU
  6
CONTINUOUS
 62
       7
100
AcDbLine
 10
-327.88832162
 20
714.04214869
 30
0.0
 11
-332.60416667
 21
709.32630364
 31
0.0
  0
LINE
  5
2F9
100
AcDbEntity
  8
ZUWAKU
  6
CONTINUOUS
 62
       7
100
AcDbLine
 10
-327.09613493
 20
713.42012181
 30
0.0
 11
-332.60416667
 21
707.91209008
 31
0.0
  0
LINE
  5
2FA
100
AcDbEntity
  8
ZUWAKU
  6
CONTINUOUS
 62
       7
100
AcDbLine
 10
-326.32804628
 20
712.77399691
 30
0.0
 11
-332.60416667
 21
706.49787652
 31
0.0
  0
LINE
  5
2FB
100
AcDbEntity
  8
ZUWAKU
  6
CONTINUOUS
 62
       7
100
AcDbLine
 10
-325.5859641
 20
712.10186552
 30
0.0
 11
-332.60416667
 21
705.08366295
 31
0.0
  0
LINE
  5
2FC
100
AcDbEntity
  8
ZUWAKU
  6
CONTINUOUS
 62
       7
100
AcDbLine
 10
-324.87213401
 20
711.40148205
 30
0.0
 11
-332.60416667
 21
703.66944939
 31
0.0
  0
LINE
  5
2FD
100
AcDbEntity
  8
ZUWAKU
  6
CONTINUOUS
 62
       7
100
AcDbLine
 10
-324.18922737
 20
710.67017512
 30
0.0
 11
-332.60416667
 21
702.25523583
 31
0.0
  0
LINE
  5
2FE
100
AcDbEntity
  8
ZUWAKU
  6
CONTINUOUS
 62
       7
100
AcDbLine
 10
-323.54046269
 20
709.90472624
 30
0.0
 11
-331.33957207
 21
702.10561686
 31
0.0
  0
LINE
  5
2FF
100
AcDbEntity
  8
ZUWAKU
  6
CONTINUOUS
 62
       7
100
AcDbLine
 10
-322.92977598
 20
709.10119939
 30
0.0
 11
-329.92535851
 21
702.10561686
 31
0.0
  0
LINE
  5
300
100
AcDbEntity
  8
ZUWAKU
  6
CONTINUOUS
 62
       7
100
AcDbLine
 10
-322.36206666
 20
708.25469515
 30
0.0
 11
-328.51114494
 21
702.10561686
 31
0.0
  0
LINE
  5
301
100
AcDbEntity
  8
ZUWAKU
  6
CONTINUOUS
 62
       7
100
AcDbLine
 10
-321.84356471
 20
707.35898354
 30
0.0
 11
-327.09693138
 21
702.10561686
 31
0.0
  0
LINE
  5
302
100
AcDbEntity
  8
ZUWAKU
  6
CONTINUOUS
 62
       7
100
AcDbLine
 10
-321.38240147
 20
706.40593321
 30
0.0
 11
-325.68271782
 21
702.10561686
 31
0.0
  0
LINE
  5
303
100
AcDbEntity
  8
ZUWAKU
  6
CONTINUOUS
 62
       7
100
AcDbLine
 10
-320.98954236
 20
705.38457876
 30
0.0
 11
-324.26850426
 21
702.10561686
 31
0.0
  0
LINE
  5
304
100
AcDbEntity
  8
ZUWAKU
  6
CONTINUOUS
 62
       7
100
AcDbLine
 10
-320.68040988
 20
704.27949768
 30
0.0
 11
-322.85429069
 21
702.10561686
 31
0.0
  0
LINE
  5
305
100
AcDbEntity
  8
ZUWAKU
  6
CONTINUOUS
 62
       7
100
AcDbLine
 10
-320.47795016
 20
703.06774383
 30
0.0
 11
-321.44007713
 21
702.10561686
 31
0.0
  0
LINE
  5
306
100
AcDbEntity
  8
ZUWAKU
  6
CONTINUOUS
 62
       7
100
AcDbLine
 10
-364.47363728
 20
689.91811686
 30
0.0
 11
-378.12791929
 21
676.26383486
 31
0.0
  0
LINE
  5
307
100
AcDbEntity
  8
ZUWAKU
  6
CONTINUOUS
 62
       7
100
AcDbLine
 10
-365.88785085
 20
689.91811686
 30
0.0
 11
-379.59286717
 21
676.21310054
 31
0.0
  0
LINE
  5
308
100
AcDbEntity
  8
ZUWAKU
  6
CONTINUOUS
 62
       7
100
AcDbLine
 10
-367.30206441
 20
689.91811686
 30
0.0
 11
-381.04385687
 21
676.1763244
 31
0.0
  0
LINE
  5
309
100
AcDbEntity
  8
ZUWAKU
  6
CONTINUOUS
 62
       7
100
AcDbLine
 10
-368.71627797
 20
689.91811686
 30
0.0
 11
-382.48133728
 21
676.15305755
 31
0.0
  0
LINE
  5
30A
100
AcDbEntity
  8
ZUWAKU
  6
CONTINUOUS
 62
       7
100
AcDbLine
 10
-370.13049153
 20
689.91811686
 30
0.0
 11
-383.90571401
 21
676.14289439
 31
0.0
  0
LINE
  5
30B
100
AcDbEntity
  8
ZUWAKU
  6
CONTINUOUS
 62
       7
100
AcDbLine
 10
-371.5447051
 20
689.91811686
 30
0.0
 11
-385.31735397
 21
676.14546799
 31
0.0
  0
LINE
  5
30C
100
AcDbEntity
  8
ZUWAKU
  6
CONTINUOUS
 62
       7
100
AcDbLine
 10
-372.95891866
 20
689.91811686
 30
0.0
 11
-386.71658925
 21
676.16044627
 31
0.0
  0
LINE
  5
30D
100
AcDbEntity
  8
ZUWAKU
  6
CONTINUOUS
 62
       7
100
AcDbLine
 10
-374.37313222
 20
689.91811686
 30
0.0
 11
-388.1037205
 21
676.18752859
 31
0.0
  0
LINE
  5
30E
100
AcDbEntity
  8
ZUWAKU
  6
CONTINUOUS
 62
       7
100
AcDbLine
 10
-375.78734578
 20
689.91811686
 30
0.0
 11
-389.47901977
 21
676.22644288
 31
0.0
  0
LINE
  5
30F
100
AcDbEntity
  8
ZUWAKU
  6
CONTINUOUS
 62
       7
100
AcDbLine
 10
-377.20155935
 20
689.91811686
 30
0.0
 11
-390.84273302
 21
676.27694319
 31
0.0
  0
LINE
  5
310
100
AcDbEntity
  8
ZUWAKU
  6
CONTINUOUS
 62
       7
100
AcDbLine
 10
-378.61577291
 20
689.91811686
 30
0.0
 11
-392.19508225
 21
676.33880752
 31
0.0
  0
LINE
  5
311
100
AcDbEntity
  8
ZUWAKU
  6
CONTINUOUS
 62
       7
100
AcDbLine
 10
-380.02998647
 20
689.91811686
 30
0.0
 11
-393.53626737
 21
676.41183597
 31
0.0
  0
LINE
  5
312
100
AcDbEntity
  8
ZUWAKU
  6
CONTINUOUS
 62
       7
100
AcDbLine
 10
-381.44420003
 20
689.91811686
 30
0.0
 11
-394.8664678
 21
676.4958491
 31
0.0
  0
LINE
  5
313
100
AcDbEntity
  8
ZUWAKU
  6
CONTINUOUS
 62
       7
100
AcDbLine
 10
-382.85841359
 20
689.91811686
 30
0.0
 11
-396.18584386
 21
676.5906866
 31
0.0
  0
LINE
  5
314
100
AcDbEntity
  8
ZUWAKU
  6
CONTINUOUS
 62
       7
100
AcDbLine
 10
-384.27262716
 20
689.91811686
 30
0.0
 11
-397.494538
 21
676.69620602
 31
0.0
  0
LINE
  5
315
100
AcDbEntity
  8
ZUWAKU
  6
CONTINUOUS
 62
       7
100
AcDbLine
 10
-385.68684072
 20
689.91811686
 30
0.0
 11
-398.79267581
 21
676.81228177
 31
0.0
  0
LINE
  5
316
100
AcDbEntity
  8
ZUWAKU
  6
CONTINUOUS
 62
       7
100
AcDbLine
 10
-387.10105428
 20
689.91811686
 30
0.0
 11
-400.08036693
 21
676.93880421
 31
0.0
  0
LINE
  5
317
100
AcDbEntity
  8
ZUWAKU
  6
CONTINUOUS
 62
       7
100
AcDbLine
 10
-388.51526784
 20
689.91811686
 30
0.0
 11
-401.35770581
 21
677.0756789
 31
0.0
  0
LINE
  5
318
100
AcDbEntity
  8
ZUWAKU
  6
CONTINUOUS
 62
       7
100
AcDbLine
 10
-389.92948141
 20
689.91811686
 30
0.0
 11
-402.62477233
 21
677.22282594
 31
0.0
  0
LINE
  5
319
100
AcDbEntity
  8
ZUWAKU
  6
CONTINUOUS
 62
       7
100
AcDbLine
 10
-391.34369497
 20
689.91811686
 30
0.0
 11
-403.88163236
 21
677.38017947
 31
0.0
  0
LINE
  5
31A
100
AcDbEntity
  8
ZUWAKU
  6
CONTINUOUS
 62
       7
100
AcDbLine
 10
-392.75790853
 20
689.91811686
 30
0.0
 11
-405.12833819
 21
677.5476872
 31
0.0
  0
LINE
  5
31B
100
AcDbEntity
  8
ZUWAKU
  6
CONTINUOUS
 62
       7
100
AcDbLine
 10
-394.17212209
 20
689.91811686
 30
0.0
 11
-406.36492886
 21
677.7253101
 31
0.0
  0
LINE
  5
31C
100
AcDbEntity
  8
ZUWAKU
  6
CONTINUOUS
 62
       7
100
AcDbLine
 10
-395.58633566
 20
689.91811686
 30
0.0
 11
-407.59143038
 21
677.91302215
 31
0.0
  0
LINE
  5
31D
100
AcDbEntity
  8
ZUWAKU
  6
CONTINUOUS
 62
       7
100
AcDbLine
 10
-397.00054922
 20
689.91811686
 30
0.0
 11
-408.80785595
 21
678.11081013
 31
0.0
  0
LINE
  5
31E
100
AcDbEntity
  8
ZUWAKU
  6
CONTINUOUS
 62
       7
100
AcDbLine
 10
-398.41476278
 20
689.91811686
 30
0.0
 11
-410.01420603
 21
678.31867361
 31
0.0
  0
LINE
  5
31F
100
AcDbEntity
  8
ZUWAKU
  6
CONTINUOUS
 62
       7
100
AcDbLine
 10
-399.82897634
 20
689.91811686
 30
0.0
 11
-411.21046832
 21
678.53662489
 31
0.0
  0
LINE
  5
320
100
AcDbEntity
  8
ZUWAKU
  6
CONTINUOUS
 62
       7
100
AcDbLine
 10
-401.24318991
 20
689.91811686
 30
0.0
 11
-412.39661768
 21
678.76468909
 31
0.0
  0
LINE
  5
321
100
AcDbEntity
  8
ZUWAKU
  6
CONTINUOUS
 62
       7
100
AcDbLine
 10
-402.65740347
 20
689.91811686
 30
0.0
 11
-413.57261602
 21
679.00290432
 31
0.0
  0
LINE
  5
322
100
AcDbEntity
  8
ZUWAKU
  6
CONTINUOUS
 62
       7
100
AcDbLine
 10
-404.07161703
 20
689.91811686
 30
0.0
 11
-414.73841197
 21
679.25132192
 31
0.0
  0
LINE
  5
323
100
AcDbEntity
  8
ZUWAKU
  6
CONTINUOUS
 62
       7
100
AcDbLine
 10
-405.48583059
 20
689.91811686
 30
0.0
 11
-415.89394066
 21
679.5100068
 31
0.0
  0
LINE
  5
324
100
AcDbEntity
  8
ZUWAKU
  6
CONTINUOUS
 62
       7
100
AcDbLine
 10
-406.90004416
 20
689.91811686
 30
0.0
 11
-417.03912317
 21
679.77903785
 31
0.0
  0
LINE
  5
325
100
AcDbEntity
  8
ZUWAKU
  6
CONTINUOUS
 62
       7
100
AcDbLine
 10
-408.31425772
 20
689.91811686
 30
0.0
 11
-418.17386612
 21
680.05850846
 31
0.0
  0
LINE
  5
326
100
AcDbEntity
  8
ZUWAKU
  6
CONTINUOUS
 62
       7
100
AcDbLine
 10
-409.72847128
 20
689.91811686
 30
0.0
 11
-419.29806095
 21
680.3485272
 31
0.0
  0
LINE
  5
327
100
AcDbEntity
  8
ZUWAKU
  6
CONTINUOUS
 62
       7
100
AcDbLine
 10
-411.14268484
 20
689.91811686
 30
0.0
 11
-420.41158321
 21
680.64921849
 31
0.0
  0
LINE
  5
328
100
AcDbEntity
  8
ZUWAKU
  6
CONTINUOUS
 62
       7
100
AcDbLine
 10
-412.5568984
 20
689.91811686
 30
0.0
 11
-421.51429169
 21
680.96072358
 31
0.0
  0
LINE
  5
329
100
AcDbEntity
  8
ZUWAKU
  6
CONTINUOUS
 62
       7
100
AcDbLine
 10
-413.97111197
 20
689.91811686
 30
0.0
 11
-422.60602734
 21
681.28320149
 31
0.0
  0
LINE
  5
32A
100
AcDbEntity
  8
ZUWAKU
  6
CONTINUOUS
 62
       7
100
AcDbLine
 10
-415.38532553
 20
689.91811686
 30
0.0
 11
-423.68661214
 21
681.61683026
 31
0.0
  0
LINE
  5
32B
100
AcDbEntity
  8
ZUWAKU
  6
CONTINUOUS
 62
       7
100
AcDbLine
 10
-416.79953909
 20
689.91811686
 30
0.0
 11
-424.75584765
 21
681.9618083
 31
0.0
  0
LINE
  5
32C
100
AcDbEntity
  8
ZUWAKU
  6
CONTINUOUS
 62
       7
100
AcDbLine
 10
-418.21375265
 20
689.91811686
 30
0.0
 11
-425.8135135
 21
682.31835602
 31
0.0
  0
LINE
  5
32D
100
AcDbEntity
  8
ZUWAKU
  6
CONTINUOUS
 62
       7
100
AcDbLine
 10
-419.62796622
 20
689.91811686
 30
0.0
 11
-426.85936547
 21
682.68671761
 31
0.0
  0
LINE
  5
32E
100
AcDbEntity
  8
ZUWAKU
  6
CONTINUOUS
 62
       7
100
AcDbLine
 10
-421.04217978
 20
689.91811686
 30
0.0
 11
-427.89313342
 21
683.06716323
 31
0.0
  0
LINE
  5
32F
100
AcDbEntity
  8
ZUWAKU
  6
CONTINUOUS
 62
       7
100
AcDbLine
 10
-422.45639334
 20
689.91811686
 30
0.0
 11
-428.91451879
 21
683.45999141
 31
0.0
  0
LINE
  5
330
100
AcDbEntity
  8
ZUWAKU
  6
CONTINUOUS
 62
       7
100
AcDbLine
 10
-423.8706069
 20
689.91811686
 30
0.0
 11
-429.92319182
 21
683.86553195
 31
0.0
  0
LINE
  5
331
100
AcDbEntity
  8
ZUWAKU
  6
CONTINUOUS
 62
       7
100
AcDbLine
 10
-425.28482047
 20
689.91811686
 30
0.0
 11
-430.91878815
 21
684.28414918
 31
0.0
  0
LINE
  5
332
100
AcDbEntity
  8
ZUWAKU
  6
CONTINUOUS
 62
       7
100
AcDbLine
 10
-426.69903403
 20
689.91811686
 30
0.0
 11
-431.90090502
 21
684.71624587
 31
0.0
  0
LINE
  5
333
100
AcDbEntity
  8
ZUWAKU
  6
CONTINUOUS
 62
       7
100
AcDbLine
 10
-428.11324759
 20
689.91811686
 30
0.0
 11
-432.86909677
 21
685.16226769
 31
0.0
  0
LINE
  5
334
100
AcDbEntity
  8
ZUWAKU
  6
CONTINUOUS
 62
       7
100
AcDbLine
 10
-429.52746115
 20
689.91811686
 30
0.0
 11
-433.82286945
 21
685.62270857
 31
0.0
  0
LINE
  5
335
100
AcDbEntity
  8
ZUWAKU
  6
CONTINUOUS
 62
       7
100
AcDbLine
 10
-430.94167472
 20
689.91811686
 30
0.0
 11
-434.76167463
 21
686.09811695
 31
0.0
  0
LINE
  5
336
100
AcDbEntity
  8
ZUWAKU
  6
CONTINUOUS
 62
       7
100
AcDbLine
 10
-432.35588828
 20
689.91811686
 30
0.0
 11
-435.68490185
 21
686.58910329
 31
0.0
  0
LINE
  5
337
100
AcDbEntity
  8
ZUWAKU
  6
CONTINUOUS
 62
       7
100
AcDbLine
 10
-433.77010184
 20
689.91811686
 30
0.0
 11
-436.59186977
 21
687.09634893
 31
0.0
  0
LINE
  5
338
100
AcDbEntity
  8
ZUWAKU
  6
CONTINUOUS
 62
       7
100
AcDbLine
 10
-435.1843154
 20
689.91811686
 30
0.0
 11
-437.48181536
 21
687.6206169
 31
0.0
  0
LINE
  5
339
100
AcDbEntity
  8
ZUWAKU
  6
CONTINUOUS
 62
       7
100
AcDbLine
 10
-435.72916667
 20
690.78747916
 30
0.0
 11
-438.35388087
 21
688.16276496
 31
0.0
  0
LINE
  5
33A
100
AcDbEntity
  8
ZUWAKU
  6
CONTINUOUS
 62
       7
100
AcDbLine
 10
-435.72916667
 20
692.20169273
 30
0.0
 11
-439.2070978
 21
688.72376159
 31
0.0
  0
LINE
  5
33B
100
AcDbEntity
  8
ZUWAKU
  6
CONTINUOUS
 62
       7
100
AcDbLine
 10
-435.72916667
 20
693.61590629
 30
0.0
 11
-440.04036723
 21
689.30470573
 31
0.0
  0
LINE
  5
33C
100
AcDbEntity
  8
ZUWAKU
  6
CONTINUOUS
 62
       7
100
AcDbLine
 10
-435.72916667
 20
695.03011985
 30
0.0
 11
-440.85243506
 21
689.90685146
 31
0.0
  0
LINE
  5
33D
100
AcDbEntity
  8
ZUWAKU
  6
CONTINUOUS
 62
       7
100
AcDbLine
 10
-435.72916667
 20
696.44433341
 30
0.0
 11
-441.64186091
 21
690.53163917
 31
0.0
  0
LINE
  5
33E
100
AcDbEntity
  8
ZUWAKU
  6
CONTINUOUS
 62
       7
100
AcDbLine
 10
-435.72916667
 20
697.85854697
 30
0.0
 11
-442.4069782
 21
691.18073544
 31
0.0
  0
LINE
  5
33F
100
AcDbEntity
  8
ZUWAKU
  6
CONTINUOUS
 62
       7
100
AcDbLine
 10
-435.72916667
 20
699.27276054
 30
0.0
 11
-443.1458424
 21
691.8560848
 31
0.0
  0
LINE
  5
340
100
AcDbEntity
  8
ZUWAKU
  6
CONTINUOUS
 62
       7
100
AcDbLine
 10
-435.72916667
 20
700.6869741
 30
0.0
 11
-443.85616269
 21
692.55997808
 31
0.0
  0
LINE
  5
341
100
AcDbEntity
  8
ZUWAKU
  6
CONTINUOUS
 62
       7
100
AcDbLine
 10
-435.72473746
 20
702.10561686
 30
0.0
 11
-444.53521008
 21
693.29514425
 31
0.0
  0
LINE
  5
342
100
AcDbEntity
  8
ZUWAKU
  6
CONTINUOUS
 62
       7
100
AcDbLine
 10
-437.13895103
 20
702.10561686
 30
0.0
 11
-445.17969122
 21
694.06487667
 31
0.0
  0
LINE
  5
343
100
AcDbEntity
  8
ZUWAKU
  6
CONTINUOUS
 62
       7
100
AcDbLine
 10
-438.55316459
 20
702.10561686
 30
0.0
 11
-445.7855708
 21
694.87321066
 31
0.0
  0
LINE
  5
344
100
AcDbEntity
  8
ZUWAKU
  6
CONTINUOUS
 62
       7
100
AcDbLine
 10
-439.96737815
 20
702.10561686
 30
0.0
 11
-446.34781413
 21
695.72518088
 31
0.0
  0
LINE
  5
345
100
AcDbEntity
  8
ZUWAKU
  6
CONTINUOUS
 62
       7
100
AcDbLine
 10
-441.38159171
 20
702.10561686
 30
0.0
 11
-446.86000125
 21
696.62720733
 31
0.0
  0
LINE
  5
346
100
AcDbEntity
  8
ZUWAKU
  6
CONTINUOUS
 62
       7
100
AcDbLine
 10
-442.79580528
 20
702.10561686
 30
0.0
 11
-447.31372359
 21
697.58769855
 31
0.0
  0
LINE
  5
347
100
AcDbEntity
  8
ZUWAKU
  6
CONTINUOUS
 62
       7
100
AcDbLine
 10
-444.21001884
 20
702.10561686
 30
0.0
 11
-447.69759179
 21
698.61804392
 31
0.0
  0
LINE
  5
348
100
AcDbEntity
  8
ZUWAKU
  6
CONTINUOUS
 62
       7
100
AcDbLine
 10
-445.6242324
 20
702.10561686
 30
0.0
 11
-447.99549392
 21
699.73435534
 31
0.0
  0
LINE
  5
349
100
AcDbEntity
  8
ZUWAKU
  6
CONTINUOUS
 62
       7
100
AcDbLine
 10
-447.03844596
 20
702.10561686
 30
0.0
 11
-448.18326717
 21
700.96079565
 31
0.0
  0
LINE
  5
34A
100
AcDbEntity
  8
ZUWAKU
  6
CONTINUOUS
 62
       7
100
AcDbLine
 10
-363.05942372
 20
689.91811686
 30
0.0
 11
-376.64851569
 21
676.3290249
 31
0.0
  0
LINE
  5
34B
100
AcDbEntity
  8
ZUWAKU
  6
CONTINUOUS
 62
       7
100
AcDbLine
 10
-361.64521016
 20
689.91811686
 30
0.0
 11
-375.15410382
 21
676.40922321
 31
0.0
  0
LINE
  5
34C
100
AcDbEntity
  8
ZUWAKU
  6
CONTINUOUS
 62
       7
100
AcDbLine
 10
-360.2309966
 20
689.91811686
 30
0.0
 11
-373.64406858
 21
676.50504488
 31
0.0
  0
LINE
  5
34D
100
AcDbEntity
  8
ZUWAKU
  6
CONTINUOUS
 62
       7
100
AcDbLine
 10
-358.81678303
 20
689.91811686
 30
0.0
 11
-372.11772325
 21
676.61717665
 31
0.0
  0
LINE
  5
34E
100
AcDbEntity
  8
ZUWAKU
  6
CONTINUOUS
 62
       7
100
AcDbLine
 10
-357.40256947
 20
689.91811686
 30
0.0
 11
-370.57429861
 21
676.74638773
 31
0.0
  0
LINE
  5
34F
100
AcDbEntity
  8
ZUWAKU
  6
CONTINUOUS
 62
       7
100
AcDbLine
 10
-355.98835591
 20
689.91811686
 30
0.0
 11
-369.01292968
 21
676.8935431
 31
0.0
  0
LINE
  5
350
100
AcDbEntity
  8
ZUWAKU
  6
CONTINUOUS
 62
       7
100
AcDbLine
 10
-354.57414235
 20
689.91811686
 30
0.0
 11
-367.43263952
 21
677.05961969
 31
0.0
  0
LINE
  5
351
100
AcDbEntity
  8
ZUWAKU
  6
CONTINUOUS
 62
       7
100
AcDbLine
 10
-353.15992878
 20
689.91811686
 30
0.0
 11
-365.83231916
 21
677.24572649
 31
0.0
  0
LINE
  5
352
100
AcDbEntity
  8
ZUWAKU
  6
CONTINUOUS
 62
       7
100
AcDbLine
 10
-351.74571522
 20
689.91811686
 30
0.0
 11
-364.21070253
 21
677.45312956
 31
0.0
  0
LINE
  5
353
100
AcDbEntity
  8
ZUWAKU
  6
CONTINUOUS
 62
       7
100
AcDbLine
 10
-350.33150166
 20
689.91811686
 30
0.0
 11
-362.56633478
 21
677.68328375
 31
0.0
  0
LINE
  5
354
100
AcDbEntity
  8
ZUWAKU
  6
CONTINUOUS
 62
       7
100
AcDbLine
 10
-348.9172881
 20
689.91811686
 30
0.0
 11
-360.89753167
 21
677.9378733
 31
0.0
  0
LINE
  5
355
100
AcDbEntity
  8
ZUWAKU
  6
CONTINUOUS
 62
       7
100
AcDbLine
 10
-347.50307454
 20
689.91811686
 30
0.0
 11
-359.2023268
 21
678.2188646
 31
0.0
  0
LINE
  5
356
100
AcDbEntity
  8
ZUWAKU
  6
CONTINUOUS
 62
       7
100
AcDbLine
 10
-346.08886097
 20
689.91811686
 30
0.0
 11
-357.4784019
 21
678.52857593
 31
0.0
  0
LINE
  5
357
100
AcDbEntity
  8
ZUWAKU
  6
CONTINUOUS
 62
       7
100
AcDbLine
 10
-332.48714741
 20
702.10561686
 30
0.0
 11
-332.60416667
 21
701.98859761
 31
0.0
  0
LINE
  5
358
100
AcDbEntity
  8
ZUWAKU
  6
CONTINUOUS
 62
       7
100
AcDbLine
 10
-344.67464741
 20
689.91811686
 30
0.0
 11
-355.72299296
 21
678.86977132
 31
0.0
  0
LINE
  5
359
100
AcDbEntity
  8
ZUWAKU
  6
CONTINUOUS
 62
       7
100
AcDbLine
 10
-331.07293385
 20
702.10561686
 30
0.0
 11
-332.60416667
 21
700.57438405
 31
0.0
  0
LINE
  5
35A
100
AcDbEntity
  8
ZUWAKU
  6
CONTINUOUS
 62
       7
100
AcDbLine
 10
-343.26043385
 20
689.91811686
 30
0.0
 11
-353.93276105
 21
679.24578966
 31
0.0
  0
LINE
  5
35B
100
AcDbEntity
  8
ZUWAKU
  6
CONTINUOUS
 62
       7
100
AcDbLine
 10
-329.65872029
 20
702.10561686
 30
0.0
 11
-332.60416667
 21
699.16017048
 31
0.0
  0
LINE
  5
35C
100
AcDbEntity
  8
ZUWAKU
  6
CONTINUOUS
 62
       7
100
AcDbLine
 10
-341.84622029
 20
689.91811686
 30
0.0
 11
-352.10361023
 21
679.66072692
 31
0.0
  0
LINE
  5
35D
100
AcDbEntity
  8
ZUWAKU
  6
CONTINUOUS
 62
       7
100
AcDbLine
 10
-328.24450672
 20
702.10561686
 30
0.0
 11
-332.60416667
 21
697.74595692
 31
0.0
  0
LINE
  5
35E
100
AcDbEntity
  8
ZUWAKU
  6
CONTINUOUS
 62
       7
100
AcDbLine
 10
-340.43200672
 20
689.91811686
 30
0.0
 11
-350.23042303
 21
680.11970056
 31
0.0
  0
LINE
  5
35F
100
AcDbEntity
  8
ZUWAKU
  6
CONTINUOUS
 62
       7
100
AcDbLine
 10
-326.83029316
 20
702.10561686
 30
0.0
 11
-332.60416667
 21
696.33174336
 31
0.0
  0
LINE
  5
360
100
AcDbEntity
  8
ZUWAKU
  6
CONTINUOUS
 62
       7
100
AcDbLine
 10
-339.01779316
 20
689.91811686
 30
0.0
 11
-348.3066628
 21
680.62924723
 31
0.0
  0
LINE
  5
361
100
AcDbEntity
  8
ZUWAKU
  6
CONTINUOUS
 62
       7
100
AcDbLine
 10
-325.4160796
 20
702.10561686
 30
0.0
 11
-332.60416667
 21
694.9175298
 31
0.0
  0
LINE
  5
362
100
AcDbEntity
  8
ZUWAKU
  6
CONTINUOUS
 62
       7
100
AcDbLine
 10
-337.6035796
 20
689.91811686
 30
0.0
 11
-346.3237501
 21
681.19794636
 31
0.0
  0
LINE
  5
363
100
AcDbEntity
  8
ZUWAKU
  6
CONTINUOUS
 62
       7
100
AcDbLine
 10
-324.00186604
 20
702.10561686
 30
0.0
 11
-332.60416667
 21
693.50331623
 31
0.0
  0
LINE
  5
364
100
AcDbEntity
  8
ZUWAKU
  6
CONTINUOUS
 62
       7
100
AcDbLine
 10
-336.18936604
 20
689.91811686
 30
0.0
 11
-344.27003283
 21
681.83745007
 31
0.0
  0
LINE
  5
365
100
AcDbEntity
  8
ZUWAKU
  6
CONTINUOUS
 62
       7
100
AcDbLine
 10
-322.58765247
 20
702.10561686
 30
0.0
 11
-332.60416667
 21
692.08910267
 31
0.0
  0
LINE
  5
366
100
AcDbEntity
  8
ZUWAKU
  6
CONTINUOUS
 62
       7
100
AcDbLine
 10
-334.77515247
 20
689.91811686
 30
0.0
 11
-342.12896906
 21
682.56430028
 31
0.0
  0
LINE
  5
367
100
AcDbEntity
  8
ZUWAKU
  6
CONTINUOUS
 62
       7
100
AcDbLine
 10
-321.17343891
 20
702.10561686
 30
0.0
 11
-332.60416667
 21
690.67488911
 31
0.0
  0
LINE
  5
368
100
AcDbEntity
  8
ZUWAKU
  6
CONTINUOUS
 62
       7
100
AcDbLine
 10
-333.36093891
 20
689.91811686
 30
0.0
 11
-339.87563002
 21
683.40342575
 31
0.0
  0
LINE
  5
369
100
AcDbEntity
  8
ZUWAKU
  6
CONTINUOUS
 62
       7
100
AcDbLine
 10
-320.42878044
 20
701.43606177
 30
0.0
 11
-337.46910786
 21
684.39573435
 31
0.0
  0
LINE
  5
36A
100
AcDbEntity
  8
ZUWAKU
  6
CONTINUOUS
 62
       7
100
AcDbLine
 10
-320.63298184
 20
699.81764681
 30
0.0
 11
-334.83276281
 21
685.61786584
 31
0.0
  0
LINE
  5
36B
100
AcDbEntity
  8
ZUWAKU
  6
CONTINUOUS
 62
       7
100
AcDbLine
 10
-321.24975284
 20
697.78666225
 30
0.0
 11
-331.78384816
 21
687.25256693
 31
0.0
  0
LINE
  5
36C
100
AcDbEntity
  8
ZUWAKU
  6
CONTINUOUS
 62
       7
100
AcDbLine
 10
-323.15754693
 20
694.4646546
 30
0.0
 11
-327.44391041
 21
690.17829111
 31
0.0
  0
ARC
  5
36D
100
AcDbEntity
  8
ZUWAKU
  6
CONTINUOUS
 62
       7
100
AcDbCircle
 10
-401.31327743
 20
707.41811686
 30
0.0
 40
2.5
100
AcDbArc
 50
270.0
 51
450.0
  0
LINE
  5
36E
100
AcDbEntity
  8
ZUWAKU
  6
CONTINUOUS
 62
       7
100
AcDbLine
 10
-416.70479167
 20
697.42061686
 30
0.0
 11
-413.11104167
 21
697.42061686
 31
0.0
  0
LINE
  5
36F
100
AcDbEntity
  8
ZUWAKU
  6
CONTINUOUS
 62
       7
100
AcDbLine
 10
-417.29166667
 20
695.85561686
 30
0.0
 11
-412.02649593
 21
695.85561686
 31
0.0
  0
LINE
  5
370
100
AcDbEntity
  8
ZUWAKU
  6
CONTINUOUS
 62
       7
100
AcDbLine
 10
-412.02649593
 20
695.85561686
 30
0.0
 11
-409.21493343
 21
703.35311686
 31
0.0
  0
LINE
  5
371
100
AcDbEntity
  8
ZUWAKU
  6
CONTINUOUS
 62
       7
100
AcDbLine
 10
-408.62805843
 20
704.91811686
 30
0.0
 11
-406.75305843
 21
709.91811686
 31
0.0
  0
LINE
  5
372
100
AcDbEntity
  8
ZUWAKU
  6
CONTINUOUS
 62
       7
100
AcDbLine
 10
-409.21493343
 20
703.35311686
 30
0.0
 11
-408.09188406
 21
703.35311686
 31
0.0
  0
LINE
  5
373
100
AcDbEntity
  8
ZUWAKU
  6
CONTINUOUS
 62
       7
100
AcDbLine
 10
-406.29419648
 20
703.35311686
 30
0.0
 11
-401.31327743
 21
703.35311686
 31
0.0
  0
LINE
  5
374
100
AcDbEntity
  8
ZUWAKU
  6
CONTINUOUS
 62
       7
100
AcDbLine
 10
-402.94104431
 20
697.42061686
 30
0.0
 11
-406.29419648
 21
703.35311686
 31
0.0
  0
ARC
  5
375
100
AcDbEntity
  8
ZUWAKU
  6
CONTINUOUS
 62
       7
100
AcDbCircle
 10
-401.31327743
 20
707.41811686
 30
0.0
 40
4.0625
100
AcDbArc
 50
270.0
 51
450.0
  0
ELLIPSE
  5
376
100
AcDbEntity
  8
ZUWAKU
  6
CONTINUOUS
 62
       7
100
AcDbEllipse
 10
-396.13724449
 20
699.37841642
 30
0.0
 11
-0.411593316374649
 21
-0.7545877466866386
 31
0.0
210
0.0
220
0.0
230
1.0
 40
0.75209874
 41
0.0
 42
6.2831853071796004
  0
LINE
  5
377
100
AcDbEntity
  8
ZUWAKU
  6
CONTINUOUS
 62
       7
100
AcDbLine
 10
-403.85416667
 20
695.85561686
 30
0.0
 11
-398.22916667
 21
695.85561686
 31
0.0
  0
ELLIPSE
  5
378
100
AcDbEntity
  8
ZUWAKU
  6
CONTINUOUS
 62
       7
100
AcDbEllipse
 10
-396.13724449
 20
699.37841642
 30
0.0
 11
-1.3149946210052121
 21
-2.41082347184215
 31
0.0
210
0.0
220
0.0
230
1.0
 40
0.75209874
 41
1.1633802511780327
 42
5.8601607076995377
  0
LINE
  5
379
100
AcDbEntity
  8
ZUWAKU
  6
CONTINUOUS
 62
       7
100
AcDbLine
 10
-402.94104431
 20
697.42061686
 30
0.0
 11
-398.32303684
 21
697.42061686
 31
0.0
  0
ARC
  5
37A
100
AcDbEntity
  8
ZUWAKU
  6
CONTINUOUS
 62
       7
100
AcDbCircle
 10
-398.78856369
 20
700.93045452
 30
0.0
 40
3.5405756
100
AcDbArc
 50
277.55531967
 51
282.61004677
  0
ARC
  5
37B
100
AcDbEntity
  8
ZUWAKU
  6
CONTINUOUS
 62
       7
100
AcDbCircle
 10
-398.78856369
 20
700.93045452
 30
0.0
 40
5.1055756
100
AcDbArc
 50
276.29029269
 51
293.79815684
  0
ARC
  5
37C
100
AcDbEntity
  8
ZUWAKU
  6
CONTINUOUS
 62
       7
100
AcDbCircle
 10
-398.78856369
 20
700.93045452
 30
0.0
 40
5.1055756
100
AcDbArc
 50
316.57125834
 51
318.01426788
  0
ARC
  5
37D
100
AcDbEntity
  8
ZUWAKU
  6
CONTINUOUS
 62
       7
100
AcDbCircle
 10
-395.12149015
 20
699.24888681
 30
0.0
 40
3.3943442
100
AcDbArc
 50
209.3318227
 51
211.50126528
  0
ARC
  5
37E
100
AcDbEntity
  8
ZUWAKU
  6
CONTINUOUS
 62
       7
100
AcDbCircle
 10
-395.12149015
 20
699.24888681
 30
0.0
 40
3.3943442
100
AcDbArc
 50
241.74457829
 51
270.0
  0
ELLIPSE
  5
37F
100
AcDbEntity
  8
ZUWAKU
  6
CONTINUOUS
 62
       7
100
AcDbEllipse
 10
-388.14559464
 20
701.47983971
 30
0.0
 11
-0.6852152308110817
 21
-1.4132564135480834
 31
0.0
210
0.0
220
0.0
230
1.0
 40
0.44219156
 41
0.0
 42
6.2831853071796004
  0
ARC
  5
380
100
AcDbEntity
  8
ZUWAKU
  6
CONTINUOUS
 62
       7
100
AcDbCircle
 10
-386.70444519
 20
701.89337552
 30
0.0
 40
6.07053418
100
AcDbArc
 50
241.28311564
 51
264.0434522
  0
LINE
  5
381
100
AcDbEntity
  8
ZUWAKU
  6
CONTINUOUS
 62
       7
100
AcDbLine
 10
-395.12149015
 20
695.85561686
 30
0.0
 11
-391.59975549
 21
695.85561686
 31
0.0
  0
ARC
  5
382
100
AcDbEntity
  8
ZUWAKU
  6
CONTINUOUS
 62
       7
100
AcDbCircle
 10
-386.70444519
 20
701.89337552
 30
0.0
 40
4.50553418
100
AcDbArc
 50
251.08708107
 51
263.08482824
  0
ARC
  5
383
100
AcDbEntity
  8
ZUWAKU
  6
CONTINUOUS
 62
       7
100
AcDbCircle
 10
-392.92816038
 20
702.63607424
 30
0.0
 40
5.34436044
100
AcDbArc
 50
282.60950936
 51
291.93126974
  0
ELLIPSE
  5
384
100
AcDbEntity
  8
ZUWAKU
  6
CONTINUOUS
 62
       7
100
AcDbEllipse
 10
-388.14559464
 20
701.47983971
 30
0.0
 11
-2.1891860409300534
 21
-4.5151962094191731
 31
0.0
210
0.0
220
0.0
230
1.0
 40
0.44219156
 41
1.1621663820477883
 42
5.8906096214262886
  0
LINE
  5
385
100
AcDbEntity
  8
ZUWAKU
  6
CONTINUOUS
 62
       7
100
AcDbLine
 10
-395.08074198
 20
697.42061686
 30
0.0
 11
-391.76145864
 21
697.42061686
 31
0.0
  0
ARC
  5
386
100
AcDbEntity
  8
ZUWAKU
  6
CONTINUOUS
 62
       7
100
AcDbCircle
 10
-392.92816038
 20
702.63607424
 30
0.0
 40
6.90936044
100
AcDbArc
 50
313.58286141
 51
326.24939265
  0
ARC
  5
387
100
AcDbEntity
  8
ZUWAKU
  6
CONTINUOUS
 62
       7
100
AcDbCircle
 10
-392.92816038
 20
702.63607424
 30
0.0
 40
6.90936044
100
AcDbArc
 50
281.08479974
 51
298.5950739
  0
LINE
  5
388
100
AcDbEntity
  8
ZUWAKU
  6
CONTINUOUS
 62
       7
100
AcDbLine
 10
-387.33441005
 20
695.85561686
 30
0.0
 11
-384.79166667
 21
695.85561686
 31
0.0
  0
LINE
  5
389
100
AcDbEntity
  8
ZUWAKU
  6
CONTINUOUS
 62
       7
100
AcDbLine
 10
-385.15565512
 20
697.70487264
 30
0.0
 11
-380.9032543
 21
701.95727346
 31
0.0
  0
LINE
  5
38A
100
AcDbEntity
  8
ZUWAKU
  6
CONTINUOUS
 62
       7
100
AcDbLine
 10
-380.75674611
 20
697.42061686
 30
0.0
 11
-380.06917403
 21
701.54604932
 31
0.0
  0
LINE
  5
38B
100
AcDbEntity
  8
ZUWAKU
  6
CONTINUOUS
 62
       7
100
AcDbLine
 10
-387.24691022
 20
697.42061686
 30
0.0
 11
-385.72416667
 21
697.42061686
 31
0.0
  0
ARC
  5
38C
100
AcDbEntity
  8
ZUWAKU
  6
CONTINUOUS
 62
       7
100
AcDbCircle
 10
-380.54815789
 20
701.62587997
 30
0.0
 40
0.48571093
100
AcDbArc
 50
350.53767779
 51
496.97750576
  0
ELLIPSE
  5
38D
100
AcDbEntity
  8
ZUWAKU
  6
CONTINUOUS
 62
       7
100
AcDbEllipse
 10
-373.9174158
 20
698.79552351
 30
0.0
 11
-0.455908149883669
 21
-0.7678453050671124
 31
0.0
210
0.0
220
0.0
230
1.0
 40
0.58819821
 41
0.0
 42
6.2831853071796004
  0
LINE
  5
38E
100
AcDbEntity
  8
ZUWAKU
  6
CONTINUOUS
 62
       7
100
AcDbLine
 10
-379.10649627
 20
697.42061686
 30
0.0
 11
-376.50179664
 21
698.67169307
 31
0.0
  0
LINE
  5
38F
100
AcDbEntity
  8
ZUWAKU
  6
CONTINUOUS
 62
       7
100
AcDbLine
 10
-378.85416667
 20
695.85561686
 30
0.0
 11
-376.67341959
 21
696.82193303
 31
0.0
  0
LINE
  5
390
100
AcDbEntity
  8
ZUWAKU
  6
CONTINUOUS
 62
       7
100
AcDbLine
 10
-380.75674611
 20
697.42061686
 30
0.0
 11
-379.10649627
 21
697.42061686
 31
0.0
  0
LINE
  5
391
100
AcDbEntity
  8
ZUWAKU
  6
CONTINUOUS
 62
       7
100
AcDbLine
 10
-373.50729605
 20
696.56070873
 30
0.0
 11
-372.77789068
 21
695.85561686
 31
0.0
  0
LINE
  5
392
100
AcDbEntity
  8
ZUWAKU
  6
CONTINUOUS
 62
       7
100
AcDbLine
 10
-371.04166667
 20
697.42061686
 30
0.0
 11
-368.84310545
 21
697.42061686
 31
0.0
  0
LINE
  5
393
100
AcDbEntity
  8
ZUWAKU
  6
CONTINUOUS
 62
       7
100
AcDbLine
 10
-363.8459626
 20
701.79311686
 30
0.0
 11
-368.84310545
 21
697.42061686
 31
0.0
  0
ELLIPSE
  5
394
100
AcDbEntity
  8
ZUWAKU
  6
CONTINUOUS
 62
       7
100
AcDbEllipse
 10
-374.24352815
 20
698.61060333
 30
0.0
 11
-1.9859260469348214
 21
-2.4604139486334589
 31
0.0
210
0.0
220
0.0
230
1.0
 40
0.63020876
 41
2.7713952963881292
 42
5.1608192210644228
  0
ELLIPSE
  5
395
100
AcDbEntity
  8
ZUWAKU
  6
CONTINUOUS
 62
       7
100
AcDbEllipse
 10
-374.24352815
 20
698.61060333
 30
0.0
 11
-1.9859260469348214
 21
-2.4604139486334589
 31
0.0
210
0.0
220
0.0
230
1.0
 40
0.63020876
 41
5.8878630804447161
 42
7.4876029260781563
  0
LINE
  5
396
100
AcDbEntity
  8
ZUWAKU
  6
CONTINUOUS
 62
       7
100
AcDbLine
 10
-371.45311562
 20
701.49109607
 30
0.0
 11
-369.78785605
 21
701.49109607
 31
0.0
  0
LINE
  5
397
100
AcDbEntity
  8
ZUWAKU
  6
CONTINUOUS
 62
       7
100
AcDbLine
 10
-371.83113981
 20
700.45152955
 30
0.0
 11
-371.45311562
 21
701.49109607
 31
0.0
  0
LINE
  5
398
100
AcDbEntity
  8
ZUWAKU
  6
CONTINUOUS
 62
       7
100
AcDbLine
 10
-371.04166667
 20
698.04311686
 30
0.0
 11
-369.78785605
 21
701.49109607
 31
0.0
  0
LINE
  5
399
100
AcDbEntity
  8
ZUWAKU
  6
CONTINUOUS
 62
       7
100
AcDbLine
 10
-366.78842641
 20
695.9048481
 30
0.0
 11
-365.99650428
 21
698.08263395
 31
0.0
  0
LINE
  5
39A
100
AcDbEntity
  8
ZUWAKU
  6
CONTINUOUS
 62
       7
100
AcDbLine
 10
-363.63723721
 20
699.60561686
 30
0.0
 11
-365.00087358
 21
695.85561686
 31
0.0
  0
LINE
  5
39B
100
AcDbEntity
  8
ZUWAKU
  6
CONTINUOUS
 62
       7
100
AcDbLine
 10
-362.91666667
 20
695.85561686
 30
0.0
 11
-361.5530303
 21
699.60561686
 31
0.0
  0
LINE
  5
39C
100
AcDbEntity
  8
ZUWAKU
  6
CONTINUOUS
 62
       7
100
AcDbLine
 10
-359.27311822
 20
700.7972501
 30
0.0
 11
-360.50098485
 21
697.42061686
 31
0.0
  0
LINE
  5
39D
100
AcDbEntity
  8
ZUWAKU
  6
CONTINUOUS
 62
       7
100
AcDbLine
 10
-359.79270088
 20
701.79311686
 30
0.0
 11
-359.27311822
 21
700.7972501
 31
0.0
  0
LINE
  5
39E
100
AcDbEntity
  8
ZUWAKU
  6
CONTINUOUS
 62
       7
100
AcDbLine
 10
-363.22117325
 20
700.86361029
 30
0.0
 11
-362.91375177
 21
701.79311686
 31
0.0
  0
LINE
  5
39F
100
AcDbEntity
  8
ZUWAKU
  6
CONTINUOUS
 62
       7
100
AcDbLine
 10
-363.22117325
 20
700.86361029
 30
0.0
 11
-361.55643032
 21
701.79311686
 31
0.0
  0
LINE
  5
3A0
100
AcDbEntity
  8
ZUWAKU
  6
CONTINUOUS
 62
       7
100
AcDbLine
 10
-359.79270088
 20
701.79311686
 30
0.0
 11
-361.55643032
 21
701.79311686
 31
0.0
  0
LINE
  5
3A1
100
AcDbEntity
  8
ZUWAKU
  6
CONTINUOUS
 62
       7
100
AcDbLine
 10
-362.91375177
 20
701.79311686
 30
0.0
 11
-363.8459626
 21
701.79311686
 31
0.0
  0
ELLIPSE
  5
3A2
100
AcDbEntity
  8
ZUWAKU
  6
CONTINUOUS
 62
       7
100
AcDbEllipse
 10
-345.84600448
 20
699.37841642
 30
0.0
 11
-0.411593316374649
 21
-0.7545877466866386
 31
0.0
210
0.0
220
0.0
230
1.0
 40
0.75209874
 41
0.0
 42
6.2831853071796004
  0
ELLIPSE
  5
3A3
100
AcDbEntity
  8
ZUWAKU
  6
CONTINUOUS
 62
       7
100
AcDbEllipse
 10
-345.84600448
 20
699.37841642
 30
0.0
 11
-1.3149946210052121
 21
-2.41082347184215
 31
0.0
210
0.0
220
0.0
230
1.0
 40
0.75209874
 41
1.1633802511780327
 42
5.8601607076995377
  0
ARC
  5
3A4
100
AcDbEntity
  8
ZUWAKU
  6
CONTINUOUS
 62
       7
100
AcDbCircle
 10
-348.49732368
 20
700.93045452
 30
0.0
 40
3.5405756
100
AcDbArc
 50
277.55531967
 51
282.61004677
  0
ARC
  5
3A5
100
AcDbEntity
  8
ZUWAKU
  6
CONTINUOUS
 62
       7
100
AcDbCircle
 10
-348.49732368
 20
700.93045452
 30
0.0
 40
5.1055756
100
AcDbArc
 50
276.29029269
 51
293.79815684
  0
ARC
  5
3A6
100
AcDbEntity
  8
ZUWAKU
  6
CONTINUOUS
 62
       7
100
AcDbCircle
 10
-348.49732368
 20
700.93045452
 30
0.0
 40
5.1055756
100
AcDbArc
 50
316.57125834
 51
318.01426788
  0
ARC
  5
3A7
100
AcDbEntity
  8
ZUWAKU
  6
CONTINUOUS
 62
       7
100
AcDbCircle
 10
-344.83025014
 20
699.24888681
 30
0.0
 40
3.3943442
100
AcDbArc
 50
209.3318227
 51
211.50126528
  0
ARC
  5
3A8
100
AcDbEntity
  8
ZUWAKU
  6
CONTINUOUS
 62
       7
100
AcDbCircle
 10
-344.83025014
 20
699.24888681
 30
0.0
 40
3.3943442
100
AcDbArc
 50
241.74457829
 51
270.0
  0
LINE
  5
3A9
100
AcDbEntity
  8
ZUWAKU
  6
CONTINUOUS
 62
       7
100
AcDbLine
 10
-353.46767639
 20
697.42061686
 30
0.0
 11
-348.03179683
 21
697.42061686
 31
0.0
  0
LINE
  5
3AA
100
AcDbEntity
  8
ZUWAKU
  6
CONTINUOUS
 62
       7
100
AcDbLine
 10
-344.83025014
 20
695.85561686
 30
0.0
 11
-341.82087875
 21
695.85561686
 31
0.0
  0
LINE
  5
3AB
100
AcDbEntity
  8
ZUWAKU
  6
CONTINUOUS
 62
       7
100
AcDbLine
 10
-344.78950196
 20
697.42061686
 30
0.0
 11
-341.47021863
 21
697.42061686
 31
0.0
  0
LINE
  5
3AC
100
AcDbEntity
  8
ZUWAKU
  6
CONTINUOUS
 62
       7
100
AcDbLine
 10
-382.60416667
 20
695.85561686
 30
0.0
 11
-378.85416667
 21
695.85561686
 31
0.0
  0
LINE
  5
3AD
100
AcDbEntity
  8
ZUWAKU
  6
CONTINUOUS
 62
       7
100
AcDbLine
 10
-366.78842641
 20
695.9048481
 30
0.0
 11
-365.00087358
 21
695.85561686
 31
0.0
  0
LINE
  5
3AE
100
AcDbEntity
  8
ZUWAKU
  6
CONTINUOUS
 62
       7
100
AcDbLine
 10
-360.50098485
 20
697.42061686
 30
0.0
 11
-357.61122027
 21
697.42061686
 31
0.0
  0
LINE
  5
3AF
100
AcDbEntity
  8
ZUWAKU
  6
CONTINUOUS
 62
       7
100
AcDbLine
 10
-352.27831408
 20
699.67359044
 30
0.0
 11
-351.11089581
 21
700.61725354
 31
0.0
  0
ARC
  5
3B0
100
AcDbEntity
  8
ZUWAKU
  6
CONTINUOUS
 62
       7
100
AcDbCircle
 10
-353.46767639
 20
698.87061686
 30
0.0
 40
1.45
100
AcDbArc
 50
34.07537472
 51
270.0
  0
ARC
  5
3B1
100
AcDbEntity
  8
ZUWAKU
  6
CONTINUOUS
 62
       7
100
AcDbCircle
 10
-353.46767639
 20
698.87061686
 30
0.0
 40
2.93345434
100
AcDbArc
 50
36.54256145
 51
190.98612084
  0
LINE
  5
3B2
100
AcDbEntity
  8
ZUWAKU
  6
CONTINUOUS
 62
       7
100
AcDbLine
 10
-357.21656394
 20
695.85561686
 30
0.0
 11
-355.73068646
 21
696.9489984
 31
0.0
  0
LINE
  5
3B3
100
AcDbEntity
  8
ZUWAKU
  6
CONTINUOUS
 62
       7
100
AcDbLine
 10
-356.36600427
 20
698.33690788
 30
0.0
 11
-357.61122027
 21
697.42061686
 31
0.0
  0
LINE
  5
3B4
100
AcDbEntity
  8
ZUWAKU
  6
CONTINUOUS
 62
       7
100
AcDbLine
 10
-355.73068646
 20
696.9489984
 30
0.0
 11
-354.47916667
 21
695.85561686
 31
0.0
  0
LINE
  5
3B5
100
AcDbEntity
  8
ZUWAKU
  6
CONTINUOUS
 62
       7
100
AcDbLine
 10
-341.47021863
 20
697.42061686
 30
0.0
 11
-341.82087875
 21
695.85561686
 31
0.0
  0
LINE
  5
3B6
100
AcDbEntity
  8
ZUWAKU
  6
CONTINUOUS
 62
       7
100
AcDbLine
 10
-424.57829996
 20
711.12905436
 30
0.0
 11
-425.43767496
 21
710.26967936
 31
0.0
  0
LINE
  5
3B7
100
AcDbEntity
  8
ZUWAKU
  6
CONTINUOUS
 62
       7
100
AcDbLine
 10
-422.7700243
 20
711.30776976
 30
0.0
 11
-423.98683009
 21
710.09096397
 31
0.0
  0
LINE
  5
3B8
100
AcDbEntity
  8
ZUWAKU
  6
CONTINUOUS
 62
       7
100
AcDbLine
 10
-420.72316059
 20
711.44936686
 30
0.0
 11
-422.22511372
 21
709.94741374
 31
0.0
  0
LINE
  5
3B9
100
AcDbEntity
  8
ZUWAKU
  6
CONTINUOUS
 62
       7
100
AcDbLine
 10
-418.70500458
 20
711.48061686
 30
0.0
 11
-420.26750458
 21
709.91811686
 31
0.0
  0
LINE
  5
3BA
100
AcDbEntity
  8
ZUWAKU
  6
CONTINUOUS
 62
       7
100
AcDbLine
 10
-416.61823912
 20
711.48061686
 30
0.0
 11
-418.18073912
 21
709.91811686
 31
0.0
  0
LINE
  5
3BB
100
AcDbEntity
  8
ZUWAKU
  6
CONTINUOUS
 62
       7
100
AcDbLine
 10
-414.32389828
 20
711.48061686
 30
0.0
 11
-415.88639828
 21
709.91811686
 31
0.0
  0
LINE
  5
3BC
100
AcDbEntity
  8
ZUWAKU
  6
CONTINUOUS
 62
       7
100
AcDbLine
 10
-412.39016372
 20
711.48061686
 30
0.0
 11
-413.95266372
 21
709.91811686
 31
0.0
  0
LINE
  5
3BD
100
AcDbEntity
  8
ZUWAKU
  6
CONTINUOUS
 62
       7
100
AcDbLine
 10
-411.84957198
 20
696.32741406
 30
0.0
 11
-412.32136918
 21
695.85561686
 31
0.0
  0
LINE
  5
3BE
100
AcDbEntity
  8
ZUWAKU
  6
CONTINUOUS
 62
       7
100
AcDbLine
 10
-411.00104385
 20
698.59015576
 30
0.0
 11
-413.73558275
 21
695.85561686
 31
0.0
  0
LINE
  5
3BF
100
AcDbEntity
  8
ZUWAKU
  6
CONTINUOUS
 62
       7
100
AcDbLine
 10
-410.15251571
 20
700.85289746
 30
0.0
 11
-412.82678888
 21
698.17862429
 31
0.0
  0
LINE
  5
3C0
100
AcDbEntity
  8
ZUWAKU
  6
CONTINUOUS
 62
       7
100
AcDbLine
 10
-413.58479631
 20
697.42061686
 30
0.0
 11
-415.14979631
 21
695.85561686
 31
0.0
  0
LINE
  5
3C1
100
AcDbEntity
  8
ZUWAKU
  6
CONTINUOUS
 62
       7
100
AcDbLine
 10
-409.30398757
 20
703.11563916
 30
0.0
 11
-411.97826074
 21
700.44136599
 31
0.0
  0
LINE
  5
3C2
100
AcDbEntity
  8
ZUWAKU
  6
CONTINUOUS
 62
       7
100
AcDbLine
 10
-414.99900987
 20
697.42061686
 30
0.0
 11
-416.56400987
 21
695.85561686
 31
0.0
  0
LINE
  5
3C3
100
AcDbEntity
  8
ZUWAKU
  6
CONTINUOUS
 62
       7
100
AcDbLine
 10
-416.41322343
 20
697.42061686
 30
0.0
 11
-416.87973261
 21
696.95410769
 31
0.0
  0
LINE
  5
3C4
100
AcDbEntity
  8
ZUWAKU
  6
CONTINUOUS
 62
       7
100
AcDbLine
 10
-406.59586412
 20
711.48061686
 30
0.0
 11
-408.58414819
 21
709.49233279
 31
0.0
  0
LINE
  5
3C5
100
AcDbEntity
  8
ZUWAKU
  6
CONTINUOUS
 62
       7
100
AcDbLine
 10
-408.01007768
 20
711.48061686
 30
0.0
 11
-409.57257768
 21
709.91811686
 31
0.0
  0
LINE
  5
3C6
100
AcDbEntity
  8
ZUWAKU
  6
CONTINUOUS
 62
       7
100
AcDbLine
 10
-409.42429125
 20
711.48061686
 30
0.0
 11
-410.98679125
 21
709.91811686
 31
0.0
  0
LINE
  5
3C7
100
AcDbEntity
  8
ZUWAKU
  6
CONTINUOUS
 62
       7
100
AcDbLine
 10
-410.83850481
 20
711.48061686
 30
0.0
 11
-411.66356378
 21
710.65555789
 31
0.0
  0
LINE
  5
3C8
100
AcDbEntity
  8
ZUWAKU
  6
CONTINUOUS
 62
       7
100
AcDbLine
 10
-396.49968119
 20
701.77780993
 30
0.0
 11
-397.99563119
 21
700.28185992
 31
0.0
  0
LINE
  5
3C9
100
AcDbEntity
  8
ZUWAKU
  6
CONTINUOUS
 62
       7
100
AcDbLine
 10
-394.99366112
 20
701.86961643
 30
0.0
 11
-398.36446383
 21
698.49881372
 31
0.0
  0
LINE
  5
3CA
100
AcDbEntity
  8
ZUWAKU
  6
CONTINUOUS
 62
       7
100
AcDbLine
 10
-393.90092756
 20
700.13392287
 30
0.0
 11
-398.17268964
 21
695.86216078
 31
0.0
  0
LINE
  5
3CB
100
AcDbEntity
  8
ZUWAKU
  6
CONTINUOUS
 62
       7
100
AcDbLine
 10
-403.767437
 20
711.48061686
 30
0.0
 11
-405.329937
 21
709.91811686
 31
0.0
  0
LINE
  5
3CC
100
AcDbEntity
  8
ZUWAKU
  6
CONTINUOUS
 62
       7
100
AcDbLine
 10
-407.6069313
 20
707.64112256
 30
0.0
 11
-410.28120447
 21
704.96684939
 31
0.0
  0
LINE
  5
3CD
100
AcDbEntity
  8
ZUWAKU
  6
CONTINUOUS
 62
       7
100
AcDbLine
 10
-402.35322343
 20
711.48061686
 30
0.0
 11
-403.91572343
 21
709.91811686
 31
0.0
  0
LINE
  5
3CE
100
AcDbEntity
  8
ZUWAKU
  6
CONTINUOUS
 62
       7
100
AcDbLine
 10
-408.45545943
 20
705.37838086
 30
0.0
 11
-411.12973261
 21
702.70410769
 31
0.0
  0
LINE
  5
3CF
100
AcDbEntity
  8
ZUWAKU
  6
CONTINUOUS
 62
       7
100
AcDbLine
 10
-400.95485228
 20
711.46477446
 30
0.0
 11
-402.50150987
 21
709.91811686
 31
0.0
  0
LINE
  5
3D0
100
AcDbEntity
  8
ZUWAKU
  6
CONTINUOUS
 62
       7
100
AcDbLine
 10
-407.50150987
 20
704.91811686
 30
0.0
 11
-409.06650987
 21
703.35311686
 31
0.0
  0
LINE
  5
3D1
100
AcDbEntity
  8
ZUWAKU
  6
CONTINUOUS
 62
       7
100
AcDbLine
 10
-399.81226438
 20
711.19314879
 30
0.0
 11
-401.09669552
 21
709.90871765
 31
0.0
  0
LINE
  5
3D2
100
AcDbEntity
  8
ZUWAKU
  6
CONTINUOUS
 62
       7
100
AcDbLine
 10
-406.08729631
 20
704.91811686
 30
0.0
 11
-407.93314404
 21
703.07226914
 31
0.0
  0
LINE
  5
3D3
100
AcDbEntity
  8
ZUWAKU
  6
CONTINUOUS
 62
       7
100
AcDbLine
 10
-398.90290953
 20
710.68829008
 30
0.0
 11
-400.0284837
 21
709.56271591
 31
0.0
  0
LINE
  5
3D4
100
AcDbEntity
  8
ZUWAKU
  6
CONTINUOUS
 62
       7
100
AcDbLine
 10
-398.17685821
 20
710.00012784
 30
0.0
 11
-399.29017587
 21
708.88681018
 31
0.0
  0
LINE
  5
3D5
100
AcDbEntity
  8
ZUWAKU
  6
CONTINUOUS
 62
       7
100
AcDbLine
 10
-397.63024736
 20
709.13252513
 30
0.0
 11
-398.86058918
 21
707.90218331
 31
0.0
  0
LINE
  5
3D6
100
AcDbEntity
  8
ZUWAKU
  6
CONTINUOUS
 62
       7
100
AcDbLine
 10
-397.29999426
 20
708.04856466
 30
0.0
 11
-399.1079471
 21
706.24061182
 31
0.0
  0
LINE
  5
3D7
100
AcDbEntity
  8
ZUWAKU
  6
CONTINUOUS
 62
       7
100
AcDbLine
 10
-405.18165056
 20
711.48061686
 30
0.0
 11
-406.74415056
 21
709.91811686
 31
0.0
  0
LINE
  5
3D8
100
AcDbEntity
  8
ZUWAKU
  6
CONTINUOUS
 62
       7
100
AcDbLine
 10
-406.75840316
 20
709.90386426
 30
0.0
 11
-409.43267633
 21
707.22959109
 31
0.0
  0
LINE
  5
3D9
100
AcDbEntity
  8
ZUWAKU
  6
CONTINUOUS
 62
       7
100
AcDbLine
 10
-403.25886918
 20
704.91811686
 30
0.0
 11
-404.82386918
 21
703.35311686
 31
0.0
  0
LINE
  5
3DA
100
AcDbEntity
  8
ZUWAKU
  6
CONTINUOUS
 62
       7
100
AcDbLine
 10
-405.76324496
 20
702.41374109
 30
0.0
 11
-406.91176758
 21
701.26521847
 31
0.0
  0
LINE
  5
3DB
100
AcDbEntity
  8
ZUWAKU
  6
CONTINUOUS
 62
       7
100
AcDbLine
 10
-404.67308275
 20
704.91811686
 30
0.0
 11
-406.23808275
 21
703.35311686
 31
0.0
  0
LINE
  5
3DC
100
AcDbEntity
  8
ZUWAKU
  6
CONTINUOUS
 62
       7
100
AcDbLine
 10
-406.27393319
 20
703.31726642
 30
0.0
 11
-407.42245581
 21
702.1687438
 31
0.0
  0
LINE
  5
3DD
100
AcDbEntity
  8
ZUWAKU
  6
CONTINUOUS
 62
       7
100
AcDbLine
 10
-401.84465562
 20
704.91811686
 30
0.0
 11
-403.40965562
 21
703.35311686
 31
0.0
  0
LINE
  5
3DE
100
AcDbEntity
  8
ZUWAKU
  6
CONTINUOUS
 62
       7
100
AcDbLine
 10
-405.25255673
 20
701.51021576
 30
0.0
 11
-406.40107934
 21
700.36169314
 31
0.0
  0
LINE
  5
3DF
100
AcDbEntity
  8
ZUWAKU
  6
CONTINUOUS
 62
       7
100
AcDbLine
 10
-400.13577239
 20
705.21278653
 30
0.0
 11
-401.99544206
 21
703.35311686
 31
0.0
  0
LINE
  5
3E0
100
AcDbEntity
  8
ZUWAKU
  6
CONTINUOUS
 62
       7
100
AcDbLine
 10
-404.7418685
 20
700.60669043
 30
0.0
 11
-405.89039111
 21
699.45816781
 31
0.0
  0
LINE
  5
3E1
100
AcDbEntity
  8
ZUWAKU
  6
CONTINUOUS
 62
       7
100
AcDbLine
 10
-397.3339198
 20
706.60042556
 30
0.0
 11
-400.49558613
 21
703.43875923
 31
0.0
  0
LINE
  5
3E2
100
AcDbEntity
  8
ZUWAKU
  6
CONTINUOUS
 62
       7
100
AcDbLine
 10
-404.23118026
 20
699.7031651
 30
0.0
 11
-405.37970288
 21
698.55464248
 31
0.0
  0
LINE
  5
3E3
100
AcDbEntity
  8
ZUWAKU
  6
CONTINUOUS
 62
       7
100
AcDbLine
 10
-403.72049203
 20
698.79963977
 30
0.0
 11
-404.86901465
 21
697.65111715
 31
0.0
  0
LINE
  5
3E4
100
AcDbEntity
  8
ZUWAKU
  6
CONTINUOUS
 62
       7
100
AcDbLine
 10
-403.2098038
 20
697.89611443
 30
0.0
 11
-404.35832642
 21
696.74759182
 31
0.0
  0
LINE
  5
3E5
100
AcDbEntity
  8
ZUWAKU
  6
CONTINUOUS
 62
       7
100
AcDbLine
 10
-402.27108781
 20
697.42061686
 30
0.0
 11
-403.83608781
 21
695.85561686
 31
0.0
  0
LINE
  5
3E6
100
AcDbEntity
  8
ZUWAKU
  6
CONTINUOUS
 62
       7
100
AcDbLine
 10
-400.85687425
 20
697.42061686
 30
0.0
 11
-402.42187425
 21
695.85561686
 31
0.0
  0
LINE
  5
3E7
100
AcDbEntity
  8
ZUWAKU
  6
CONTINUOUS
 62
       7
100
AcDbLine
 10
-399.44266068
 20
697.42061686
 30
0.0
 11
-401.00766068
 21
695.85561686
 31
0.0
  0
LINE
  5
3E8
100
AcDbEntity
  8
ZUWAKU
  6
CONTINUOUS
 62
       7
100
AcDbLine
 10
-394.22588435
 20
701.22317964
 30
0.0
 11
-395.52192638
 21
699.92713761
 31
0.0
  0
LINE
  5
3E9
100
AcDbEntity
  8
ZUWAKU
  6
CONTINUOUS
 62
       7
100
AcDbLine
 10
-396.69901115
 20
698.75005283
 30
0.0
 11
-399.59344712
 21
695.85561686
 31
0.0
  0
LINE
  5
3EA
100
AcDbEntity
  8
ZUWAKU
  6
CONTINUOUS
 62
       7
100
AcDbLine
 10
-386.52712775
 20
706.09350911
 30
0.0
 11
-390.11297307
 21
702.50766379
 31
0.0
  0
LINE
  5
3EB
100
AcDbEntity
  8
ZUWAKU
  6
CONTINUOUS
 62
       7
100
AcDbLine
 10
-394.45973628
 20
698.16090059
 30
0.0
 11
-396.48165672
 21
696.13898014
 31
0.0
  0
LINE
  5
3EC
100
AcDbEntity
  8
ZUWAKU
  6
CONTINUOUS
 62
       7
100
AcDbLine
 10
-385.55554911
 20
705.65087419
 30
0.0
 11
-390.91980978
 21
700.28661352
 31
0.0
  0
LINE
  5
3ED
100
AcDbEntity
  8
ZUWAKU
  6
CONTINUOUS
 62
       7
100
AcDbLine
 10
-393.78580644
 20
697.42061686
 30
0.0
 11
-395.34454395
 21
695.86187935
 31
0.0
  0
LINE
  5
3EE
100
AcDbEntity
  8
ZUWAKU
  6
CONTINUOUS
 62
       7
100
AcDbLine
 10
-392.37159287
 20
697.42061686
 30
0.0
 11
-393.93659287
 21
695.85561686
 31
0.0
  0
LINE
  5
3EF
100
AcDbEntity
  8
ZUWAKU
  6
CONTINUOUS
 62
       7
100
AcDbLine
 10
-385.20342758
 20
704.58878216
 30
0.0
 11
-387.23975605
 21
702.55245369
 31
0.0
  0
LINE
  5
3F0
100
AcDbEntity
  8
ZUWAKU
  6
CONTINUOUS
 62
       7
100
AcDbLine
 10
-389.07086091
 20
700.72134883
 30
0.0
 11
-391.10718938
 21
698.68502036
 31
0.0
  0
LINE
  5
3F1
100
AcDbEntity
  8
ZUWAKU
  6
CONTINUOUS
 62
       7
100
AcDbLine
 10
-385.2847652
 20
703.09323097
 30
0.0
 11
-392.52237931
 21
695.85561686
 31
0.0
  0
LINE
  5
3F2
100
AcDbEntity
  8
ZUWAKU
  6
CONTINUOUS
 62
       7
100
AcDbLine
 10
-385.89897981
 20
701.0648028
 30
0.0
 11
-390.94691847
 21
696.01686415
 31
0.0
  0
LINE
  5
3F3
100
AcDbEntity
  8
ZUWAKU
  6
CONTINUOUS
 62
       7
100
AcDbLine
 10
-380.61286084
 20
702.10726197
 30
0.0
 11
-386.86450594
 21
695.85561686
 31
0.0
  0
LINE
  5
3F4
100
AcDbEntity
  8
ZUWAKU
  6
CONTINUOUS
 62
       7
100
AcDbLine
 10
-380.13065423
 20
705.41789569
 30
0.0
 11
-380.4568217
 21
705.09172823
 31
0.0
  0
LINE
  5
3F5
100
AcDbEntity
  8
ZUWAKU
  6
CONTINUOUS
 62
       7
100
AcDbLine
 10
-387.97720253
 20
697.5713474
 30
0.0
 11
-389.19243732
 21
696.35611261
 31
0.0
  0
LINE
  5
3F6
100
AcDbEntity
  8
ZUWAKU
  6
CONTINUOUS
 62
       7
100
AcDbLine
 10
-378.91977526
 20
705.2145611
 30
0.0
 11
-380.2534871
 21
703.88084926
 31
0.0
  0
LINE
  5
3F7
100
AcDbEntity
  8
ZUWAKU
  6
CONTINUOUS
 62
       7
100
AcDbLine
 10
-386.7137195
 20
697.42061686
 30
0.0
 11
-388.13944811
 21
695.99488826
 31
0.0
  0
LINE
  5
3F8
100
AcDbEntity
  8
ZUWAKU
  6
CONTINUOUS
 62
       7
100
AcDbLine
 10
-372.88745387
 20
701.34738756
 30
0.0
 11
-378.00131568
 21
696.23352575
 31
0.0
  0
LINE
  5
3F9
100
AcDbEntity
  8
ZUWAKU
  6
CONTINUOUS
 62
       7
100
AcDbLine
 10
-379.64265169
 20
697.42061686
 30
0.0
 11
-381.20765169
 21
695.85561686
 31
0.0
  0
LINE
  5
3FA
100
AcDbEntity
  8
ZUWAKU
  6
CONTINUOUS
 62
       7
100
AcDbLine
 10
-380.69672228
 20
697.78075984
 30
0.0
 11
-382.62186525
 21
695.85561686
 31
0.0
  0
LINE
  5
3FB
100
AcDbEntity
  8
ZUWAKU
  6
CONTINUOUS
 62
       7
100
AcDbLine
 10
-380.41387957
 20
699.47781611
 30
0.0
 11
-382.31778424
 21
697.57391144
 31
0.0
  0
LINE
  5
3FC
100
AcDbEntity
  8
ZUWAKU
  6
CONTINUOUS
 62
       7
100
AcDbLine
 10
-385.45029238
 20
695.85561686
 30
0.0
 11
-380.13103685
 21
701.17487239
 31
0.0
  0
LINE
  5
3FD
100
AcDbEntity
  8
ZUWAKU
  6
CONTINUOUS
 62
       7
100
AcDbLine
 10
-369.91531823
 20
701.49109607
 30
0.0
 11
-375.5413848
 21
695.86502951
 31
0.0
  0
LINE
  5
3FE
100
AcDbEntity
  8
ZUWAKU
  6
CONTINUOUS
 62
       7
100
AcDbLine
 10
-370.52314255
 20
699.4690582
 30
0.0
 11
-373.46875163
 21
696.52344912
 31
0.0
  0
LINE
  5
3FF
100
AcDbEntity
  8
ZUWAKU
  6
CONTINUOUS
 62
       7
100
AcDbLine
 10
-371.04166667
 20
697.53632051
 30
0.0
 11
-372.72237032
 21
695.85561686
 31
0.0
  0
LINE
  5
400
100
AcDbEntity
  8
ZUWAKU
  6
CONTINUOUS
 62
       7
100
AcDbLine
 10
-369.74315675
 20
697.42061686
 30
0.0
 11
-371.30815675
 21
695.85561686
 31
0.0
  0
LINE
  5
401
100
AcDbEntity
  8
ZUWAKU
  6
CONTINUOUS
 62
       7
100
AcDbLine
 10
-364.72980735
 20
701.01975271
 30
0.0
 11
-369.89394319
 21
695.85561686
 31
0.0
  0
LINE
  5
402
100
AcDbEntity
  8
ZUWAKU
  6
CONTINUOUS
 62
       7
100
AcDbLine
 10
-375.01905739
 20
700.6299976
 30
0.0
 11
-375.82282791
 21
699.82622708
 31
0.0
  0
LINE
  5
403
100
AcDbEntity
  8
ZUWAKU
  6
CONTINUOUS
 62
       7
100
AcDbLine
 10
-377.41689954
 20
698.23215545
 30
0.0
 11
-379.79343813
 21
695.85561686
 31
0.0
  0
LINE
  5
404
100
AcDbEntity
  8
ZUWAKU
  6
CONTINUOUS
 62
       7
100
AcDbLine
 10
-374.54166086
 20
698.27896701
 30
0.0
 11
-376.44618878
 21
696.37443908
 31
0.0
  0
LINE
  5
405
100
AcDbEntity
  8
ZUWAKU
  6
CONTINUOUS
 62
       7
100
AcDbLine
 10
-371.32953179
 20
701.49109607
 30
0.0
 11
-371.52373495
 21
701.29689291
 31
0.0
  0
LINE
  5
406
100
AcDbEntity
  8
ZUWAKU
  6
CONTINUOUS
 62
       7
100
AcDbLine
 10
-372.01263945
 20
700.80798842
 30
0.0
 11
-373.35717309
 21
699.46345478
 31
0.0
  0
POINT
  5
407
100
AcDbEntity
  8
ZUWAKU
  6
CONTINUOUS
 62
       7
100
AcDbPoint
 10
313.95833333
 20
691.71527403
 30
0.0
  0
POINT
  5
408
100
AcDbEntity
  8
ZUWAKU
  6
CONTINUOUS
 62
       7
100
AcDbPoint
 10
-74.61797481
 20
691.71527403
 30
0.0
  0
POINT
  5
409
100
AcDbEntity
  8
ZUWAKU
  6
CONTINUOUS
 62
       7
100
AcDbPoint
 10
310.83333333
 20
-675.55063314
 30
0.0
  0
POINT
  5
40A
100
AcDbEntity
  8
ZUWAKU
  6
CONTINUOUS
 62
       7
100
AcDbPoint
 10
-26.51041667
 20
-675.55063314
 30
0.0
  0
LINE
  5
40B
100
AcDbEntity
  8
ZUWAKU
  6
CONTINUOUS
 62
       7
100
AcDbLine
 10
-525.10416667
 20
767.39583333
 30
0.0
 11
-525.10416667
 21
742.39583333
 31
0.0
  0
LINE
  5
40C
100
AcDbEntity
  8
ZUWAKU
  6
CONTINUOUS
 62
       7
100
AcDbLine
 10
-525.10416667
 20
742.39583333
 30
0.0
 11
-550.10416667
 21
742.39583333
 31
0.0
  0
LINE
  5
40D
100
AcDbEntity
  8
ZUWAKU
  6
CONTINUOUS
 62
       7
100
AcDbLine
 10
524.89583333
 20
742.39583333
 30
0.0
 11
549.89583333
 21
742.39583333
 31
0.0
  0
LINE
  5
40E
100
AcDbEntity
  8
ZUWAKU
  6
CONTINUOUS
 62
       7
100
AcDbLine
 10
524.89583333
 20
742.39583333
 30
0.0
 11
524.89583333
 21
767.39583333
 31
0.0
  0
LINE
  5
40F
100
AcDbEntity
  8
ZUWAKU
  6
CONTINUOUS
 62
       7
100
AcDbLine
 10
524.89583333
 20
-767.60416667
 30
0.0
 11
524.89583333
 21
-742.60416667
 31
0.0
  0
LINE
  5
410
100
AcDbEntity
  8
ZUWAKU
  6
CONTINUOUS
 62
       7
100
AcDbLine
 10
524.89583333
 20
-742.60416667
 30
0.0
 11
549.89583333
 21
-742.60416667
 31
0.0
  0
LINE
  5
411
100
AcDbEntity
  8
ZUWAKU
  6
CONTINUOUS
 62
       7
100
AcDbLine
 10
-550.21978214
 20
-742.60416667
 30
0.0
 11
-525.10416667
 21
-742.60416667
 31
0.0
  0
LINE
  5
412
100
AcDbEntity
  8
ZUWAKU
  6
CONTINUOUS
 62
       7
100
AcDbLine
 10
-525.10416667
 20
-742.77671992
 30
0.0
 11
-525.10416667
 21
-767.60389933
 31
0.0
  0
LINE
  5
413
100
AcDbEntity
  8
ZUWAKU
  6
CONTINUOUS
 62
       7
100
AcDbLine
 10
-352.72686356
 20
701.708988
 30
0.0
 11
-358.58023469
 21
695.85561686
 31
0.0
  0
LINE
  5
414
100
AcDbEntity
  8
ZUWAKU
  6
CONTINUOUS
 62
       7
100
AcDbLine
 10
-341.47852543
 20
697.38354353
 30
0.0
 11
-343.00645209
 21
695.85561686
 31
0.0
  0
LINE
  5
415
100
AcDbEntity
  8
ZUWAKU
  6
CONTINUOUS
 62
       7
100
AcDbLine
 10
-342.87309907
 20
697.42061686
 30
0.0
 11
-344.43809907
 21
695.85561686
 31
0.0
  0
LINE
  5
416
100
AcDbEntity
  8
ZUWAKU
  6
CONTINUOUS
 62
       7
100
AcDbLine
 10
-344.30863171
 20
701.64193847
 30
0.0
 11
-345.76224944
 21
700.18832074
 31
0.0
  0
LINE
  5
417
100
AcDbEntity
  8
ZUWAKU
  6
CONTINUOUS
 62
       7
100
AcDbLine
 10
-343.72985965
 20
700.78906356
 30
0.0
 11
-345.17150761
 21
699.34741559
 31
0.0
  0
LINE
  5
418
100
AcDbEntity
  8
ZUWAKU
  6
CONTINUOUS
 62
       7
100
AcDbLine
 10
-345.95320152
 20
698.56572169
 30
0.0
 11
-348.66330634
 21
695.85561686
 31
0.0
  0
LINE
  5
419
100
AcDbEntity
  8
ZUWAKU
  6
CONTINUOUS
 62
       7
100
AcDbLine
 10
-345.36371474
 20
701.98363559
 30
0.0
 11
-348.03536924
 21
699.31198109
 31
0.0
  0
LINE
  5
41A
100
AcDbEntity
  8
ZUWAKU
  6
CONTINUOUS
 62
       7
100
AcDbLine
 10
-349.92673346
 20
697.42061686
 30
0.0
 11
-351.49173346
 21
695.85561686
 31
0.0
  0
LINE
  5
41B
100
AcDbEntity
  8
ZUWAKU
  6
CONTINUOUS
 62
       7
100
AcDbLine
 10
-346.51366555
 20
699.43690463
 30
0.0
 11
-347.96728328
 21
697.9832869
 31
0.0
  0
LINE
  5
41C
100
AcDbEntity
  8
ZUWAKU
  6
CONTINUOUS
 62
       7
100
AcDbLine
 10
-348.52995332
 20
697.42061686
 30
0.0
 11
-350.09495332
 21
695.85561686
 31
0.0
  0
LINE
  5
41D
100
AcDbEntity
  8
ZUWAKU
  6
CONTINUOUS
 62
       7
100
AcDbLine
 10
-343.6521843
 20
699.46995876
 30
0.0
 11
-347.10325353
 21
696.01888953
 31
0.0
  0
LINE
  5
41E
100
AcDbEntity
  8
ZUWAKU
  6
CONTINUOUS
 62
       7
100
AcDbLine
 10
-344.26987921
 20
697.42061686
 30
0.0
 11
-345.71784828
 21
695.9726478
 31
0.0
  0
LINE
  5
41F
100
AcDbEntity
  8
ZUWAKU
  6
CONTINUOUS
 62
       7
100
AcDbLine
 10
-351.35838044
 20
697.42061686
 30
0.0
 11
-352.92338044
 21
695.85561686
 31
0.0
  0
LINE
  5
420
100
AcDbEntity
  8
ZUWAKU
  6
CONTINUOUS
 62
       7
100
AcDbLine
 10
-352.75516059
 20
697.42061686
 30
0.0
 11
-354.32016059
 21
695.85561686
 31
0.0
  0
LINE
  5
421
100
AcDbEntity
  8
ZUWAKU
  6
CONTINUOUS
 62
       7
100
AcDbLine
 10
-351.76620834
 20
701.23799623
 30
0.0
 11
-352.8308947
 21
700.17330988
 31
0.0
  0
LINE
  5
422
100
AcDbEntity
  8
ZUWAKU
  6
CONTINUOUS
 62
       7
100
AcDbLine
 10
-354.06021259
 20
697.54721184
 30
0.0
 11
-355.15840005
 21
696.44902438
 31
0.0
  0
LINE
  5
423
100
AcDbEntity
  8
ZUWAKU
  6
CONTINUOUS
 62
       7
100
AcDbLine
 10
-354.7703694
 20
698.23383518
 30
0.0
 11
-356.95922538
 21
696.0449792
 31
0.0
  0
LINE
  5
424
100
AcDbEntity
  8
ZUWAKU
  6
CONTINUOUS
 62
       7
100
AcDbLine
 10
-354.09682196
 20
701.73580974
 30
0.0
 11
-356.33286927
 21
699.49976244
 31
0.0
  0
LINE
  5
425
100
AcDbEntity
  8
ZUWAKU
  6
CONTINUOUS
 62
       7
100
AcDbLine
 10
-358.41201484
 20
697.42061686
 30
0.0
 11
-359.97701484
 21
695.85561686
 31
0.0
  0
LINE
  5
426
100
AcDbEntity
  8
ZUWAKU
  6
CONTINUOUS
 62
       7
100
AcDbLine
 10
-359.84366182
 20
697.42061686
 30
0.0
 11
-361.40866182
 21
695.85561686
 31
0.0
  0
LINE
  5
427
100
AcDbEntity
  8
ZUWAKU
  6
CONTINUOUS
 62
       7
100
AcDbLine
 10
-360.07843793
 20
698.5826209
 30
0.0
 11
-362.80544196
 21
695.85561686
 31
0.0
  0
LINE
  5
428
100
AcDbEntity
  8
ZUWAKU
  6
CONTINUOUS
 62
       7
100
AcDbLine
 10
-359.28077679
 20
700.81192902
 30
0.0
 11
-362.16213965
 21
697.93056615
 31
0.0
  0
LINE
  5
429
100
AcDbEntity
  8
ZUWAKU
  6
CONTINUOUS
 62
       7
100
AcDbLine
 10
-359.76565001
 20
701.74126936
 30
0.0
 11
-361.9013025
 21
699.60561686
 31
0.0
  0
LINE
  5
42A
100
AcDbEntity
  8
ZUWAKU
  6
CONTINUOUS
 62
       7
100
AcDbLine
 10
-364.6291999
 20
696.87771947
 30
0.0
 11
-365.6513025
 21
695.85561686
 31
0.0
  0
LINE
  5
42B
100
AcDbEntity
  8
ZUWAKU
  6
CONTINUOUS
 62
       7
100
AcDbLine
 10
-361.12801607
 20
701.79311686
 30
0.0
 11
-363.31551607
 21
699.60561686
 31
0.0
  0
LINE
  5
42C
100
AcDbEntity
  8
ZUWAKU
  6
CONTINUOUS
 62
       7
100
AcDbLine
 10
-363.82107787
 20
699.10005507
 30
0.0
 11
-366.6582216
 21
696.26291133
 31
0.0
  0
LINE
  5
42D
100
AcDbEntity
  8
ZUWAKU
  6
CONTINUOUS
 62
       7
100
AcDbLine
 10
-363.09735026
 20
701.23799623
 30
0.0
 11
-368.04617036
 21
696.28917613
 31
0.0
  0
LINE
  5
42E
100
AcDbEntity
  8
ZUWAKU
  6
CONTINUOUS
 62
       7
100
AcDbLine
 10
497.39583333
 20
-276.95688314
 30
0.0
 11
524.89583333
 21
-276.95688314
 31
0.0
  0
LINE
  5
42F
100
AcDbEntity
  8
ZUWAKU
  6
CONTINUOUS
 62
       7
100
AcDbLine
 10
497.39583333
 20
-251.95688314
 30
0.0
 11
524.89583333
 21
-251.95688314
 31
0.0
  0
LINE
  5
430
100
AcDbEntity
  8
ZUWAKU
  6
CONTINUOUS
 62
       7
100
AcDbLine
 10
524.89583333
 20
-251.95688314
 30
0.0
 11
524.89583333
 21
-276.95688314
 31
0.0
  0
LINE
  5
431
100
AcDbEntity
  8
ZUWAKU
  6
CONTINUOUS
 62
       7
100
AcDbLine
 10
497.39583333
 20
-251.95688314
 30
0.0
 11
497.39583333
 21
-276.95688314
 31
0.0
  0
LINE
  5
432
100
AcDbEntity
  8
ZUWAKU
  6
CONTINUOUS
 62
       7
100
AcDbLine
 10
524.89583333
 20
-276.86983404
 30
0.0
 11
524.80878424
 21
-276.95688314
 31
0.0
  0
LINE
  5
433
100
AcDbEntity
  8
ZUWAKU
  6
CONTINUOUS
 62
       7
100
AcDbLine
 10
510.22277422
 20
-251.95688314
 30
0.0
 11
497.39583333
 21
-264.78382402
 31
0.0
  0
LINE
  5
434
100
AcDbEntity
  8
ZUWAKU
  6
CONTINUOUS
 62
       7
100
AcDbLine
 10
508.80856066
 20
-251.95688314
 30
0.0
 11
497.39583333
 21
-263.36961046
 31
0.0
  0
LINE
  5
435
100
AcDbEntity
  8
ZUWAKU
  6
CONTINUOUS
 62
       7
100
AcDbLine
 10
507.39434709
 20
-251.95688314
 30
0.0
 11
497.39583333
 21
-261.9553969
 31
0.0
  0
LINE
  5
436
100
AcDbEntity
  8
ZUWAKU
  6
CONTINUOUS
 62
       7
100
AcDbLine
 10
505.98013353
 20
-251.95688314
 30
0.0
 11
497.39583333
 21
-260.54118333
 31
0.0
  0
LINE
  5
437
100
AcDbEntity
  8
ZUWAKU
  6
CONTINUOUS
 62
       7
100
AcDbLine
 10
504.56591997
 20
-251.95688314
 30
0.0
 11
497.39583333
 21
-259.12696977
 31
0.0
  0
LINE
  5
438
100
AcDbEntity
  8
ZUWAKU
  6
CONTINUOUS
 62
       7
100
AcDbLine
 10
503.15170641
 20
-251.95688314
 30
0.0
 11
497.39583333
 21
-257.71275621
 31
0.0
  0
LINE
  5
439
100
AcDbEntity
  8
ZUWAKU
  6
CONTINUOUS
 62
       7
100
AcDbLine
 10
501.73749285
 20
-251.95688314
 30
0.0
 11
497.39583333
 21
-256.29854265
 31
0.0
  0
LINE
  5
43A
100
AcDbEntity
  8
ZUWAKU
  6
CONTINUOUS
 62
       7
100
AcDbLine
 10
500.32327928
 20
-251.95688314
 30
0.0
 11
497.39583333
 21
-254.88432908
 31
0.0
  0
LINE
  5
43B
100
AcDbEntity
  8
ZUWAKU
  6
CONTINUOUS
 62
       7
100
AcDbLine
 10
498.90906572
 20
-251.95688314
 30
0.0
 11
497.39583333
 21
-253.47011552
 31
0.0
  0
LINE
  5
43C
100
AcDbEntity
  8
ZUWAKU
  6
CONTINUOUS
 62
       7
100
AcDbLine
 10
511.63698778
 20
-251.95688314
 30
0.0
 11
497.39583333
 21
-266.19803758
 31
0.0
  0
LINE
  5
43D
100
AcDbEntity
  8
ZUWAKU
  6
CONTINUOUS
 62
       7
100
AcDbLine
 10
513.05120134
 20
-251.95688314
 30
0.0
 11
497.39583333
 21
-267.61225115
 31
0.0
  0
LINE
  5
43E
100
AcDbEntity
  8
ZUWAKU
  6
CONTINUOUS
 62
       7
100
AcDbLine
 10
514.46541491
 20
-251.95688314
 30
0.0
 11
497.39583333
 21
-269.02646471
 31
0.0
  0
LINE
  5
43F
100
AcDbEntity
  8
ZUWAKU
  6
CONTINUOUS
 62
       7
100
AcDbLine
 10
515.87962847
 20
-251.95688314
 30
0.0
 11
497.39583333
 21
-270.44067827
 31
0.0
  0
LINE
  5
440
100
AcDbEntity
  8
ZUWAKU
  6
CONTINUOUS
 62
       7
100
AcDbLine
 10
517.29384203
 20
-251.95688314
 30
0.0
 11
497.39583333
 21
-271.85489183
 31
0.0
  0
LINE
  5
441
100
AcDbEntity
  8
ZUWAKU
  6
CONTINUOUS
 62
       7
100
AcDbLine
 10
518.70805559
 20
-251.95688314
 30
0.0
 11
497.39583333
 21
-273.2691054
 31
0.0
  0
LINE
  5
442
100
AcDbEntity
  8
ZUWAKU
  6
CONTINUOUS
 62
       7
100
AcDbLine
 10
520.12226916
 20
-251.95688314
 30
0.0
 11
497.39583333
 21
-274.68331896
 31
0.0
  0
LINE
  5
443
100
AcDbEntity
  8
ZUWAKU
  6
CONTINUOUS
 62
       7
100
AcDbLine
 10
521.53648272
 20
-251.95688314
 30
0.0
 11
497.39583333
 21
-276.09753252
 31
0.0
  0
LINE
  5
444
100
AcDbEntity
  8
ZUWAKU
  6
CONTINUOUS
 62
       7
100
AcDbLine
 10
522.95069628
 20
-251.95688314
 30
0.0
 11
497.95069628
 21
-276.95688314
 31
0.0
  0
LINE
  5
445
100
AcDbEntity
  8
ZUWAKU
  6
CONTINUOUS
 62
       7
100
AcDbLine
 10
524.36490984
 20
-251.95688314
 30
0.0
 11
499.36490984
 21
-276.95688314
 31
0.0
  0
LINE
  5
446
100
AcDbEntity
  8
ZUWAKU
  6
CONTINUOUS
 62
       7
100
AcDbLine
 10
524.89583333
 20
-252.84017321
 30
0.0
 11
500.77912341
 21
-276.95688314
 31
0.0
  0
LINE
  5
447
100
AcDbEntity
  8
ZUWAKU
  6
CONTINUOUS
 62
       7
100
AcDbLine
 10
524.89583333
 20
-254.25438677
 30
0.0
 11
502.19333697
 21
-276.95688314
 31
0.0
  0
LINE
  5
448
100
AcDbEntity
  8
ZUWAKU
  6
CONTINUOUS
 62
       7
100
AcDbLine
 10
524.89583333
 20
-255.66860033
 30
0.0
 11
503.60755053
 21
-276.95688314
 31
0.0
  0
LINE
  5
449
100
AcDbEntity
  8
ZUWAKU
  6
CONTINUOUS
 62
       7
100
AcDbLine
 10
524.89583333
 20
-257.08281389
 30
0.0
 11
505.02176409
 21
-276.95688314
 31
0.0
  0
LINE
  5
44A
100
AcDbEntity
  8
ZUWAKU
  6
CONTINUOUS
 62
       7
100
AcDbLine
 10
524.89583333
 20
-258.49702746
 30
0.0
 11
506.43597765
 21
-276.95688314
 31
0.0
  0
LINE
  5
44B
100
AcDbEntity
  8
ZUWAKU
  6
CONTINUOUS
 62
       7
100
AcDbLine
 10
524.89583333
 20
-259.91124102
 30
0.0
 11
507.85019122
 21
-276.95688314
 31
0.0
  0
LINE
  5
44C
100
AcDbEntity
  8
ZUWAKU
  6
CONTINUOUS
 62
       7
100
AcDbLine
 10
524.89583333
 20
-261.32545458
 30
0.0
 11
509.26440478
 21
-276.95688314
 31
0.0
  0
LINE
  5
44D
100
AcDbEntity
  8
ZUWAKU
  6
CONTINUOUS
 62
       7
100
AcDbLine
 10
524.89583333
 20
-262.73966814
 30
0.0
 11
510.67861834
 21
-276.95688314
 31
0.0
  0
LINE
  5
44E
100
AcDbEntity
  8
ZUWAKU
  6
CONTINUOUS
 62
       7
100
AcDbLine
 10
524.89583333
 20
-264.15388171
 30
0.0
 11
512.0928319
 21
-276.95688314
 31
0.0
  0
LINE
  5
44F
100
AcDbEntity
  8
ZUWAKU
  6
CONTINUOUS
 62
       7
100
AcDbLine
 10
524.89583333
 20
-265.56809527
 30
0.0
 11
513.50704547
 21
-276.95688314
 31
0.0
  0
LINE
  5
450
100
AcDbEntity
  8
ZUWAKU
  6
CONTINUOUS
 62
       7
100
AcDbLine
 10
524.89583333
 20
-266.98230883
 30
0.0
 11
514.92125903
 21
-276.95688314
 31
0.0
  0
LINE
  5
451
100
AcDbEntity
  8
ZUWAKU
  6
CONTINUOUS
 62
       7
100
AcDbLine
 10
524.89583333
 20
-268.39652239
 30
0.0
 11
516.33547259
 21
-276.95688314
 31
0.0
  0
LINE
  5
452
100
AcDbEntity
  8
ZUWAKU
  6
CONTINUOUS
 62
       7
100
AcDbLine
 10
524.89583333
 20
-269.81073596
 30
0.0
 11
517.74968615
 21
-276.95688314
 31
0.0
  0
LINE
  5
453
100
AcDbEntity
  8
ZUWAKU
  6
CONTINUOUS
 62
       7
100
AcDbLine
 10
524.89583333
 20
-271.22494952
 30
0.0
 11
519.16389972
 21
-276.95688314
 31
0.0
  0
LINE
  5
454
100
AcDbEntity
  8
ZUWAKU
  6
CONTINUOUS
 62
       7
100
AcDbLine
 10
524.89583333
 20
-272.63916308
 30
0.0
 11
520.57811328
 21
-276.95688314
 31
0.0
  0
LINE
  5
455
100
AcDbEntity
  8
ZUWAKU
  6
CONTINUOUS
 62
       7
100
AcDbLine
 10
524.89583333
 20
-274.05337664
 30
0.0
 11
521.99232684
 21
-276.95688314
 31
0.0
  0
LINE
  5
456
100
AcDbEntity
  8
ZUWAKU
  6
CONTINUOUS
 62
       7
100
AcDbLine
 10
524.89583333
 20
-275.46759021
 30
0.0
 11
523.4065404
 21
-276.95688314
 31
0.0
  0
LINE
  5
457
100
AcDbEntity
  8
ZUWAKU
  6
CONTINUOUS
 62
       7
100
AcDbLine
 10
524.89583333
 20
-276.88180377
 30
0.0
 11
524.82075397
 21
-276.95688314
 31
0.0
  0
LINE
  5
458
100
AcDbEntity
  8
ZUWAKU
  6
CONTINUOUS
 62
       7
100
AcDbLine
 10
-455.41666667
 20
-636.95688314
 30
0.0
 11
-455.41666667
 21
-411.95688314
 31
0.0
  0
LINE
  5
459
100
AcDbEntity
  8
ZUWAKU
  6
CONTINUOUS
 62
       7
100
AcDbLine
 10
-420.72916667
 20
-636.95688314
 30
0.0
 11
-420.72916667
 21
-411.95688314
 31
0.0
  0
LINE
  5
45A
100
AcDbEntity
  8
ZUWAKU
  6
CONTINUOUS
 62
       7
100
AcDbLine
 10
-187.91666667
 20
-636.95688314
 30
0.0
 11
-187.91666667
 21
-411.95688314
 31
0.0
  0
LINE
  5
45B
100
AcDbEntity
  8
ZUWAKU
  6
CONTINUOUS
 62
       7
100
AcDbLine
 10
77.70833333
 20
-636.95688314
 30
0.0
 11
77.70833333
 21
-411.95688314
 31
0.0
  0
LINE
  5
45C
100
AcDbEntity
  8
ZUWAKU
  6
CONTINUOUS
 62
       7
100
AcDbLine
 10
133.33333333
 20
-636.95688314
 30
0.0
 11
133.33333333
 21
-411.95688314
 31
0.0
  0
POINT
  5
45D
100
AcDbEntity
  8
ZUWAKU
  6
CONTINUOUS
 62
       7
100
AcDbPoint
 10
105.52083333
 20
-599.45688314
 30
0.0
  0
POINT
  5
45E
100
AcDbEntity
  8
ZUWAKU
  6
CONTINUOUS
 62
       7
100
AcDbPoint
 10
-415.72916667
 20
-599.45688314
 30
0.0
  0
POINT
  5
45F
100
AcDbEntity
  8
ZUWAKU
  6
CONTINUOUS
 62
       7
100
AcDbPoint
 10
-182.91666667
 20
-599.45688314
 30
0.0
  0
POINT
  5
460
100
AcDbEntity
  8
ZUWAKU
  6
CONTINUOUS
 62
       7
100
AcDbPoint
 10
138.33333333
 20
-599.45688314
 30
0.0
  0
POINT
  5
461
100
AcDbEntity
  8
ZUWAKU
  6
CONTINUOUS
 62
       7
100
AcDbPoint
 10
105.52083333
 20
-574.45688314
 30
0.0
  0
POINT
  5
462
100
AcDbEntity
  8
ZUWAKU
  6
CONTINUOUS
 62
       7
100
AcDbPoint
 10
-415.72916667
 20
-574.45688314
 30
0.0
  0
POINT
  5
463
100
AcDbEntity
  8
ZUWAKU
  6
CONTINUOUS
 62
       7
100
AcDbPoint
 10
-182.91666667
 20
-574.45688314
 30
0.0
  0
POINT
  5
464
100
AcDbEntity
  8
ZUWAKU
  6
CONTINUOUS
 62
       7
100
AcDbPoint
 10
138.33333333
 20
-574.45688314
 30
0.0
  0
POINT
  5
465
100
AcDbEntity
  8
ZUWAKU
  6
CONTINUOUS
 62
       7
100
AcDbPoint
 10
105.52083333
 20
-549.45688314
 30
0.0
  0
POINT
  5
466
100
AcDbEntity
  8
ZUWAKU
  6
CONTINUOUS
 62
       7
100
AcDbPoint
 10
-415.72916667
 20
-549.45688314
 30
0.0
  0
POINT
  5
467
100
AcDbEntity
  8
ZUWAKU
  6
CONTINUOUS
 62
       7
100
AcDbPoint
 10
-182.91666667
 20
-549.45688314
 30
0.0
  0
POINT
  5
468
100
AcDbEntity
  8
ZUWAKU
  6
CONTINUOUS
 62
       7
100
AcDbPoint
 10
138.33333333
 20
-549.45688314
 30
0.0
  0
POINT
  5
469
100
AcDbEntity
  8
ZUWAKU
  6
CONTINUOUS
 62
       7
100
AcDbPoint
 10
105.52083333
 20
-524.45688314
 30
0.0
  0
POINT
  5
46A
100
AcDbEntity
  8
ZUWAKU
  6
CONTINUOUS
 62
       7
100
AcDbPoint
 10
-415.72916667
 20
-524.45688314
 30
0.0
  0
POINT
  5
46B
100
AcDbEntity
  8
ZUWAKU
  6
CONTINUOUS
 62
       7
100
AcDbPoint
 10
-182.91666667
 20
-524.45688314
 30
0.0
  0
POINT
  5
46C
100
AcDbEntity
  8
ZUWAKU
  6
CONTINUOUS
 62
       7
100
AcDbPoint
 10
138.33333333
 20
-524.45688314
 30
0.0
  0
POINT
  5
46D
100
AcDbEntity
  8
ZUWAKU
  6
CONTINUOUS
 62
       7
100
AcDbPoint
 10
105.52083333
 20
-499.45688314
 30
0.0
  0
POINT
  5
46E
100
AcDbEntity
  8
ZUWAKU
  6
CONTINUOUS
 62
       7
100
AcDbPoint
 10
-415.72916667
 20
-499.45688314
 30
0.0
  0
POINT
  5
46F
100
AcDbEntity
  8
ZUWAKU
  6
CONTINUOUS
 62
       7
100
AcDbPoint
 10
-182.91666667
 20
-499.45688314
 30
0.0
  0
POINT
  5
470
100
AcDbEntity
  8
ZUWAKU
  6
CONTINUOUS
 62
       7
100
AcDbPoint
 10
138.33333333
 20
-499.45688314
 30
0.0
  0
POINT
  5
471
100
AcDbEntity
  8
ZUWAKU
  6
CONTINUOUS
 62
       7
100
AcDbPoint
 10
105.52083333
 20
-474.45688314
 30
0.0
  0
POINT
  5
472
100
AcDbEntity
  8
ZUWAKU
  6
CONTINUOUS
 62
       7
100
AcDbPoint
 10
-415.72916667
 20
-474.45688314
 30
0.0
  0
POINT
  5
473
100
AcDbEntity
  8
ZUWAKU
  6
CONTINUOUS
 62
       7
100
AcDbPoint
 10
-182.91666667
 20
-474.45688314
 30
0.0
  0
POINT
  5
474
100
AcDbEntity
  8
ZUWAKU
  6
CONTINUOUS
 62
       7
100
AcDbPoint
 10
138.33333333
 20
-474.45688314
 30
0.0
  0
POINT
  5
475
100
AcDbEntity
  8
ZUWAKU
  6
CONTINUOUS
 62
       7
100
AcDbPoint
 10
105.52083333
 20
-449.45688314
 30
0.0
  0
POINT
  5
476
100
AcDbEntity
  8
ZUWAKU
  6
CONTINUOUS
 62
       7
100
AcDbPoint
 10
-415.72916667
 20
-449.45688314
 30
0.0
  0
POINT
  5
477
100
AcDbEntity
  8
ZUWAKU
  6
CONTINUOUS
 62
       7
100
AcDbPoint
 10
-182.91666667
 20
-449.45688314
 30
0.0
  0
POINT
  5
478
100
AcDbEntity
  8
ZUWAKU
  6
CONTINUOUS
 62
       7
100
AcDbPoint
 10
138.33333333
 20
-449.45688314
 30
0.0
  0
LINE
  5
479
100
AcDbEntity
  8
ZUWAKU
  6
CONTINUOUS
 62
       7
100
AcDbLine
 10
-455.41666667
 20
-636.95688314
 30
0.0
 11
466.77083333
 21
-636.95688314
 31
0.0
  0
LINE
  5
47A
100
AcDbEntity
  8
ZUWAKU
  6
CONTINUOUS
 62
       7
100
AcDbLine
 10
466.77083333
 20
-636.95688314
 30
0.0
 11
466.77083333
 21
-411.95688314
 31
0.0
  0
LINE
  5
47B
100
AcDbEntity
  8
ZUWAKU
  6
CONTINUOUS
 62
       7
100
AcDbLine
 10
-455.41666667
 20
-611.95688314
 30
0.0
 11
466.77083333
 21
-611.95688314
 31
0.0
  0
LINE
  5
47C
100
AcDbEntity
  8
ZUWAKU
  6
CONTINUOUS
 62
       7
100
AcDbLine
 10
-455.41666667
 20
-586.95688314
 30
0.0
 11
466.77083333
 21
-586.95688314
 31
0.0
  0
LINE
  5
47D
100
AcDbEntity
  8
ZUWAKU
  6
CONTINUOUS
 62
       7
100
AcDbLine
 10
-455.41666667
 20
-561.95688314
 30
0.0
 11
466.77083333
 21
-561.95688314
 31
0.0
  0
LINE
  5
47E
100
AcDbEntity
  8
ZUWAKU
  6
CONTINUOUS
 62
       7
100
AcDbLine
 10
-455.41666667
 20
-536.95688314
 30
0.0
 11
466.77083333
 21
-536.95688314
 31
0.0
  0
LINE
  5
47F
100
AcDbEntity
  8
ZUWAKU
  6
CONTINUOUS
 62
       7
100
AcDbLine
 10
-455.41666667
 20
-511.95688314
 30
0.0
 11
466.77083333
 21
-511.95688314
 31
0.0
  0
LINE
  5
480
100
AcDbEntity
  8
ZUWAKU
  6
CONTINUOUS
 62
       7
100
AcDbLine
 10
-455.41666667
 20
-486.95688314
 30
0.0
 11
466.77083333
 21
-486.95688314
 31
0.0
  0
LINE
  5
481
100
AcDbEntity
  8
ZUWAKU
  6
CONTINUOUS
 62
       7
100
AcDbLine
 10
-455.41666667
 20
-461.95688314
 30
0.0
 11
466.77083333
 21
-461.95688314
 31
0.0
  0
LINE
  5
482
100
AcDbEntity
  8
ZUWAKU
  6
CONTINUOUS
 62
       7
100
AcDbLine
 10
-455.41666667
 20
-436.95688314
 30
0.0
 11
466.77083333
 21
-436.95688314
 31
0.0
  0
POINT
  5
483
100
AcDbEntity
  8
ZUWAKU
  6
CONTINUOUS
 62
       7
100
AcDbPoint
 10
105.52083333
 20
-424.45688314
 30
0.0
  0
POINT
  5
484
100
AcDbEntity
  8
ZUWAKU
  6
CONTINUOUS
 62
       7
100
AcDbPoint
 10
-415.72916667
 20
-424.45688314
 30
0.0
  0
POINT
  5
485
100
AcDbEntity
  8
ZUWAKU
  6
CONTINUOUS
 62
       7
100
AcDbPoint
 10
-182.91666667
 20
-424.45688314
 30
0.0
  0
POINT
  5
486
100
AcDbEntity
  8
ZUWAKU
  6
CONTINUOUS
 62
       7
100
AcDbPoint
 10
138.33333333
 20
-424.45688314
 30
0.0
  0
LINE
  5
487
100
AcDbEntity
  8
ZUWAKU
  6
CONTINUOUS
 62
       7
100
AcDbLine
 10
-455.41666667
 20
-411.95688314
 30
0.0
 11
466.77083333
 21
-411.95688314
 31
0.0
  0
LINE
  5
488
100
AcDbEntity
  8
ZUWAKU
  6
CONTINUOUS
 62
       7
100
AcDbLine
 10
118.48762746
 20
204.130928
 30
0.0
 11
118.48762746
 21
22.4161572
 31
0.0
  0
LINE
  5
489
100
AcDbEntity
  8
ZUWAKU
  6
CONTINUOUS
 62
       7
100
AcDbLine
 10
311.01733884
 20
204.130928
 30
0.0
 11
311.01733884
 21
22.4161572
 31
0.0
  0
LINE
  5
48A
100
AcDbEntity
  8
ZUWAKU
  6
CONTINUOUS
 62
       7
100
AcDbLine
 10
458.65190583
 20
22.4161572
 30
0.0
 11
458.65190583
 21
204.130928
 31
0.0
  0
LINE
  5
48B
100
AcDbEntity
  8
ZUWAKU
  6
CONTINUOUS
 62
       7
100
AcDbLine
 10
118.48762746
 20
204.130928
 30
0.0
 11
458.65190583
 21
204.130928
 31
0.0
  0
LINE
  5
48C
100
AcDbEntity
  8
ZUWAKU
  6
CONTINUOUS
 62
       7
100
AcDbLine
 10
118.48762746
 20
174.130928
 30
0.0
 11
458.65190583
 21
174.130928
 31
0.0
  0
LINE
  5
48D
100
AcDbEntity
  8
ZUWAKU
  6
CONTINUOUS
 62
       7
100
AcDbLine
 10
118.48762746
 20
144.130928
 30
0.0
 11
458.65190583
 21
144.130928
 31
0.0
  0
LINE
  5
48E
100
AcDbEntity
  8
ZUWAKU
  6
CONTINUOUS
 62
       7
100
AcDbLine
 10
118.48762746
 20
114.130928
 30
0.0
 11
458.65190583
 21
114.130928
 31
0.0
  0
LINE
  5
48F
100
AcDbEntity
  8
ZUWAKU
  6
CONTINUOUS
 62
       7
100
AcDbLine
 10
118.48762746
 20
84.130928
 30
0.0
 11
458.65190583
 21
84.130928
 31
0.0
  0
LINE
  5
490
100
AcDbEntity
  8
ZUWAKU
  6
CONTINUOUS
 62
       7
100
AcDbLine
 10
118.48762746
 20
53.2735426
 30
0.0
 11
458.65190583
 21
53.2735426
 31
0.0
  0
LINE
  5
491
100
AcDbEntity
  8
ZUWAKU
  6
CONTINUOUS
 62
       7
100
AcDbLine
 10
118.48762746
 20
171.59699135
 30
0.0
 11
458.65190583
 21
171.59699135
 31
0.0
  0
LINE
  5
492
100
AcDbEntity
  8
ZUWAKU
  6
CONTINUOUS
 62
       7
100
AcDbLine
 10
118.48762746
 20
22.4161572
 30
0.0
 11
458.65190583
 21
22.4161572
 31
0.0
  0
TEXT
  5
493
100
AcDbEntity
  8
ZUWAKU
 62
       7
100
AcDbText
 10
-420.36010494
 20
-692.89438314
 30
0.0
 40
17.0
  1
株式会社
 41
0.6667
 72
       5
 11
-365.96010494
 21
-692.89438314
 31
0.0
100
AcDbText
  0
TEXT
  5
494
100
AcDbEntity
  8
ZUWAKU
 62
       7
100
AcDbText
 10
370.80965928
 20
-733.23664751
 30
0.0
 40
20.0
  1
090107
 41
0.8
 72
       5
 11
466.80965928
 21
-733.23664751
 31
0.0
100
AcDbText
  0
TEXT
  5
495
100
AcDbEntity
  8
ZUWAKU
 62
       7
100
AcDbText
 10
-195.41914009
 20
-649.6836785
 30
0.0
 40
12.495
  1
品 名
 41
0.8
  7
FDASTYLE1
100
AcDbText
  0
TEXT
  5
496
100
AcDbEntity
  8
ZUWAKU
 62
       7
100
AcDbText
 10
142.09205179
 20
-649.77166085
 30
0.0
 40
12.495
  1
品　番
 41
0.8
  7
FDASTYLE1
100
AcDbText
  0
TEXT
  5
497
100
AcDbEntity
  8
ZUWAKU
 62
       7
100
AcDbText
 10
497.43204249
 20
-280.40830311
 30
0.0
 40
20.0
  1
洗面台
 50
-90.0
 41
0.75
 72
       5
 11
497.43204249
 21
-328.40830311
 31
0.0
100
AcDbText
  0
TEXT
  5
498
100
AcDbEntity
  8
ZUWAKU
 62
       7
100
AcDbText
 10
-446.85789832
 20
-609.25705014
 30
0.0
 40
20.0
  1
1
 41
0.8
 72
       5
 11
-430.85789832
 21
-609.25705014
 31
0.0
100
AcDbText
  0
TEXT
  5
499
100
AcDbEntity
  8
ZUWAKU
 62
       7
100
AcDbText
 10
-446.85789832
 20
-584.25705014
 30
0.0
 40
20.0
  1
2
 41
0.8
 72
       5
 11
-430.85789832
 21
-584.25705014
 31
0.0
100
AcDbText
  0
TEXT
  5
49A
100
AcDbEntity
  8
ZUWAKU
 62
       7
100
AcDbText
 10
-446.85789832
 20
-559.25705014
 30
0.0
 40
20.0
  1
3
 41
0.8
 72
       5
 11
-430.85789832
 21
-559.25705014
 31
0.0
100
AcDbText
  0
TEXT
  5
49B
100
AcDbEntity
  8
ZUWAKU
 62
       7
100
AcDbText
 10
-446.85789832
 20
-534.25705014
 30
0.0
 40
20.0
  1
4
 41
0.8
 72
       5
 11
-430.85789832
 21
-534.25705014
 31
0.0
100
AcDbText
  0
TEXT
  5
49C
100
AcDbEntity
  8
ZUWAKU
 62
       7
100
AcDbText
 10
-446.85789832
 20
-509.25705014
 30
0.0
 40
20.0
  1
5
 41
0.8
 72
       5
 11
-430.85789832
 21
-509.25705014
 31
0.0
100
AcDbText
  0
TEXT
  5
49D
100
AcDbEntity
  8
ZUWAKU
 62
       7
100
AcDbText
 10
-446.85789832
 20
-484.25705014
 30
0.0
 40
20.0
  1
6
 41
0.8
 72
       5
 11
-430.85789832
 21
-484.25705014
 31
0.0
100
AcDbText
  0
TEXT
  5
49E
100
AcDbEntity
  8
ZUWAKU
 62
       7
100
AcDbText
 10
-446.85789832
 20
-459.25705014
 30
0.0
 40
20.0
  1
7
 41
0.8
 72
       5
 11
-430.85789832
 21
-459.25705014
 31
0.0
100
AcDbText
  0
TEXT
  5
49F
100
AcDbEntity
  8
ZUWAKU
 62
       7
100
AcDbText
 10
259.25633933
 20
-634.15838192
 30
0.0
 40
20.0
  1
摘要・仕上
 41
0.7143
 72
       5
 11
339.25633933
 21
-634.15838192
 31
0.0
100
AcDbText
  0
TEXT
  5
4A0
100
AcDbEntity
  8
ZUWAKU
 62
       7
100
AcDbText
 10
81.0781398
 20
-634.15838192
 30
0.0
 40
20.0
  1
個　数
 41
0.75
 72
       5
 11
129.0781398
 21
-634.15838192
 31
0.0
100
AcDbText
  0
TEXT
  5
4A1
100
AcDbEntity
  8
ZUWAKU
 62
       7
100
AcDbText
 10
-86.90140671
 20
-634.15838192
 30
0.0
 40
20.0
  1
材　　質
 41
0.6667
 72
       5
 11
-22.90140671
 21
-634.15838192
 31
0.0
100
AcDbText
  0
TEXT
  5
4A2
100
AcDbEntity
  8
ZUWAKU
 62
       7
100
AcDbText
 10
-344.4885055
 20
-634.15838192
 30
0.0
 40
20.0
  1
部　品　名
 41
0.7143
 72
       5
 11
-264.4885055
 21
-634.15838192
 31
0.0
100
AcDbText
  0
TEXT
  5
4A3
100
AcDbEntity
  8
ZUWAKU
 62
       7
100
AcDbText
 10
-454.69907191
 20
-634.15838192
 30
0.0
 40
20.0
  1
部番
 41
0.6667
 72
       5
 11
-422.69907191
 21
-634.15838192
 31
0.0
100
AcDbText
  0
TEXT
  5
4A4
100
AcDbEntity
  8
ZUWAKU
 62
       7
100
AcDbText
 10
-446.85789832
 20
-434.25705014
 30
0.0
 40
20.0
  1
8
 41
0.8
 72
       5
 11
-430.85789832
 21
-434.25705014
 31
0.0
100
AcDbText
  0
TEXT
  5
4A5
100
AcDbEntity
  8
ZUWAKU
 62
       7
100
AcDbText
 10
175.81667022
 20
179.5911638
 30
0.0
 40
25.0
  1
品名番号
 41
0.6667
 72
       5
 11
255.81667022
 21
179.5911638
 31
0.0
100
AcDbText
  0
TEXT
  5
4A6
100
AcDbEntity
  8
ZUWAKU
 62
       7
100
AcDbText
 10
354.23037375
 20
179.5911638
 30
0.0
 40
25.0
  1
仕 上
 41
0.75
 72
       5
 11
414.23037375
 21
179.5911638
 31
0.0
100
AcDbText
  0
TEXT
  5
4A7
100
AcDbEntity
  8
ZUWAKU
 62
       7
100
AcDbText
 10
135.81667022
 20
147.05722715
 30
0.0
 40
25.0
  1
LSM4C-SU
 41
0.8
 72
       5
 11
295.81667022
 21
147.05722715
 31
0.0
100
AcDbText
  0
TEXT
  5
4A8
100
AcDbEntity
  8
ZUWAKU
 62
       7
100
AcDbText
 10
344.89774801
 20
147.05722715
 30
0.0
 40
25.0
  1
スミゾメ
 41
0.6667
 72
       5
 11
424.89774801
 21
147.05722715
 31
0.0
100
AcDbText
  0
TEXT
  5
4A9
100
AcDbEntity
  8
ZUWAKU
 62
       7
100
AcDbText
 10
344.89774801
 20
117.05722715
 30
0.0
 40
25.0
  1
ネリイロ
 41
0.6667
 72
       5
 11
424.89774801
 21
117.05722715
 31
0.0
100
AcDbText
  0
TEXT
  5
4AA
100
AcDbEntity
  8
ZUWAKU
 62
       7
100
AcDbText
 10
344.89774801
 20
87.05722715
 30
0.0
 40
25.0
  1
モトシロ
 41
0.6667
 72
       5
 11
424.89774801
 21
87.05722715
 31
0.0
100
AcDbText
  0
TEXT
  5
4AB
100
AcDbEntity
  8
ZUWAKU
 62
       7
100
AcDbText
 10
344.89774801
 20
56.19984175
 30
0.0
 40
25.0
  1
ツヤシロ
 41
0.6667
 72
       5
 11
424.89774801
 21
56.19984175
 31
0.0
100
AcDbText
  0
TEXT
  5
4AC
100
AcDbEntity
  8
ZUWAKU
 62
       7
100
AcDbText
 10
135.81667022
 20
117.05722715
 30
0.0
 40
25.0
  1
LSM4C-NE
 41
0.8
 72
       5
 11
295.81667022
 21
117.05722715
 31
0.0
100
AcDbText
  0
TEXT
  5
4AD
100
AcDbEntity
  8
ZUWAKU
 62
       7
100
AcDbText
 10
135.81667022
 20
87.05722715
 30
0.0
 40
25.0
  1
LSM4C-MO
 41
0.8
 72
       5
 11
295.81667022
 21
87.05722715
 31
0.0
100
AcDbText
  0
TEXT
  5
4AE
100
AcDbEntity
  8
ZUWAKU
 62
       7
100
AcDbText
 10
135.81667022
 20
56.19984175
 30
0.0
 40
25.0
  1
LSM4C-TU
 41
0.8
 72
       5
 11
295.81667022
 21
56.19984175
 31
0.0
100
AcDbText
  0
TEXT
  5
4AF
100
AcDbEntity
  8
ZUWAKU
 62
       7
100
AcDbText
 10
344.89774801
 20
25.34245635
 30
0.0
 40
25.0
  1
タンコウ
 41
0.6667
 72
       5
 11
424.89774801
 21
25.34245635
 31
0.0
100
AcDbText
  0
TEXT
  5
4B0
100
AcDbEntity
  8
ZUWAKU
 62
       7
100
AcDbText
 10
135.81667022
 20
25.34245635
 30
0.0
 40
25.0
  1
LSM4C-TA
 41
0.8
 72
       5
 11
295.81667022
 21
25.34245635
 31
0.0
100
AcDbText
  0
TEXT
  5
4B1
100
AcDbEntity
  8
LAYER0240
 62
       7
100
AcDbText
 10
278.83333333
 20
-685.55063314
 30
0.0
 40
20.0
  1
LSM4C
 41
0.8
 72
       5
 11
358.83333333
 21
-685.55063314
 31
0.0
100
AcDbText
  0
TEXT
  5
4B2
100
AcDbEntity
  8
LAYER0240
 62
       7
100
AcDbText
 10
278.83333333
 20
681.19597606
 30
0.0
 40
20.0
  1
LSM4C
 41
0.8
 72
       5
 11
358.83333333
 21
681.19597606
 31
0.0
100
AcDbText
  0
TEXT
  5
4B3
100
AcDbEntity
  8
LAYER0240
 62
       7
100
AcDbText
 10
-415.72916667
 20
-609.45688314
 30
0.0
 40
20.0
  1
手洗器本体
 41
0.7143
 72
       5
 11
-335.72916667
 21
-609.45688314
 31
0.0
100
AcDbText
  0
TEXT
  5
4B4
100
AcDbEntity
  8
LAYER0240
 62
       7
100
AcDbText
 10
-182.91666667
 20
-609.45688314
 30
0.0
 40
20.0
  1
陶器
 41
0.6667
 72
       5
 11
-150.91666667
 21
-609.45688314
 31
0.0
100
AcDbText
  0
TEXT
  5
4B5
100
AcDbEntity
  8
LAYER0240
 62
       7
100
AcDbText
 10
97.52083333
 20
-609.45688314
 30
0.0
 40
20.0
  1
１
 41
0.8
 72
       5
 11
113.52083333
 21
-609.45688314
 31
0.0
100
AcDbText
  0
TEXT
  5
4B6
100
AcDbEntity
  8
LAYER0240
 62
       7
100
AcDbText
 10
-415.72916667
 20
-584.45688314
 30
0.0
 40
20.0
  1
施工・取扱説明書
 41
0.6667
 72
       5
 11
-287.72916667
 21
-584.45688314
 31
0.0
100
AcDbText
  0
TEXT
  5
4B7
100
AcDbEntity
  8
LAYER0240
 62
       7
100
AcDbText
 10
97.52083333
 20
-584.45688314
 30
0.0
 40
20.0
  1
1
 41
0.8
 72
       5
 11
113.52083333
 21
-584.45688314
 31
0.0
100
AcDbText
  0
TEXT
  5
4B8
100
AcDbEntity
  8
LAYER0240
 62
       7
100
AcDbText
 10
-154.51041667
 20
-685.55063314
 30
0.0
 40
20.0
  1
モノクロームシリーズ置き型手洗器
 41
0.6667
 72
       5
 11
101.48958333
 21
-685.55063314
 31
0.0
100
AcDbText
  0
TEXT
  5
4B9
100
AcDbEntity
  8
LAYER0240
 62
       7
100
AcDbText
 10
-203.37077893
 20
683.97681635
 30
0.0
 40
20.0
  1
モノクロームシリーズ置き型手洗器
 41
0.6667
 72
       5
 11
52.62922107
 21
683.97681635
 31
0.0
100
AcDbText
  0
TEXT
  5
4BA
100
AcDbEntity
  8
LAYER0240
 62
       7
100
AcDbText
 10
341.92824953
 20
-381.61978089
 30
0.0
 40
20.0
  1
容量　2.4L
 41
0.7778
 72
       5
 11
453.92824953
 21
-381.61978089
 31
0.0
100
AcDbText
  0
TEXT
  5
4BB
100
AcDbEntity
  8
LAYER0240
 62
       7
100
AcDbText
 10
341.92824953
 20
-356.61978089
 30
0.0
 40
20.0
  1
重量　1.5ｋｇ
 41
0.7273
 72
       5
 11
469.92824953
 21
-356.61978089
 31
0.0
100
AcDbText
  0
LINE
  5
4BC
100
AcDbEntity
  8
0
  6
CENTER
 62
       7
100
AcDbLine
 10
-338.11804013
 20
317.72714655
 30
0.0
 11
30.00992011
 21
317.72714655
 31
0.0
  0
LINE
  5
4BD
100
AcDbEntity
  8
0
  6
CENTER
 62
       7
100
AcDbLine
 10
-152.74521098
 20
-17.58092486
 30
0.0
 11
-152.74521098
 21
-174.01849321
 31
0.0
  0
LINE
  5
4BE
100
AcDbEntity
  8
0
  6
CENTER
 62
       7
100
AcDbLine
 10
293.66184971
 20
-17.58092486
 30
0.0
 11
293.66184971
 21
-186.52044994
 31
0.0
  0
LINE
  5
4BF
100
AcDbEntity
  8
0
  6
CENTER
 62
       7
100
AcDbLine
 10
-152.74521098
 20
500.80069377
 30
0.0
 11
-152.74521098
 21
136.64819746
 31
0.0
  0
CIRCLE
  5
4C0
100
AcDbEntity
  8
0
  6
CONTINUOUS
 62
       7
100
AcDbCircle
 10
-152.74521098
 20
317.72714655
 30
0.0
 40
32.0
  0
CIRCLE
  5
4C1
100
AcDbEntity
  8
0
  6
CONTINUOUS
 62
       7
100
AcDbCircle
 10
-152.74521098
 20
317.72714655
 30
0.0
 40
17.5
  0
LINE
  5
4C2
100
AcDbEntity
  8
0
  6
CONTINUOUS
 62
       7
100
AcDbLine
 10
-317.74521098
 20
-42.26742826
 30
0.0
 11
12.25478902
 21
-42.26742826
 31
0.0
  0
LINE
  5
4C3
100
AcDbEntity
  8
0
  6
CONTINUOUS
 62
       7
100
AcDbLine
 10
-197.74521098
 20
-167.26742826
 30
0.0
 11
-107.74521098
 21
-167.26742826
 31
0.0
  0
LINE
  5
4C4
100
AcDbEntity
  8
0
  6
CONTINUOUS
 62
       7
100
AcDbLine
 10
-135.24521098
 20
-167.26742826
 30
0.0
 11
-135.24521098
 21
-158.26742826
 31
0.0
  0
LINE
  5
4C5
100
AcDbEntity
  8
0
  6
CONTINUOUS
 62
       7
100
AcDbLine
 10
12.25478902
 20
-45.26742826
 30
0.0
 11
12.25478902
 21
-42.26742826
 31
0.0
  0
LINE
  5
4C6
100
AcDbEntity
  8
0
  6
CONTINUOUS
 62
       7
100
AcDbLine
 10
-317.74521098
 20
-45.26742826
 30
0.0
 11
-317.74521098
 21
-42.26742826
 31
0.0
  0
LINE
  5
4C7
100
AcDbEntity
  8
0
  6
CONTINUOUS
 62
       7
100
AcDbLine
 10
-152.74521098
 20
-158.26742826
 30
0.0
 11
-135.24521098
 21
-158.26742826
 31
0.0
  0
LINE
  5
4C8
100
AcDbEntity
  8
0
  6
CONTINUOUS
 62
       7
100
AcDbLine
 10
-152.74521098
 20
-144.26742826
 30
0.0
 11
-120.74521098
 21
-144.26742826
 31
0.0
  0
LINE
  5
4C9
100
AcDbEntity
  8
0
  6
CONTINUOUS
 62
       7
100
AcDbLine
 10
-135.24521098
 20
-158.26742826
 30
0.0
 11
-120.74521098
 21
-144.26742826
 31
0.0
  0
LINE
  5
4CA
100
AcDbEntity
  8
0
  6
CONTINUOUS
 62
       7
100
AcDbLine
 10
-170.24521098
 20
-167.26742826
 30
0.0
 11
-170.24521098
 21
-158.26742826
 31
0.0
  0
LINE
  5
4CB
100
AcDbEntity
  8
0
  6
CONTINUOUS
 62
       7
100
AcDbLine
 10
-152.74521098
 20
-158.26742826
 30
0.0
 11
-170.24521098
 21
-158.26742826
 31
0.0
  0
LINE
  5
4CC
100
AcDbEntity
  8
0
  6
CONTINUOUS
 62
       7
100
AcDbLine
 10
-152.74521098
 20
-144.26742826
 30
0.0
 11
-184.74521098
 21
-144.26742826
 31
0.0
  0
LINE
  5
4CD
100
AcDbEntity
  8
0
  6
CONTINUOUS
 62
       7
100
AcDbLine
 10
-170.24521098
 20
-158.26742826
 30
0.0
 11
-184.74521098
 21
-144.26742826
 31
0.0
  0
LINE
  5
4CE
100
AcDbEntity
  8
0
  6
CONTINUOUS
 62
       7
100
AcDbLine
 10
128.66184971
 20
-42.26742826
 30
0.0
 11
408.66184971
 21
-42.26742826
 31
0.0
  0
LINE
  5
4CF
100
AcDbEntity
  8
0
  6
CONTINUOUS
 62
       7
100
AcDbLine
 10
-271.06680664
 20
432.72714655
 30
0.0
 11
-34.42361532
 21
432.72714655
 31
0.0
  0
ARC
  5
4D0
100
AcDbEntity
  8
0
  6
CONTINUOUS
 62
       7
100
AcDbCircle
 10
-152.74521098
 20
317.72714655
 30
0.0
 40
165.0
100
AcDbArc
 50
135.81561485
 51
404.18438515
  0
LINE
  5
4D1
100
AcDbEntity
  8
0
  6
CONTINUOUS
 62
       7
100
AcDbLine
 10
408.66184971
 20
-45.26742826
 30
0.0
 11
408.66184971
 21
-42.26742826
 31
0.0
  0
ARC
  5
4D2
100
AcDbEntity
  8
0
  6
CONTINUOUS
 62
       7
100
AcDbCircle
 10
615.07871013
 20
-170.32084582
 30
0.0
 40
241.3426558
100
AcDbArc
 50
148.79128368
 51
170.24141457
  0
LINE
  5
4D3
100
AcDbEntity
  8
0
  6
CONTINUOUS
 62
       7
100
AcDbLine
 10
276.16184971
 20
-167.26742826
 30
0.0
 11
276.16184971
 21
-158.26742826
 31
0.0
  0
LINE
  5
4D4
100
AcDbEntity
  8
0
  6
CONTINUOUS
 62
       7
100
AcDbLine
 10
293.66184971
 20
-158.26742826
 30
0.0
 11
276.16184971
 21
-158.26742826
 31
0.0
  0
LINE
  5
4D5
100
AcDbEntity
  8
0
  6
CONTINUOUS
 62
       7
100
AcDbLine
 10
293.66184971
 20
-144.26742826
 30
0.0
 11
261.66184971
 21
-144.26742826
 31
0.0
  0
LINE
  5
4D6
100
AcDbEntity
  8
0
  6
CONTINUOUS
 62
       7
100
AcDbLine
 10
276.16184971
 20
-158.26742826
 30
0.0
 11
261.66184971
 21
-144.26742826
 31
0.0
  0
LINE
  5
4D7
100
AcDbEntity
  8
0
  6
CONTINUOUS
 62
       7
100
AcDbLine
 10
311.16184971
 20
-167.26742826
 30
0.0
 11
311.16184971
 21
-158.26742826
 31
0.0
  0
LINE
  5
4D8
100
AcDbEntity
  8
0
  6
CONTINUOUS
 62
       7
100
AcDbLine
 10
293.66184971
 20
-158.26742826
 30
0.0
 11
311.16184971
 21
-158.26742826
 31
0.0
  0
LINE
  5
4D9
100
AcDbEntity
  8
0
  6
CONTINUOUS
 62
       7
100
AcDbLine
 10
293.66184971
 20
-144.26742826
 30
0.0
 11
325.66184971
 21
-144.26742826
 31
0.0
  0
LINE
  5
4DA
100
AcDbEntity
  8
0
  6
CONTINUOUS
 62
       7
100
AcDbLine
 10
311.16184971
 20
-158.26742826
 30
0.0
 11
325.66184971
 21
-144.26742826
 31
0.0
  0
LINE
  5
4DB
100
AcDbEntity
  8
0
  6
CONTINUOUS
 62
       7
100
AcDbLine
 10
248.66184971
 20
-167.26742826
 30
0.0
 11
336.66184971
 21
-167.26742826
 31
0.0
  0
LINE
  5
4DC
100
AcDbEntity
  8
0
  6
CONTINUOUS
 62
       7
100
AcDbLine
 10
-263.7286305
 20
422.72714655
 30
0.0
 11
-41.76179145
 21
422.72714655
 31
0.0
  0
ARC
  5
4DD
100
AcDbEntity
  8
0
  6
CONTINUOUS
 62
       7
100
AcDbCircle
 10
-183.24220481
 20
-113.02212794
 30
0.0
 40
56.15059924
100
AcDbArc
 50
198.51852237
 51
255.03151858
  0
ARC
  5
4DE
100
AcDbEntity
  8
0
  6
CONTINUOUS
 62
       7
100
AcDbCircle
 10
-385.04774457
 20
-190.53521762
 30
0.0
 40
160.10109823
100
AcDbArc
 50
21.88583613
 51
65.14172136
  0
ARC
  5
4DF
100
AcDbEntity
  8
0
  6
CONTINUOUS
 62
       7
100
AcDbCircle
 10
-342.51062128
 20
-166.03359547
 30
0.0
 40
126.21960899
100
AcDbArc
 50
31.34002933
 51
78.68464734
  0
ARC
  5
4E0
100
AcDbEntity
  8
0
  6
CONTINUOUS
 62
       7
100
AcDbCircle
 10
-147.04208244
 20
-50.95836937
 30
0.0
 40
100.63849349
100
AcDbArc
 50
209.41475696
 51
247.99798268
  0
ARC
  5
4E1
100
AcDbEntity
  8
0
  6
CONTINUOUS
 62
       7
100
AcDbCircle
 10
37.02019933
 20
-166.03359547
 30
0.0
 40
126.21960899
100
AcDbArc
 50
101.31535266
 51
148.65997067
  0
ARC
  5
4E2
100
AcDbEntity
  8
0
  6
CONTINUOUS
 62
       7
100
AcDbCircle
 10
-158.44833952
 20
-50.95836937
 30
0.0
 40
100.63849349
100
AcDbArc
 50
292.00201732
 51
330.58524304
  0
ARC
  5
4E3
100
AcDbEntity
  8
0
  6
CONTINUOUS
 62
       7
100
AcDbCircle
 10
79.55732261
 20
-190.53521762
 30
0.0
 40
160.10109823
100
AcDbArc
 50
114.85827864
 51
158.11416387
  0
ARC
  5
4E4
100
AcDbEntity
  8
0
  6
CONTINUOUS
 62
       7
100
AcDbCircle
 10
-122.24821715
 20
-113.02212794
 30
0.0
 40
56.15059924
100
AcDbArc
 50
284.96848142
 51
341.48147763
  0
ARC
  5
4E5
100
AcDbEntity
  8
0
  6
CONTINUOUS
 62
       7
100
AcDbCircle
 10
61.35931612
 20
-190.53521762
 30
0.0
 40
160.10109823
100
AcDbArc
 50
21.88583613
 51
65.14172136
  0
ARC
  5
4E6
100
AcDbEntity
  8
0
  6
CONTINUOUS
 62
       7
100
AcDbCircle
 10
103.89643941
 20
-166.03359547
 30
0.0
 40
126.21960899
100
AcDbArc
 50
31.34002933
 51
78.68464734
  0
LINE
  5
4E7
100
AcDbEntity
  8
0
  6
CONTINUOUS
 62
       7
100
AcDbLine
 10
128.66184971
 20
-45.26742826
 30
0.0
 11
128.66184971
 21
-42.26742826
 31
0.0
  0
ARC
  5
4E8
100
AcDbEntity
  8
0
  6
CONTINUOUS
 62
       7
100
AcDbCircle
 10
263.16485588
 20
-113.02212794
 30
0.0
 40
56.15059924
100
AcDbArc
 50
198.51852237
 51
255.03151858
  0
ARC
  5
4E9
100
AcDbEntity
  8
0
  6
CONTINUOUS
 62
       7
100
AcDbCircle
 10
299.36497825
 20
-50.95836937
 30
0.0
 40
100.63849349
100
AcDbArc
 50
209.41475696
 51
247.99798268
  0
ARC
  5
4EA
100
AcDbEntity
  8
0
  6
CONTINUOUS
 62
       7
100
AcDbCircle
 10
324.91161993
 20
-114.01163522
 30
0.0
 40
54.536661
100
AcDbArc
 50
282.44225854
 51
343.5952357
  0
ARC
  5
4EB
100
AcDbEntity
  8
0
  6
CONTINUOUS
 62
       7
100
AcDbCircle
 10
276.73401938
 20
-49.24521906
 30
0.0
 40
106.87915055
100
AcDbArc
 50
297.24436521
 51
337.19767248
  0
ARC
  5
4EC
100
AcDbEntity
  8
0
  6
CONTINUOUS
 62
       7
100
AcDbCircle
 10
-1108.85242033
 20
656.77684678
 30
0.0
 40
1661.70459855
100
AcDbArc
 50
333.26881215
 51
335.12253522
  0
CIRCLE
  5
4ED
100
AcDbEntity
  8
0
  6
DASHED2
 62
       7
100
AcDbCircle
 10
-152.74521098
 20
317.72714655
 30
0.0
 40
45.0
  0
LINE
  5
4EE
100
AcDbEntity
  8
0
  6
DIVIDE
 62
       7
100
AcDbLine
 10
137.68163315
 20
-192.26742826
 30
0.0
 11
447.42469407
 21
-192.26742826
 31
0.0
  0
LINE
  5
4EF
100
AcDbEntity
  8
0
  6
DIVIDE
 62
       7
100
AcDbLine
 10
447.42469407
 20
-167.26742826
 30
0.0
 11
137.68163315
 21
-167.26742826
 31
0.0
  0
LINE
  5
4F0
100
AcDbEntity
  8
0
  6
DIVIDE
 62
       7
100
AcDbLine
 10
263.66184971
 20
-192.26742826
 30
0.0
 11
263.66184971
 21
-167.26742826
 31
0.0
  0
LINE
  5
4F1
100
AcDbEntity
  8
0
  6
DIVIDE
 62
       7
100
AcDbLine
 10
323.66184971
 20
-192.26742826
 30
0.0
 11
323.66184971
 21
-167.26742826
 31
0.0
  0
INSERT
  5
4F2
100
AcDbEntity
  8
0
  6
CONTINUOUS
100
AcDbBlockReference
  2
DA_IMAGEDIMGROUP_1
 10
0.0
 20
0.0
 30
0.0
  0
INSERT
  5
4F3
100
AcDbEntity
  8
0
  6
CONTINUOUS
100
AcDbBlockReference
  2
DA_IMAGEDIMGROUP_2
 10
0.0
 20
0.0
 30
0.0
  0
INSERT
  5
4F4
100
AcDbEntity
  8
0
  6
CONTINUOUS
100
AcDbBlockReference
  2
DA_IMAGEDIMGROUP_3
 10
0.0
 20
0.0
 30
0.0
  0
INSERT
  5
4F5
100
AcDbEntity
  8
0
  6
CONTINUOUS
100
AcDbBlockReference
  2
DA_IMAGEDIMGROUP_4
 10
0.0
 20
0.0
 30
0.0
  0
INSERT
  5
4F6
100
AcDbEntity
  8
0
  6
CONTINUOUS
100
AcDbBlockReference
  2
DA_IMAGEDIMGROUP_5
 10
0.0
 20
0.0
 30
0.0
  0
INSERT
  5
4F7
100
AcDbEntity
  8
0
  6
CONTINUOUS
100
AcDbBlockReference
  2
DA_IMAGEDIMGROUP_6
 10
0.0
 20
0.0
 30
0.0
  0
INSERT
  5
4F8
100
AcDbEntity
  8
0
  6
CONTINUOUS
100
AcDbBlockReference
  2
GROUP_1
 10
0.0
 20
0.0
 30
0.0
  0
INSERT
  5
4F9
100
AcDbEntity
  8
0
  6
CONTINUOUS
100
AcDbBlockReference
  2
GROUP_2
 10
0.0
 20
0.0
 30
0.0
  0
INSERT
  5
4FA
100
AcDbEntity
  8
0
  6
CONTINUOUS
100
AcDbBlockReference
  2
DA_IMAGEDIMGROUP_7
 10
0.0
 20
0.0
 30
0.0
  0
INSERT
  5
4FB
100
AcDbEntity
  8
0
  6
CONTINUOUS
100
AcDbBlockReference
  2
DA_IMAGEDIMGROUP_8
 10
0.0
 20
0.0
 30
0.0
  0
ENDSEC
  0
SECTION
  2
OBJECTS
  0
DICTIONARY
  5
19
100
AcDbDictionary
  3
ACAD_GROUP
350
1A
  3
ACAD_MLINESTYLE
350
1B
  0
DICTIONARY
  5
1A
102
{ACAD_REACTORS
330
19
102
}
100
AcDbDictionary
  0
DICTIONARY
  5
1B
102
{ACAD_REACTORS
330
19
102
}
100
AcDbDictionary
  3
STANDARD
350
1C
  0
MLINESTYLE
  5
1C
102
{ACAD_REACTORS
330
1B
102
}
100
AcDbMlineStyle
  2
STANDARD
 70
       0
  3

 62
       0
 51
90.0
 52
90.0
 71
       2
 49
0.5
 62
     256
  6
BYLAYER
 49
-0.5
 62
     256
  6
BYLAYER
  0
ENDSEC
  0
EOF
